ISO-10303-21;
HEADER;
FILE_DESCRIPTION(('CATIA V5 STEP Exchange','CAx-IF Rec.Pracs.--- Model Styling and Organization---1.4--- 2014-01-23'),'2;1');

FILE_NAME ('011421-3_0', '2022-08-09T06:58:24+00:00', ('none'), ('Weidmueller'), 'CATIA Version 5-6 Release 2016 SP3 HF44', 'CATIA V5 STEP AP214', 'none');

FILE_SCHEMA(('AUTOMOTIVE_DESIGN { 1 0 10303 214 1 1 1 1 }'));

ENDSEC;
DATA;
#5=PRODUCT('55340_CC-M_85X27_2X3_ST','','MetalliCard',(#2)) ;
#2=PRODUCT_CONTEXT(' ',#1,'mechanical') ;
#1=APPLICATION_CONTEXT('automotive design') ;
#10=PRODUCT_DEFINITION('',' ',#6,#3) ;
#3=PRODUCT_DEFINITION_CONTEXT('part definition',#1,' ') ;
#11=PRODUCT_DEFINITION_SHAPE(' ',' ',#10) ;
#312=MECHANICAL_DESIGN_GEOMETRIC_PRESENTATION_REPRESENTATION(' ',(#29),#16) ;
#19=SHAPE_REPRESENTATION(' ',(#18),#16) ;
#18=AXIS2_PLACEMENT_3D(' ',#17,$,$) ;
#35=AXIS2_PLACEMENT_3D('Cylinder Axis2P3D',#32,#33,#34) ;
#39=AXIS2_PLACEMENT_3D('Circle Axis2P3D',#37,#38,$) ;
#55=AXIS2_PLACEMENT_3D('Circle Axis2P3D',#53,#54,$) ;
#74=AXIS2_PLACEMENT_3D('Circle Axis2P3D',#72,#73,$) ;
#79=AXIS2_PLACEMENT_3D('Circle Axis2P3D',#77,#78,$) ;
#92=AXIS2_PLACEMENT_3D('Plane Axis2P3D',#89,#90,#91) ;
#134=AXIS2_PLACEMENT_3D('Circle Axis2P3D',#132,#133,$) ;
#143=AXIS2_PLACEMENT_3D('Circle Axis2P3D',#141,#142,$) ;
#154=AXIS2_PLACEMENT_3D('Plane Axis2P3D',#151,#152,#153) ;
#185=AXIS2_PLACEMENT_3D('Plane Axis2P3D',#182,#183,#184) ;
#209=AXIS2_PLACEMENT_3D('Plane Axis2P3D',#206,#207,#208) ;
#233=AXIS2_PLACEMENT_3D('Plane Axis2P3D',#230,#231,#232) ;
#250=AXIS2_PLACEMENT_3D('Cylinder Axis2P3D',#247,#248,#249) ;
#254=AXIS2_PLACEMENT_3D('Circle Axis2P3D',#252,#253,$) ;
#280=AXIS2_PLACEMENT_3D('Circle Axis2P3D',#278,#279,$) ;
#293=AXIS2_PLACEMENT_3D('Plane Axis2P3D',#290,#291,#292) ;
#17=CARTESIAN_POINT(' ',(0.,0.,0.)) ;
#32=CARTESIAN_POINT('Axis2P3D Location',(3.8,13.5,-0.41000000076)) ;
#37=CARTESIAN_POINT('Axis2P3D Location',(3.8,13.5,0.)) ;
#41=CARTESIAN_POINT('Vertex',(2.15,13.5,-5.55111512313E-017)) ;
#43=CARTESIAN_POINT('Vertex',(5.45,13.5,0.)) ;
#46=CARTESIAN_POINT('Line Origine',(2.15,13.5,-0.41000000076)) ;
#50=CARTESIAN_POINT('Vertex',(2.15,13.5,0.5)) ;
#53=CARTESIAN_POINT('Axis2P3D Location',(3.8,13.5,0.5)) ;
#57=CARTESIAN_POINT('Vertex',(5.45,13.5,0.5)) ;
#60=CARTESIAN_POINT('Line Origine',(5.45,13.5,-0.41000000076)) ;
#72=CARTESIAN_POINT('Axis2P3D Location',(3.8,13.5,0.)) ;
#77=CARTESIAN_POINT('Axis2P3D Location',(3.8,13.5,0.5)) ;
#89=CARTESIAN_POINT('Axis2P3D Location',(42.8,13.5,0.5)) ;
#94=CARTESIAN_POINT('Line Origine',(0.,13.5,0.5)) ;
#98=CARTESIAN_POINT('Vertex',(0.,27.,0.5)) ;
#100=CARTESIAN_POINT('Vertex',(0.,-3.5527136788E-015,0.5)) ;
#103=CARTESIAN_POINT('Line Origine',(42.8,0.,0.5)) ;
#107=CARTESIAN_POINT('Vertex',(85.6,0.,0.5)) ;
#110=CARTESIAN_POINT('Line Origine',(85.6,13.5,0.5)) ;
#114=CARTESIAN_POINT('Vertex',(85.6,27.,0.5)) ;
#117=CARTESIAN_POINT('Line Origine',(42.8,27.,0.5)) ;
#132=CARTESIAN_POINT('Axis2P3D Location',(81.8,13.5,0.5)) ;
#136=CARTESIAN_POINT('Vertex',(80.15,13.5,0.5)) ;
#138=CARTESIAN_POINT('Vertex',(83.45,13.5,0.5)) ;
#141=CARTESIAN_POINT('Axis2P3D Location',(81.8,13.5,0.5)) ;
#151=CARTESIAN_POINT('Axis2P3D Location',(0.,27.,0.)) ;
#156=CARTESIAN_POINT('Line Origine',(0.,27.,0.25)) ;
#160=CARTESIAN_POINT('Vertex',(0.,27.,0.)) ;
#163=CARTESIAN_POINT('Line Origine',(0.,13.5,0.)) ;
#167=CARTESIAN_POINT('Vertex',(0.,-3.5527136788E-015,0.)) ;
#170=CARTESIAN_POINT('Line Origine',(0.,-3.5527136788E-015,0.25)) ;
#182=CARTESIAN_POINT('Axis2P3D Location',(85.6,0.,0.)) ;
#187=CARTESIAN_POINT('Line Origine',(42.8,0.,0.)) ;
#191=CARTESIAN_POINT('Vertex',(85.6,0.,0.)) ;
#194=CARTESIAN_POINT('Line Origine',(85.6,0.,0.25)) ;
#206=CARTESIAN_POINT('Axis2P3D Location',(85.6,-3.5527136788E-015,0.)) ;
#211=CARTESIAN_POINT('Line Origine',(85.6,13.5,0.)) ;
#215=CARTESIAN_POINT('Vertex',(85.6,27.,0.)) ;
#218=CARTESIAN_POINT('Line Origine',(85.6,27.,0.25)) ;
#230=CARTESIAN_POINT('Axis2P3D Location',(0.,27.,0.)) ;
#235=CARTESIAN_POINT('Line Origine',(42.8,27.,0.)) ;
#247=CARTESIAN_POINT('Axis2P3D Location',(81.8,13.5,-0.41000000076)) ;
#252=CARTESIAN_POINT('Axis2P3D Location',(81.8,13.5,0.)) ;
#256=CARTESIAN_POINT('Vertex',(83.45,13.5,-5.55111512313E-017)) ;
#258=CARTESIAN_POINT('Vertex',(80.15,13.5,0.)) ;
#261=CARTESIAN_POINT('Line Origine',(83.45,13.5,-0.41000000076)) ;
#266=CARTESIAN_POINT('Line Origine',(80.15,13.5,-0.41000000076)) ;
#278=CARTESIAN_POINT('Axis2P3D Location',(81.8,13.5,0.)) ;
#290=CARTESIAN_POINT('Axis2P3D Location',(42.8,13.5,0.)) ;
#33=DIRECTION('Axis2P3D Direction',(0.,0.,1.)) ;
#34=DIRECTION('Axis2P3D XDirection',(1.,0.,0.)) ;
#38=DIRECTION('Axis2P3D Direction',(0.,0.,1.)) ;
#47=DIRECTION('Vector Direction',(0.,0.,1.)) ;
#54=DIRECTION('Axis2P3D Direction',(0.,0.,1.)) ;
#61=DIRECTION('Vector Direction',(0.,0.,1.)) ;
#73=DIRECTION('Axis2P3D Direction',(0.,0.,1.)) ;
#78=DIRECTION('Axis2P3D Direction',(0.,0.,1.)) ;
#90=DIRECTION('Axis2P3D Direction',(0.,0.,1.)) ;
#91=DIRECTION('Axis2P3D XDirection',(1.,0.,0.)) ;
#95=DIRECTION('Vector Direction',(0.,-1.,0.)) ;
#104=DIRECTION('Vector Direction',(-1.,0.,0.)) ;
#111=DIRECTION('Vector Direction',(0.,1.,0.)) ;
#118=DIRECTION('Vector Direction',(1.,0.,0.)) ;
#133=DIRECTION('Axis2P3D Direction',(0.,0.,1.)) ;
#142=DIRECTION('Axis2P3D Direction',(0.,0.,1.)) ;
#152=DIRECTION('Axis2P3D Direction',(-1.,0.,0.)) ;
#153=DIRECTION('Axis2P3D XDirection',(0.,-1.,0.)) ;
#157=DIRECTION('Vector Direction',(0.,0.,1.)) ;
#164=DIRECTION('Vector Direction',(0.,-1.,0.)) ;
#171=DIRECTION('Vector Direction',(0.,0.,1.)) ;
#183=DIRECTION('Axis2P3D Direction',(0.,1.,-0.)) ;
#184=DIRECTION('Axis2P3D XDirection',(-1.,0.,0.)) ;
#188=DIRECTION('Vector Direction',(-1.,0.,0.)) ;
#195=DIRECTION('Vector Direction',(0.,0.,1.)) ;
#207=DIRECTION('Axis2P3D Direction',(1.,0.,0.)) ;
#208=DIRECTION('Axis2P3D XDirection',(0.,1.,0.)) ;
#212=DIRECTION('Vector Direction',(0.,1.,0.)) ;
#219=DIRECTION('Vector Direction',(0.,0.,1.)) ;
#231=DIRECTION('Axis2P3D Direction',(0.,-1.,0.)) ;
#232=DIRECTION('Axis2P3D XDirection',(1.,0.,0.)) ;
#236=DIRECTION('Vector Direction',(1.,0.,0.)) ;
#248=DIRECTION('Axis2P3D Direction',(0.,0.,1.)) ;
#249=DIRECTION('Axis2P3D XDirection',(-1.,1.22464679915E-016,0.)) ;
#253=DIRECTION('Axis2P3D Direction',(0.,0.,1.)) ;
#262=DIRECTION('Vector Direction',(0.,0.,1.)) ;
#267=DIRECTION('Vector Direction',(0.,0.,1.)) ;
#279=DIRECTION('Axis2P3D Direction',(0.,0.,1.)) ;
#291=DIRECTION('Axis2P3D Direction',(0.,0.,1.)) ;
#292=DIRECTION('Axis2P3D XDirection',(1.,0.,0.)) ;
#30=PRESENTATION_LAYER_ASSIGNMENT('1',' ',(#21)) ;
#8=PRODUCT_RELATED_PRODUCT_CATEGORY('part',$,(#5)) ;
#7=PRODUCT_CATEGORY('part','specification') ;
#29=STYLED_ITEM(' ',(#28),#21) ;
#28=PRESENTATION_STYLE_ASSIGNMENT((#27)) ;
#27=SURFACE_STYLE_USAGE(.BOTH.,#26) ;
#26=SURFACE_SIDE_STYLE(' ',(#25)) ;
#25=SURFACE_STYLE_FILL_AREA(#24) ;
#24=FILL_AREA_STYLE(' ',(#23)) ;
#23=FILL_AREA_STYLE_COLOUR(' ',#22) ;
#48=VECTOR('Line Direction',#47,1.) ;
#62=VECTOR('Line Direction',#61,1.) ;
#96=VECTOR('Line Direction',#95,1.) ;
#105=VECTOR('Line Direction',#104,1.) ;
#112=VECTOR('Line Direction',#111,1.) ;
#119=VECTOR('Line Direction',#118,1.) ;
#158=VECTOR('Line Direction',#157,1.) ;
#165=VECTOR('Line Direction',#164,1.) ;
#172=VECTOR('Line Direction',#171,1.) ;
#189=VECTOR('Line Direction',#188,1.) ;
#196=VECTOR('Line Direction',#195,1.) ;
#213=VECTOR('Line Direction',#212,1.) ;
#220=VECTOR('Line Direction',#219,1.) ;
#237=VECTOR('Line Direction',#236,1.) ;
#263=VECTOR('Line Direction',#262,1.) ;
#268=VECTOR('Line Direction',#267,1.) ;
#15=UNCERTAINTY_MEASURE_WITH_UNIT(LENGTH_MEASURE(0.005),#12,'distance_accuracy_value','CONFUSED CURVE UNCERTAINTY') ;
#311=SHAPE_REPRESENTATION_RELATIONSHIP(' ',' ',#19,#310) ;
#66=ORIENTED_EDGE('',*,*,#45,.F.) ;
#67=ORIENTED_EDGE('',*,*,#52,.F.) ;
#68=ORIENTED_EDGE('',*,*,#59,.T.) ;
#69=ORIENTED_EDGE('',*,*,#64,.T.) ;
#83=ORIENTED_EDGE('',*,*,#76,.F.) ;
#84=ORIENTED_EDGE('',*,*,#64,.F.) ;
#85=ORIENTED_EDGE('',*,*,#81,.T.) ;
#86=ORIENTED_EDGE('',*,*,#52,.T.) ;
#123=ORIENTED_EDGE('',*,*,#102,.T.) ;
#124=ORIENTED_EDGE('',*,*,#109,.T.) ;
#125=ORIENTED_EDGE('',*,*,#116,.T.) ;
#126=ORIENTED_EDGE('',*,*,#121,.T.) ;
#129=ORIENTED_EDGE('',*,*,#81,.F.) ;
#130=ORIENTED_EDGE('',*,*,#59,.F.) ;
#147=ORIENTED_EDGE('',*,*,#140,.F.) ;
#148=ORIENTED_EDGE('',*,*,#145,.F.) ;
#176=ORIENTED_EDGE('',*,*,#162,.F.) ;
#177=ORIENTED_EDGE('',*,*,#169,.T.) ;
#178=ORIENTED_EDGE('',*,*,#174,.T.) ;
#179=ORIENTED_EDGE('',*,*,#102,.F.) ;
#200=ORIENTED_EDGE('',*,*,#174,.F.) ;
#201=ORIENTED_EDGE('',*,*,#193,.T.) ;
#202=ORIENTED_EDGE('',*,*,#198,.T.) ;
#203=ORIENTED_EDGE('',*,*,#109,.F.) ;
#224=ORIENTED_EDGE('',*,*,#198,.F.) ;
#225=ORIENTED_EDGE('',*,*,#217,.T.) ;
#226=ORIENTED_EDGE('',*,*,#222,.T.) ;
#227=ORIENTED_EDGE('',*,*,#116,.F.) ;
#241=ORIENTED_EDGE('',*,*,#222,.F.) ;
#242=ORIENTED_EDGE('',*,*,#239,.T.) ;
#243=ORIENTED_EDGE('',*,*,#162,.T.) ;
#244=ORIENTED_EDGE('',*,*,#121,.F.) ;
#272=ORIENTED_EDGE('',*,*,#260,.F.) ;
#273=ORIENTED_EDGE('',*,*,#265,.F.) ;
#274=ORIENTED_EDGE('',*,*,#145,.T.) ;
#275=ORIENTED_EDGE('',*,*,#270,.T.) ;
#284=ORIENTED_EDGE('',*,*,#282,.F.) ;
#285=ORIENTED_EDGE('',*,*,#270,.F.) ;
#286=ORIENTED_EDGE('',*,*,#140,.T.) ;
#287=ORIENTED_EDGE('',*,*,#265,.T.) ;
#296=ORIENTED_EDGE('',*,*,#239,.F.) ;
#297=ORIENTED_EDGE('',*,*,#217,.F.) ;
#298=ORIENTED_EDGE('',*,*,#193,.F.) ;
#299=ORIENTED_EDGE('',*,*,#169,.F.) ;
#302=ORIENTED_EDGE('',*,*,#45,.T.) ;
#303=ORIENTED_EDGE('',*,*,#76,.T.) ;
#306=ORIENTED_EDGE('',*,*,#260,.T.) ;
#307=ORIENTED_EDGE('',*,*,#282,.T.) ;
#131=FACE_BOUND('',#128,.T.) ;
#149=FACE_BOUND('',#146,.T.) ;
#304=FACE_BOUND('',#301,.T.) ;
#308=FACE_BOUND('',#305,.T.) ;
#31=CLOSED_SHELL('Closed Shell',(#71,#88,#150,#181,#205,#229,#246,#277,#289,#309)) ;
#310=ADVANCED_BREP_SHAPE_REPRESENTATION('NONE',(#21),#16) ;
#71=ADVANCED_FACE('S3D positioniert',(#70),#36,.F.) ;
#88=ADVANCED_FACE('S3D positioniert',(#87),#36,.F.) ;
#150=ADVANCED_FACE('S3D positioniert',(#127,#131,#149),#93,.T.) ;
#181=ADVANCED_FACE('S3D positioniert',(#180),#155,.T.) ;
#205=ADVANCED_FACE('S3D positioniert',(#204),#186,.F.) ;
#229=ADVANCED_FACE('S3D positioniert',(#228),#210,.T.) ;
#246=ADVANCED_FACE('S3D positioniert',(#245),#234,.F.) ;
#277=ADVANCED_FACE('S3D positioniert',(#276),#251,.F.) ;
#289=ADVANCED_FACE('S3D positioniert',(#288),#251,.F.) ;
#309=ADVANCED_FACE('S3D positioniert',(#300,#304,#308),#294,.F.) ;
#4=APPLICATION_PROTOCOL_DEFINITION('international standard','automotive_design',2001,#1) ;
#21=MANIFOLD_SOLID_BREP('S3D positioniert',#31) ;
#40=CIRCLE('generated circle',#39,1.65) ;
#56=CIRCLE('generated circle',#55,1.65) ;
#75=CIRCLE('generated circle',#74,1.65) ;
#80=CIRCLE('generated circle',#79,1.65) ;
#135=CIRCLE('generated circle',#134,1.65) ;
#144=CIRCLE('generated circle',#143,1.65) ;
#255=CIRCLE('generated circle',#254,1.65) ;
#281=CIRCLE('generated circle',#280,1.65) ;
#22=COLOUR_RGB('Colour',0.462745098039,0.462745098039,0.462745098039) ;
#36=CYLINDRICAL_SURFACE('generated cylinder',#35,1.65) ;
#251=CYLINDRICAL_SURFACE('generated cylinder',#250,1.65) ;
#45=EDGE_CURVE('',#42,#44,#40,.T.) ;
#52=EDGE_CURVE('',#51,#42,#49,.F.) ;
#59=EDGE_CURVE('',#51,#58,#56,.T.) ;
#64=EDGE_CURVE('',#58,#44,#63,.F.) ;
#76=EDGE_CURVE('',#44,#42,#75,.T.) ;
#81=EDGE_CURVE('',#58,#51,#80,.T.) ;
#102=EDGE_CURVE('',#99,#101,#97,.T.) ;
#109=EDGE_CURVE('',#101,#108,#106,.F.) ;
#116=EDGE_CURVE('',#108,#115,#113,.T.) ;
#121=EDGE_CURVE('',#115,#99,#120,.F.) ;
#140=EDGE_CURVE('',#137,#139,#135,.T.) ;
#145=EDGE_CURVE('',#139,#137,#144,.T.) ;
#162=EDGE_CURVE('',#161,#99,#159,.T.) ;
#169=EDGE_CURVE('',#161,#168,#166,.T.) ;
#174=EDGE_CURVE('',#168,#101,#173,.T.) ;
#193=EDGE_CURVE('',#168,#192,#190,.F.) ;
#198=EDGE_CURVE('',#192,#108,#197,.T.) ;
#217=EDGE_CURVE('',#192,#216,#214,.T.) ;
#222=EDGE_CURVE('',#216,#115,#221,.T.) ;
#239=EDGE_CURVE('',#216,#161,#238,.F.) ;
#260=EDGE_CURVE('',#257,#259,#255,.T.) ;
#265=EDGE_CURVE('',#139,#257,#264,.F.) ;
#270=EDGE_CURVE('',#137,#259,#269,.F.) ;
#282=EDGE_CURVE('',#259,#257,#281,.T.) ;
#65=EDGE_LOOP('',(#66,#67,#68,#69)) ;
#82=EDGE_LOOP('',(#83,#84,#85,#86)) ;
#122=EDGE_LOOP('',(#123,#124,#125,#126)) ;
#128=EDGE_LOOP('',(#129,#130)) ;
#146=EDGE_LOOP('',(#147,#148)) ;
#175=EDGE_LOOP('',(#176,#177,#178,#179)) ;
#199=EDGE_LOOP('',(#200,#201,#202,#203)) ;
#223=EDGE_LOOP('',(#224,#225,#226,#227)) ;
#240=EDGE_LOOP('',(#241,#242,#243,#244)) ;
#271=EDGE_LOOP('',(#272,#273,#274,#275)) ;
#283=EDGE_LOOP('',(#284,#285,#286,#287)) ;
#295=EDGE_LOOP('',(#296,#297,#298,#299)) ;
#301=EDGE_LOOP('',(#302,#303)) ;
#305=EDGE_LOOP('',(#306,#307)) ;
#70=FACE_OUTER_BOUND('',#65,.T.) ;
#87=FACE_OUTER_BOUND('',#82,.T.) ;
#127=FACE_OUTER_BOUND('',#122,.T.) ;
#180=FACE_OUTER_BOUND('',#175,.T.) ;
#204=FACE_OUTER_BOUND('',#199,.T.) ;
#228=FACE_OUTER_BOUND('',#223,.T.) ;
#245=FACE_OUTER_BOUND('',#240,.T.) ;
#276=FACE_OUTER_BOUND('',#271,.T.) ;
#288=FACE_OUTER_BOUND('',#283,.T.) ;
#300=FACE_OUTER_BOUND('',#295,.T.) ;
#49=LINE('Line',#46,#48) ;
#63=LINE('Line',#60,#62) ;
#97=LINE('Line',#94,#96) ;
#106=LINE('Line',#103,#105) ;
#113=LINE('Line',#110,#112) ;
#120=LINE('Line',#117,#119) ;
#159=LINE('Line',#156,#158) ;
#166=LINE('Line',#163,#165) ;
#173=LINE('Line',#170,#172) ;
#190=LINE('Line',#187,#189) ;
#197=LINE('Line',#194,#196) ;
#214=LINE('Line',#211,#213) ;
#221=LINE('Line',#218,#220) ;
#238=LINE('Line',#235,#237) ;
#264=LINE('Line',#261,#263) ;
#269=LINE('Line',#266,#268) ;
#93=PLANE('',#92) ;
#155=PLANE('',#154) ;
#186=PLANE('',#185) ;
#210=PLANE('',#209) ;
#234=PLANE('',#233) ;
#294=PLANE('',#293) ;
#9=PRODUCT_CATEGORY_RELATIONSHIP(' ',' ',#7,#8) ;
#6=PRODUCT_DEFINITION_FORMATION_WITH_SPECIFIED_SOURCE('',' ',#5,.NOT_KNOWN.) ;
#20=SHAPE_DEFINITION_REPRESENTATION(#11,#19) ;
#42=VERTEX_POINT('',#41) ;
#44=VERTEX_POINT('',#43) ;
#51=VERTEX_POINT('',#50) ;
#58=VERTEX_POINT('',#57) ;
#99=VERTEX_POINT('',#98) ;
#101=VERTEX_POINT('',#100) ;
#108=VERTEX_POINT('',#107) ;
#115=VERTEX_POINT('',#114) ;
#137=VERTEX_POINT('',#136) ;
#139=VERTEX_POINT('',#138) ;
#161=VERTEX_POINT('',#160) ;
#168=VERTEX_POINT('',#167) ;
#192=VERTEX_POINT('',#191) ;
#216=VERTEX_POINT('',#215) ;
#257=VERTEX_POINT('',#256) ;
#259=VERTEX_POINT('',#258) ;
#12=(LENGTH_UNIT()NAMED_UNIT(*)SI_UNIT(.MILLI.,.METRE.)) ;
#13=(NAMED_UNIT(*)PLANE_ANGLE_UNIT()SI_UNIT($,.RADIAN.)) ;
#14=(NAMED_UNIT(*)SI_UNIT($,.STERADIAN.)SOLID_ANGLE_UNIT()) ;
#16=(GEOMETRIC_REPRESENTATION_CONTEXT(3)GLOBAL_UNCERTAINTY_ASSIGNED_CONTEXT((#15))GLOBAL_UNIT_ASSIGNED_CONTEXT((#12,#13,#14))REPRESENTATION_CONTEXT(' ',' ')) ;
ENDSEC;
END-ISO-10303-21;
