ISO-10303-21;
HEADER;
FILE_DESCRIPTION(('CATIA V5R19 STEP'),'2;1');

FILE_NAME ('D1447664_0_1046390000_1046390000.stp','2014-12-01T12:10:41+00:00',('none'),('Weidmueller'),'CATIA Version 5 Release 20 SP 5 (IN-10)','CATIA V5 STEP AP214','none');

FILE_SCHEMA(('AUTOMOTIVE_DESIGN { 1 0 10303 214 1 1 1 1 }'));

ENDSEC;
/* file written by CATIA V5R20 */
DATA;
#5=PRODUCT('WS 10/6 PLUS','','WS 10x6 PLUS\X2\000A\X0\<Q-CHECKER_SEAL> Q-Checker Version 2.14.8  \X2\000A\X0\CATIA-Version         : Catia V5 R16 SP9 Build Date 03-16-2007.22.00\X2\000A\X0\Model size (in KByte) : 0\X2\000A\X0\Checking date         : 2014-11-28 12:07:04\X2\000A\X0\Checking profile      : ADMIN / Release_2D-3D [CATPart]\X2\000A\X0\Model assessment      : In Ordnung (IO)\X2\000A\X0\Total weight sum      : 0\X2\000A\X0\<CROSS_CHECK_SUM>\X2\000A\X0\  <CHKSUM_DATE> 1656772145 </CHKSUM_DATE>\X2\000A\X0\  <CHKSUM_ENTITIES> 904947356 </CHKSUM_ENTITIES>\X2\000A\X0\  <CHKSUM_PROFILE> 1594213346 </CHKSUM_PROFILE>\X2\000A\X0\  <CHKSUM_DIMENSION> -186917087 </CHKSUM_DIMENSION>\X2\000A\X0\  <CHKSUM_PROJINTERSEC> -896974048 </CHKSUM_PROJINTERSEC>\X2\000A\X0\  <CHKSUM_IDENTCRV> -896974048 </CHKSUM_IDENTCRV>\X2\000A\X0\  <CHKSUM_INFINITY> 138018827 </CHKSUM_INFINITY>\X2\000A\X0\</CROSS_CHECK_SUM>\X2\000A\X0\</Q-CHECKER_SEAL> \X2\000A\X0\',(#2)) ;
#2=PRODUCT_CONTEXT(' ',#1,'mechanical') ;
#1=APPLICATION_CONTEXT('automotive design') ;
#10=PRODUCT_DEFINITION('',' ',#6,#3) ;
#3=PRODUCT_DEFINITION_CONTEXT('part definition',#1,' ') ;
#11=PRODUCT_DEFINITION_SHAPE(' ',' ',#10) ;
#574=MECHANICAL_DESIGN_GEOMETRIC_PRESENTATION_REPRESENTATION(' ',(#30),#17) ;
#20=SHAPE_REPRESENTATION(' ',(#19),#17) ;
#19=AXIS2_PLACEMENT_3D(' ',#18,$,$) ;
#36=AXIS2_PLACEMENT_3D('Plane Axis2P3D',#33,#34,#35) ;
#76=AXIS2_PLACEMENT_3D('Plane Axis2P3D',#73,#74,#75) ;
#107=AXIS2_PLACEMENT_3D('Plane Axis2P3D',#104,#105,#106) ;
#138=AXIS2_PLACEMENT_3D('Plane Axis2P3D',#135,#136,#137) ;
#204=AXIS2_PLACEMENT_3D('Plane Axis2P3D',#201,#202,#203) ;
#235=AXIS2_PLACEMENT_3D('Plane Axis2P3D',#232,#233,#234) ;
#275=AXIS2_PLACEMENT_3D('Plane Axis2P3D',#272,#273,#274) ;
#340=AXIS2_PLACEMENT_3D('Plane Axis2P3D',#337,#338,#339) ;
#371=AXIS2_PLACEMENT_3D('Plane Axis2P3D',#368,#369,#370) ;
#427=AXIS2_PLACEMENT_3D('Plane Axis2P3D',#424,#425,#426) ;
#458=AXIS2_PLACEMENT_3D('Plane Axis2P3D',#455,#456,#457) ;
#482=AXIS2_PLACEMENT_3D('Plane Axis2P3D',#479,#480,#481) ;
#506=AXIS2_PLACEMENT_3D('Plane Axis2P3D',#503,#504,#505) ;
#523=AXIS2_PLACEMENT_3D('Plane Axis2P3D',#520,#521,#522) ;
#535=AXIS2_PLACEMENT_3D('Plane Axis2P3D',#532,#533,#534) ;
#555=AXIS2_PLACEMENT_3D('Plane Axis2P3D',#552,#553,#554) ;
#18=CARTESIAN_POINT(' ',(0.,0.,0.)) ;
#33=CARTESIAN_POINT('Axis2P3D Location',(3.0375,7.2,1.785)) ;
#38=CARTESIAN_POINT('Line Origine',(3.0375,7.2,1.785)) ;
#42=CARTESIAN_POINT('Vertex',(1.1125,7.2,1.785)) ;
#44=CARTESIAN_POINT('Vertex',(4.9625,7.2,1.785)) ;
#47=CARTESIAN_POINT('Line Origine',(1.1125,7.39786248641,0.8925)) ;
#51=CARTESIAN_POINT('Vertex',(1.1125,7.59572497282,8.881784197E-016)) ;
#54=CARTESIAN_POINT('Line Origine',(3.0375,7.59572497282,6.66133814775E-016)) ;
#58=CARTESIAN_POINT('Vertex',(4.9625,7.59572497282,8.881784197E-016)) ;
#61=CARTESIAN_POINT('Line Origine',(4.9625,7.39786248641,0.8925)) ;
#73=CARTESIAN_POINT('Axis2P3D Location',(3.0375,8.215,2.22044604925E-015)) ;
#78=CARTESIAN_POINT('Line Origine',(1.1125,7.90536248641,2.22044604925E-015)) ;
#82=CARTESIAN_POINT('Vertex',(1.1125,8.215,2.22044604925E-015)) ;
#85=CARTESIAN_POINT('Line Origine',(3.0375,8.215,2.22044604925E-015)) ;
#89=CARTESIAN_POINT('Vertex',(4.9625,8.215,2.22044604925E-015)) ;
#92=CARTESIAN_POINT('Line Origine',(4.9625,7.90536248641,2.22044604925E-015)) ;
#104=CARTESIAN_POINT('Axis2P3D Location',(3.0375,8.215,1.785)) ;
#109=CARTESIAN_POINT('Line Origine',(1.1125,8.215,0.8925)) ;
#113=CARTESIAN_POINT('Vertex',(1.1125,8.215,1.785)) ;
#116=CARTESIAN_POINT('Line Origine',(3.0375,8.215,1.785)) ;
#120=CARTESIAN_POINT('Vertex',(4.9625,8.215,1.785)) ;
#123=CARTESIAN_POINT('Line Origine',(4.9625,8.215,0.8925)) ;
#135=CARTESIAN_POINT('Axis2P3D Location',(3.0375,3.785,1.785)) ;
#140=CARTESIAN_POINT('Line Origine',(4.9625,3.785,0.8925)) ;
#144=CARTESIAN_POINT('Vertex',(4.9625,3.785,2.22044604925E-015)) ;
#146=CARTESIAN_POINT('Vertex',(4.9625,3.785,1.785)) ;
#149=CARTESIAN_POINT('Line Origine',(3.0375,3.785,1.785)) ;
#153=CARTESIAN_POINT('Vertex',(1.1125,3.785,1.785)) ;
#156=CARTESIAN_POINT('Line Origine',(1.1125,3.785,0.8925)) ;
#160=CARTESIAN_POINT('Vertex',(1.1125,3.785,2.22044604925E-015)) ;
#163=CARTESIAN_POINT('Line Origine',(3.0375,3.785,2.22044604925E-015)) ;
#175=CARTESIAN_POINT('Line Origine',(4.9625,4.09463751359,2.22044604925E-015)) ;
#179=CARTESIAN_POINT('Vertex',(4.9625,4.40427502718,1.7763568394E-015)) ;
#182=CARTESIAN_POINT('Line Origine',(1.1125,4.09463751359,2.22044604925E-015)) ;
#186=CARTESIAN_POINT('Vertex',(1.1125,4.40427502718,1.7763568394E-015)) ;
#189=CARTESIAN_POINT('Line Origine',(3.0375,4.40427502718,2.22044604925E-015)) ;
#201=CARTESIAN_POINT('Axis2P3D Location',(3.0375,4.8,1.785)) ;
#206=CARTESIAN_POINT('Line Origine',(4.9625,4.60213751359,0.8925)) ;
#210=CARTESIAN_POINT('Vertex',(4.9625,4.8,1.785)) ;
#213=CARTESIAN_POINT('Line Origine',(1.1125,4.60213751359,0.8925)) ;
#217=CARTESIAN_POINT('Vertex',(1.1125,4.8,1.785)) ;
#220=CARTESIAN_POINT('Line Origine',(3.0375,4.8,1.785)) ;
#232=CARTESIAN_POINT('Axis2P3D Location',(4.9625,9.,2.335)) ;
#237=CARTESIAN_POINT('Line Origine',(1.1125,9.,2.06)) ;
#241=CARTESIAN_POINT('Vertex',(1.1125,9.,2.335)) ;
#243=CARTESIAN_POINT('Vertex',(1.1125,9.,1.785)) ;
#246=CARTESIAN_POINT('Line Origine',(3.0375,9.,2.335)) ;
#250=CARTESIAN_POINT('Vertex',(4.9625,9.,2.335)) ;
#253=CARTESIAN_POINT('Line Origine',(4.9625,9.,2.06)) ;
#257=CARTESIAN_POINT('Vertex',(4.9625,9.,1.785)) ;
#260=CARTESIAN_POINT('Line Origine',(3.0375,9.,1.785)) ;
#272=CARTESIAN_POINT('Axis2P3D Location',(3.0375,6.,2.335)) ;
#277=CARTESIAN_POINT('Line Origine',(3.0375,0.,2.335)) ;
#281=CARTESIAN_POINT('Vertex',(0.1125,0.,2.335)) ;
#283=CARTESIAN_POINT('Vertex',(5.9625,8.881784197E-016,2.335)) ;
#286=CARTESIAN_POINT('Line Origine',(0.1125,4.9,2.335)) ;
#290=CARTESIAN_POINT('Vertex',(0.1125,9.8,2.335)) ;
#293=CARTESIAN_POINT('Line Origine',(3.0375,9.8,2.335)) ;
#297=CARTESIAN_POINT('Vertex',(5.9625,9.8,2.335)) ;
#300=CARTESIAN_POINT('Line Origine',(5.9625,4.9,2.335)) ;
#311=CARTESIAN_POINT('Line Origine',(1.1125,6.,2.335)) ;
#315=CARTESIAN_POINT('Vertex',(1.1125,3.,2.335)) ;
#318=CARTESIAN_POINT('Line Origine',(3.0375,3.,2.335)) ;
#322=CARTESIAN_POINT('Vertex',(4.9625,3.,2.335)) ;
#325=CARTESIAN_POINT('Line Origine',(4.9625,6.,2.335)) ;
#337=CARTESIAN_POINT('Axis2P3D Location',(1.1125,3.,2.335)) ;
#342=CARTESIAN_POINT('Line Origine',(4.9625,3.,2.06)) ;
#346=CARTESIAN_POINT('Vertex',(4.9625,3.,1.785)) ;
#349=CARTESIAN_POINT('Line Origine',(1.1125,3.,2.06)) ;
#353=CARTESIAN_POINT('Vertex',(1.1125,3.,1.785)) ;
#356=CARTESIAN_POINT('Line Origine',(3.0375,3.,1.785)) ;
#368=CARTESIAN_POINT('Axis2P3D Location',(3.0375,6.,1.785)) ;
#373=CARTESIAN_POINT('Line Origine',(4.9625,3.3925,1.785)) ;
#378=CARTESIAN_POINT('Line Origine',(1.1125,3.3925,1.785)) ;
#390=CARTESIAN_POINT('Line Origine',(4.9625,6.,1.785)) ;
#395=CARTESIAN_POINT('Line Origine',(1.1125,6.,1.785)) ;
#407=CARTESIAN_POINT('Line Origine',(1.1125,8.6075,1.785)) ;
#412=CARTESIAN_POINT('Line Origine',(4.9625,8.6075,1.785)) ;
#424=CARTESIAN_POINT('Axis2P3D Location',(5.9625,8.881784197E-016,2.335)) ;
#429=CARTESIAN_POINT('Line Origine',(5.9625,8.881784197E-016,2.735)) ;
#433=CARTESIAN_POINT('Vertex',(5.9625,8.881784197E-016,3.135)) ;
#436=CARTESIAN_POINT('Line Origine',(5.9625,9.8,2.735)) ;
#440=CARTESIAN_POINT('Vertex',(5.9625,9.8,3.135)) ;
#443=CARTESIAN_POINT('Line Origine',(5.9625,4.9,3.135)) ;
#455=CARTESIAN_POINT('Axis2P3D Location',(0.1125,9.8,2.335)) ;
#460=CARTESIAN_POINT('Line Origine',(0.1125,9.8,2.735)) ;
#464=CARTESIAN_POINT('Vertex',(0.1125,9.8,3.135)) ;
#467=CARTESIAN_POINT('Line Origine',(3.0375,9.8,3.135)) ;
#479=CARTESIAN_POINT('Axis2P3D Location',(0.1125,9.8,2.335)) ;
#484=CARTESIAN_POINT('Line Origine',(0.1125,1.7763568394E-015,2.735)) ;
#488=CARTESIAN_POINT('Vertex',(0.1125,0.,3.135)) ;
#491=CARTESIAN_POINT('Line Origine',(0.1125,4.9,3.135)) ;
#503=CARTESIAN_POINT('Axis2P3D Location',(5.9625,0.,2.335)) ;
#508=CARTESIAN_POINT('Line Origine',(3.0375,3.58209188751E-016,3.135)) ;
#520=CARTESIAN_POINT('Axis2P3D Location',(3.0375,6.,3.135)) ;
#532=CARTESIAN_POINT('Axis2P3D Location',(1.1125,3.,2.335)) ;
#552=CARTESIAN_POINT('Axis2P3D Location',(4.9625,9.,2.335)) ;
#34=DIRECTION('Axis2P3D Direction',(-2.98904445035E-016,-0.97629600712,-0.216439613938)) ;
#35=DIRECTION('Axis2P3D XDirection',(6.62655201045E-017,0.216439613938,-0.97629600712)) ;
#39=DIRECTION('Vector Direction',(1.,-4.61391386857E-016,0.)) ;
#48=DIRECTION('Vector Direction',(0.,0.216439613938,-0.97629600712)) ;
#55=DIRECTION('Vector Direction',(1.,-4.61391386857E-016,5.12247341053E-032)) ;
#62=DIRECTION('Vector Direction',(0.,0.216439613938,-0.97629600712)) ;
#74=DIRECTION('Axis2P3D Direction',(-2.58195522249E-032,7.90495799691E-048,1.)) ;
#75=DIRECTION('Axis2P3D XDirection',(-3.06161699787E-016,-1.,0.)) ;
#79=DIRECTION('Vector Direction',(0.,-1.,0.)) ;
#86=DIRECTION('Vector Direction',(1.,0.,0.)) ;
#93=DIRECTION('Vector Direction',(0.,-1.,0.)) ;
#105=DIRECTION('Axis2P3D Direction',(-3.06161699787E-016,-1.,0.)) ;
#106=DIRECTION('Axis2P3D XDirection',(2.58195522249E-032,-7.90495799691E-048,-1.)) ;
#110=DIRECTION('Vector Direction',(0.,0.,-1.)) ;
#117=DIRECTION('Vector Direction',(1.,0.,0.)) ;
#124=DIRECTION('Vector Direction',(0.,0.,-1.)) ;
#136=DIRECTION('Axis2P3D Direction',(-3.06161699787E-016,-1.,0.)) ;
#137=DIRECTION('Axis2P3D XDirection',(2.58195522249E-032,-7.90495799691E-048,-1.)) ;
#141=DIRECTION('Vector Direction',(0.,0.,-1.)) ;
#150=DIRECTION('Vector Direction',(1.,-2.30695693429E-016,0.)) ;
#157=DIRECTION('Vector Direction',(0.,0.,-1.)) ;
#164=DIRECTION('Vector Direction',(1.,-2.30695693429E-016,0.)) ;
#176=DIRECTION('Vector Direction',(0.,-1.,0.)) ;
#183=DIRECTION('Vector Direction',(0.,-1.,0.)) ;
#190=DIRECTION('Vector Direction',(1.,-4.61391386857E-016,0.)) ;
#202=DIRECTION('Axis2P3D Direction',(-2.98904445035E-016,-0.97629600712,0.216439613938)) ;
#203=DIRECTION('Axis2P3D XDirection',(-6.62655201045E-017,-0.216439613938,-0.97629600712)) ;
#207=DIRECTION('Vector Direction',(0.,-0.216439613938,-0.97629600712)) ;
#214=DIRECTION('Vector Direction',(0.,-0.216439613938,-0.97629600712)) ;
#221=DIRECTION('Vector Direction',(1.,-4.61391386857E-016,0.)) ;
#233=DIRECTION('Axis2P3D Direction',(-1.22464679915E-016,-1.,0.)) ;
#234=DIRECTION('Axis2P3D XDirection',(-1.,1.22464679915E-016,0.)) ;
#238=DIRECTION('Vector Direction',(0.,0.,-1.)) ;
#247=DIRECTION('Vector Direction',(-1.,0.,0.)) ;
#254=DIRECTION('Vector Direction',(0.,0.,-1.)) ;
#261=DIRECTION('Vector Direction',(-1.,0.,0.)) ;
#273=DIRECTION('Axis2P3D Direction',(0.,0.,1.)) ;
#274=DIRECTION('Axis2P3D XDirection',(-1.,1.22464679915E-016,0.)) ;
#278=DIRECTION('Vector Direction',(-1.,0.,0.)) ;
#287=DIRECTION('Vector Direction',(-1.23200769314E-016,-1.,0.)) ;
#294=DIRECTION('Vector Direction',(1.,0.,0.)) ;
#301=DIRECTION('Vector Direction',(1.8126090198E-016,1.,0.)) ;
#312=DIRECTION('Vector Direction',(1.48029736617E-016,1.,0.)) ;
#319=DIRECTION('Vector Direction',(1.,0.,0.)) ;
#326=DIRECTION('Vector Direction',(0.,-1.,0.)) ;
#338=DIRECTION('Axis2P3D Direction',(1.22464679915E-016,1.,0.)) ;
#339=DIRECTION('Axis2P3D XDirection',(1.,-1.22464679915E-016,0.)) ;
#343=DIRECTION('Vector Direction',(0.,0.,-1.)) ;
#350=DIRECTION('Vector Direction',(0.,0.,-1.)) ;
#357=DIRECTION('Vector Direction',(1.,-1.15347846714E-016,0.)) ;
#369=DIRECTION('Axis2P3D Direction',(0.,0.,-1.)) ;
#370=DIRECTION('Axis2P3D XDirection',(-1.,1.22464679915E-016,0.)) ;
#374=DIRECTION('Vector Direction',(0.,-1.,0.)) ;
#379=DIRECTION('Vector Direction',(2.82859369331E-016,1.,0.)) ;
#391=DIRECTION('Vector Direction',(0.,-1.,0.)) ;
#396=DIRECTION('Vector Direction',(1.85037170771E-016,1.,0.)) ;
#408=DIRECTION('Vector Direction',(2.82859369331E-016,1.,0.)) ;
#413=DIRECTION('Vector Direction',(0.,-1.,0.)) ;
#425=DIRECTION('Axis2P3D Direction',(1.,-1.22464679915E-016,0.)) ;
#426=DIRECTION('Axis2P3D XDirection',(1.22464679915E-016,1.,0.)) ;
#430=DIRECTION('Vector Direction',(0.,0.,1.)) ;
#437=DIRECTION('Vector Direction',(0.,0.,1.)) ;
#444=DIRECTION('Vector Direction',(9.06304509898E-017,1.,0.)) ;
#456=DIRECTION('Axis2P3D Direction',(-1.22464679915E-016,-1.,0.)) ;
#457=DIRECTION('Axis2P3D XDirection',(1.,-1.22464679915E-016,0.)) ;
#461=DIRECTION('Vector Direction',(0.,0.,1.)) ;
#468=DIRECTION('Vector Direction',(1.,0.,0.)) ;
#480=DIRECTION('Axis2P3D Direction',(-1.,1.22464679915E-016,0.)) ;
#481=DIRECTION('Axis2P3D XDirection',(-1.22464679915E-016,-1.,0.)) ;
#485=DIRECTION('Vector Direction',(0.,0.,1.)) ;
#492=DIRECTION('Vector Direction',(-1.21784668518E-016,-1.,0.)) ;
#504=DIRECTION('Axis2P3D Direction',(1.22464679915E-016,1.,-0.)) ;
#505=DIRECTION('Axis2P3D XDirection',(-1.,1.22464679915E-016,0.)) ;
#509=DIRECTION('Vector Direction',(-1.,1.22464679915E-016,0.)) ;
#521=DIRECTION('Axis2P3D Direction',(0.,0.,1.)) ;
#522=DIRECTION('Axis2P3D XDirection',(-1.,1.22464679915E-016,0.)) ;
#533=DIRECTION('Axis2P3D Direction',(-1.,1.22464679915E-016,0.)) ;
#534=DIRECTION('Axis2P3D XDirection',(1.22464679915E-016,1.,0.)) ;
#553=DIRECTION('Axis2P3D Direction',(1.,-1.22464679915E-016,-0.)) ;
#554=DIRECTION('Axis2P3D XDirection',(-1.22464679915E-016,-1.,0.)) ;
#31=PRESENTATION_LAYER_ASSIGNMENT('1',' ',(#22)) ;
#8=PRODUCT_RELATED_PRODUCT_CATEGORY('part',$,(#5)) ;
#7=PRODUCT_CATEGORY('part','specification') ;
#30=STYLED_ITEM(' ',(#29),#22) ;
#29=PRESENTATION_STYLE_ASSIGNMENT((#28)) ;
#28=SURFACE_STYLE_USAGE(.BOTH.,#27) ;
#27=SURFACE_SIDE_STYLE(' ',(#26)) ;
#26=SURFACE_STYLE_FILL_AREA(#25) ;
#25=FILL_AREA_STYLE(' ',(#24)) ;
#24=FILL_AREA_STYLE_COLOUR(' ',#23) ;
#40=VECTOR('Line Direction',#39,1.) ;
#49=VECTOR('Line Direction',#48,1.) ;
#56=VECTOR('Line Direction',#55,1.) ;
#63=VECTOR('Line Direction',#62,1.) ;
#80=VECTOR('Line Direction',#79,1.) ;
#87=VECTOR('Line Direction',#86,1.) ;
#94=VECTOR('Line Direction',#93,1.) ;
#111=VECTOR('Line Direction',#110,1.) ;
#118=VECTOR('Line Direction',#117,1.) ;
#125=VECTOR('Line Direction',#124,1.) ;
#142=VECTOR('Line Direction',#141,1.) ;
#151=VECTOR('Line Direction',#150,1.) ;
#158=VECTOR('Line Direction',#157,1.) ;
#165=VECTOR('Line Direction',#164,1.) ;
#177=VECTOR('Line Direction',#176,1.) ;
#184=VECTOR('Line Direction',#183,1.) ;
#191=VECTOR('Line Direction',#190,1.) ;
#208=VECTOR('Line Direction',#207,1.) ;
#215=VECTOR('Line Direction',#214,1.) ;
#222=VECTOR('Line Direction',#221,1.) ;
#239=VECTOR('Line Direction',#238,1.) ;
#248=VECTOR('Line Direction',#247,1.) ;
#255=VECTOR('Line Direction',#254,1.) ;
#262=VECTOR('Line Direction',#261,1.) ;
#279=VECTOR('Line Direction',#278,1.) ;
#288=VECTOR('Line Direction',#287,1.) ;
#295=VECTOR('Line Direction',#294,1.) ;
#302=VECTOR('Line Direction',#301,1.) ;
#313=VECTOR('Line Direction',#312,1.) ;
#320=VECTOR('Line Direction',#319,1.) ;
#327=VECTOR('Line Direction',#326,1.) ;
#344=VECTOR('Line Direction',#343,1.) ;
#351=VECTOR('Line Direction',#350,1.) ;
#358=VECTOR('Line Direction',#357,1.) ;
#375=VECTOR('Line Direction',#374,1.) ;
#380=VECTOR('Line Direction',#379,1.) ;
#392=VECTOR('Line Direction',#391,1.) ;
#397=VECTOR('Line Direction',#396,1.) ;
#409=VECTOR('Line Direction',#408,1.) ;
#414=VECTOR('Line Direction',#413,1.) ;
#431=VECTOR('Line Direction',#430,1.) ;
#438=VECTOR('Line Direction',#437,1.) ;
#445=VECTOR('Line Direction',#444,1.) ;
#462=VECTOR('Line Direction',#461,1.) ;
#469=VECTOR('Line Direction',#468,1.) ;
#486=VECTOR('Line Direction',#485,1.) ;
#493=VECTOR('Line Direction',#492,1.) ;
#510=VECTOR('Line Direction',#509,1.) ;
#16=UNCERTAINTY_MEASURE_WITH_UNIT(LENGTH_MEASURE(0.005),#12,'distance_accuracy_value','CONFUSED CURVE UNCERTAINTY') ;
#573=SHAPE_REPRESENTATION_RELATIONSHIP(' ',' ',#20,#572) ;
#67=ORIENTED_EDGE('',*,*,#46,.F.) ;
#68=ORIENTED_EDGE('',*,*,#53,.T.) ;
#69=ORIENTED_EDGE('',*,*,#60,.T.) ;
#70=ORIENTED_EDGE('',*,*,#65,.F.) ;
#98=ORIENTED_EDGE('',*,*,#60,.F.) ;
#99=ORIENTED_EDGE('',*,*,#84,.T.) ;
#100=ORIENTED_EDGE('',*,*,#91,.T.) ;
#101=ORIENTED_EDGE('',*,*,#96,.F.) ;
#129=ORIENTED_EDGE('',*,*,#91,.F.) ;
#130=ORIENTED_EDGE('',*,*,#115,.T.) ;
#131=ORIENTED_EDGE('',*,*,#122,.T.) ;
#132=ORIENTED_EDGE('',*,*,#127,.F.) ;
#169=ORIENTED_EDGE('',*,*,#148,.T.) ;
#170=ORIENTED_EDGE('',*,*,#155,.F.) ;
#171=ORIENTED_EDGE('',*,*,#162,.F.) ;
#172=ORIENTED_EDGE('',*,*,#167,.T.) ;
#195=ORIENTED_EDGE('',*,*,#181,.T.) ;
#196=ORIENTED_EDGE('',*,*,#167,.F.) ;
#197=ORIENTED_EDGE('',*,*,#188,.F.) ;
#198=ORIENTED_EDGE('',*,*,#193,.T.) ;
#226=ORIENTED_EDGE('',*,*,#212,.T.) ;
#227=ORIENTED_EDGE('',*,*,#193,.F.) ;
#228=ORIENTED_EDGE('',*,*,#219,.F.) ;
#229=ORIENTED_EDGE('',*,*,#224,.T.) ;
#266=ORIENTED_EDGE('',*,*,#245,.F.) ;
#267=ORIENTED_EDGE('',*,*,#252,.T.) ;
#268=ORIENTED_EDGE('',*,*,#259,.T.) ;
#269=ORIENTED_EDGE('',*,*,#264,.F.) ;
#306=ORIENTED_EDGE('',*,*,#285,.F.) ;
#307=ORIENTED_EDGE('',*,*,#292,.F.) ;
#308=ORIENTED_EDGE('',*,*,#299,.F.) ;
#309=ORIENTED_EDGE('',*,*,#304,.F.) ;
#331=ORIENTED_EDGE('',*,*,#317,.F.) ;
#332=ORIENTED_EDGE('',*,*,#324,.F.) ;
#333=ORIENTED_EDGE('',*,*,#329,.F.) ;
#334=ORIENTED_EDGE('',*,*,#252,.F.) ;
#362=ORIENTED_EDGE('',*,*,#348,.F.) ;
#363=ORIENTED_EDGE('',*,*,#324,.T.) ;
#364=ORIENTED_EDGE('',*,*,#355,.T.) ;
#365=ORIENTED_EDGE('',*,*,#360,.F.) ;
#384=ORIENTED_EDGE('',*,*,#377,.T.) ;
#385=ORIENTED_EDGE('',*,*,#360,.T.) ;
#386=ORIENTED_EDGE('',*,*,#382,.T.) ;
#387=ORIENTED_EDGE('',*,*,#155,.T.) ;
#401=ORIENTED_EDGE('',*,*,#394,.T.) ;
#402=ORIENTED_EDGE('',*,*,#224,.F.) ;
#403=ORIENTED_EDGE('',*,*,#399,.T.) ;
#404=ORIENTED_EDGE('',*,*,#46,.T.) ;
#418=ORIENTED_EDGE('',*,*,#411,.T.) ;
#419=ORIENTED_EDGE('',*,*,#264,.T.) ;
#420=ORIENTED_EDGE('',*,*,#416,.T.) ;
#421=ORIENTED_EDGE('',*,*,#122,.F.) ;
#449=ORIENTED_EDGE('',*,*,#435,.F.) ;
#450=ORIENTED_EDGE('',*,*,#304,.T.) ;
#451=ORIENTED_EDGE('',*,*,#442,.T.) ;
#452=ORIENTED_EDGE('',*,*,#447,.F.) ;
#473=ORIENTED_EDGE('',*,*,#442,.F.) ;
#474=ORIENTED_EDGE('',*,*,#299,.T.) ;
#475=ORIENTED_EDGE('',*,*,#466,.T.) ;
#476=ORIENTED_EDGE('',*,*,#471,.F.) ;
#497=ORIENTED_EDGE('',*,*,#466,.F.) ;
#498=ORIENTED_EDGE('',*,*,#292,.T.) ;
#499=ORIENTED_EDGE('',*,*,#490,.T.) ;
#500=ORIENTED_EDGE('',*,*,#495,.F.) ;
#514=ORIENTED_EDGE('',*,*,#490,.F.) ;
#515=ORIENTED_EDGE('',*,*,#285,.T.) ;
#516=ORIENTED_EDGE('',*,*,#435,.T.) ;
#517=ORIENTED_EDGE('',*,*,#512,.F.) ;
#526=ORIENTED_EDGE('',*,*,#447,.T.) ;
#527=ORIENTED_EDGE('',*,*,#471,.T.) ;
#528=ORIENTED_EDGE('',*,*,#495,.T.) ;
#529=ORIENTED_EDGE('',*,*,#512,.T.) ;
#538=ORIENTED_EDGE('',*,*,#382,.F.) ;
#539=ORIENTED_EDGE('',*,*,#355,.F.) ;
#540=ORIENTED_EDGE('',*,*,#317,.T.) ;
#541=ORIENTED_EDGE('',*,*,#245,.T.) ;
#542=ORIENTED_EDGE('',*,*,#411,.F.) ;
#543=ORIENTED_EDGE('',*,*,#115,.F.) ;
#544=ORIENTED_EDGE('',*,*,#84,.F.) ;
#545=ORIENTED_EDGE('',*,*,#53,.F.) ;
#546=ORIENTED_EDGE('',*,*,#399,.F.) ;
#547=ORIENTED_EDGE('',*,*,#219,.T.) ;
#548=ORIENTED_EDGE('',*,*,#188,.T.) ;
#549=ORIENTED_EDGE('',*,*,#162,.T.) ;
#558=ORIENTED_EDGE('',*,*,#148,.F.) ;
#559=ORIENTED_EDGE('',*,*,#181,.F.) ;
#560=ORIENTED_EDGE('',*,*,#212,.F.) ;
#561=ORIENTED_EDGE('',*,*,#394,.F.) ;
#562=ORIENTED_EDGE('',*,*,#65,.T.) ;
#563=ORIENTED_EDGE('',*,*,#96,.T.) ;
#564=ORIENTED_EDGE('',*,*,#127,.T.) ;
#565=ORIENTED_EDGE('',*,*,#416,.F.) ;
#566=ORIENTED_EDGE('',*,*,#259,.F.) ;
#567=ORIENTED_EDGE('',*,*,#329,.T.) ;
#568=ORIENTED_EDGE('',*,*,#348,.T.) ;
#569=ORIENTED_EDGE('',*,*,#377,.F.) ;
#335=FACE_BOUND('',#330,.T.) ;
#32=CLOSED_SHELL('Closed Shell',(#72,#103,#134,#174,#200,#231,#271,#336,#367,#389,#406,#423,#454,#478,#502,#519,#531,#551,#571)) ;
#572=ADVANCED_BREP_SHAPE_REPRESENTATION('NONE',(#22),#17) ;
#72=ADVANCED_FACE('S3D - gedreht',(#71),#37,.T.) ;
#103=ADVANCED_FACE('S3D - gedreht',(#102),#77,.F.) ;
#134=ADVANCED_FACE('S3D - gedreht',(#133),#108,.F.) ;
#174=ADVANCED_FACE('S3D - gedreht',(#173),#139,.T.) ;
#200=ADVANCED_FACE('S3D - gedreht',(#199),#77,.F.) ;
#231=ADVANCED_FACE('S3D - gedreht',(#230),#205,.F.) ;
#271=ADVANCED_FACE('S3D - gedreht',(#270),#236,.F.) ;
#336=ADVANCED_FACE('S3D - gedreht',(#310,#335),#276,.F.) ;
#367=ADVANCED_FACE('S3D - gedreht',(#366),#341,.F.) ;
#389=ADVANCED_FACE('S3D - gedreht',(#388),#372,.T.) ;
#406=ADVANCED_FACE('S3D - gedreht',(#405),#372,.T.) ;
#423=ADVANCED_FACE('S3D - gedreht',(#422),#372,.T.) ;
#454=ADVANCED_FACE('S3D - gedreht',(#453),#428,.T.) ;
#478=ADVANCED_FACE('S3D - gedreht',(#477),#459,.F.) ;
#502=ADVANCED_FACE('S3D - gedreht',(#501),#483,.T.) ;
#519=ADVANCED_FACE('S3D - gedreht',(#518),#507,.F.) ;
#531=ADVANCED_FACE('S3D - gedreht',(#530),#524,.T.) ;
#551=ADVANCED_FACE('S3D - gedreht',(#550),#536,.T.) ;
#571=ADVANCED_FACE('S3D - gedreht',(#570),#556,.T.) ;
#4=APPLICATION_PROTOCOL_DEFINITION('international standard','automotive_design',2001,#1) ;
#22=MANIFOLD_SOLID_BREP('S3D - gedreht',#32) ;
#23=DRAUGHTING_PRE_DEFINED_COLOUR('white') ;
#46=EDGE_CURVE('',#43,#45,#41,.T.) ;
#53=EDGE_CURVE('',#43,#52,#50,.T.) ;
#60=EDGE_CURVE('',#52,#59,#57,.T.) ;
#65=EDGE_CURVE('',#45,#59,#64,.T.) ;
#84=EDGE_CURVE('',#52,#83,#81,.F.) ;
#91=EDGE_CURVE('',#83,#90,#88,.T.) ;
#96=EDGE_CURVE('',#59,#90,#95,.F.) ;
#115=EDGE_CURVE('',#83,#114,#112,.F.) ;
#122=EDGE_CURVE('',#114,#121,#119,.T.) ;
#127=EDGE_CURVE('',#90,#121,#126,.F.) ;
#148=EDGE_CURVE('',#145,#147,#143,.F.) ;
#155=EDGE_CURVE('',#154,#147,#152,.T.) ;
#162=EDGE_CURVE('',#161,#154,#159,.F.) ;
#167=EDGE_CURVE('',#161,#145,#166,.T.) ;
#181=EDGE_CURVE('',#180,#145,#178,.T.) ;
#188=EDGE_CURVE('',#187,#161,#185,.T.) ;
#193=EDGE_CURVE('',#187,#180,#192,.T.) ;
#212=EDGE_CURVE('',#211,#180,#209,.T.) ;
#219=EDGE_CURVE('',#218,#187,#216,.T.) ;
#224=EDGE_CURVE('',#218,#211,#223,.T.) ;
#245=EDGE_CURVE('',#242,#244,#240,.T.) ;
#252=EDGE_CURVE('',#242,#251,#249,.F.) ;
#259=EDGE_CURVE('',#251,#258,#256,.T.) ;
#264=EDGE_CURVE('',#244,#258,#263,.F.) ;
#285=EDGE_CURVE('',#282,#284,#280,.F.) ;
#292=EDGE_CURVE('',#291,#282,#289,.T.) ;
#299=EDGE_CURVE('',#298,#291,#296,.F.) ;
#304=EDGE_CURVE('',#284,#298,#303,.T.) ;
#317=EDGE_CURVE('',#316,#242,#314,.T.) ;
#324=EDGE_CURVE('',#323,#316,#321,.F.) ;
#329=EDGE_CURVE('',#251,#323,#328,.T.) ;
#348=EDGE_CURVE('',#323,#347,#345,.T.) ;
#355=EDGE_CURVE('',#316,#354,#352,.T.) ;
#360=EDGE_CURVE('',#347,#354,#359,.F.) ;
#377=EDGE_CURVE('',#147,#347,#376,.T.) ;
#382=EDGE_CURVE('',#354,#154,#381,.T.) ;
#394=EDGE_CURVE('',#45,#211,#393,.T.) ;
#399=EDGE_CURVE('',#218,#43,#398,.T.) ;
#411=EDGE_CURVE('',#114,#244,#410,.T.) ;
#416=EDGE_CURVE('',#258,#121,#415,.T.) ;
#435=EDGE_CURVE('',#284,#434,#432,.T.) ;
#442=EDGE_CURVE('',#298,#441,#439,.T.) ;
#447=EDGE_CURVE('',#434,#441,#446,.T.) ;
#466=EDGE_CURVE('',#291,#465,#463,.T.) ;
#471=EDGE_CURVE('',#441,#465,#470,.F.) ;
#490=EDGE_CURVE('',#282,#489,#487,.T.) ;
#495=EDGE_CURVE('',#465,#489,#494,.T.) ;
#512=EDGE_CURVE('',#489,#434,#511,.F.) ;
#66=EDGE_LOOP('',(#67,#68,#69,#70)) ;
#97=EDGE_LOOP('',(#98,#99,#100,#101)) ;
#128=EDGE_LOOP('',(#129,#130,#131,#132)) ;
#168=EDGE_LOOP('',(#169,#170,#171,#172)) ;
#194=EDGE_LOOP('',(#195,#196,#197,#198)) ;
#225=EDGE_LOOP('',(#226,#227,#228,#229)) ;
#265=EDGE_LOOP('',(#266,#267,#268,#269)) ;
#305=EDGE_LOOP('',(#306,#307,#308,#309)) ;
#330=EDGE_LOOP('',(#331,#332,#333,#334)) ;
#361=EDGE_LOOP('',(#362,#363,#364,#365)) ;
#383=EDGE_LOOP('',(#384,#385,#386,#387)) ;
#400=EDGE_LOOP('',(#401,#402,#403,#404)) ;
#417=EDGE_LOOP('',(#418,#419,#420,#421)) ;
#448=EDGE_LOOP('',(#449,#450,#451,#452)) ;
#472=EDGE_LOOP('',(#473,#474,#475,#476)) ;
#496=EDGE_LOOP('',(#497,#498,#499,#500)) ;
#513=EDGE_LOOP('',(#514,#515,#516,#517)) ;
#525=EDGE_LOOP('',(#526,#527,#528,#529)) ;
#537=EDGE_LOOP('',(#538,#539,#540,#541,#542,#543,#544,#545,#546,#547,#548,#549)) ;
#557=EDGE_LOOP('',(#558,#559,#560,#561,#562,#563,#564,#565,#566,#567,#568,#569)) ;
#71=FACE_OUTER_BOUND('',#66,.T.) ;
#102=FACE_OUTER_BOUND('',#97,.T.) ;
#133=FACE_OUTER_BOUND('',#128,.T.) ;
#173=FACE_OUTER_BOUND('',#168,.T.) ;
#199=FACE_OUTER_BOUND('',#194,.T.) ;
#230=FACE_OUTER_BOUND('',#225,.T.) ;
#270=FACE_OUTER_BOUND('',#265,.T.) ;
#310=FACE_OUTER_BOUND('',#305,.T.) ;
#366=FACE_OUTER_BOUND('',#361,.T.) ;
#388=FACE_OUTER_BOUND('',#383,.T.) ;
#405=FACE_OUTER_BOUND('',#400,.T.) ;
#422=FACE_OUTER_BOUND('',#417,.T.) ;
#453=FACE_OUTER_BOUND('',#448,.T.) ;
#477=FACE_OUTER_BOUND('',#472,.T.) ;
#501=FACE_OUTER_BOUND('',#496,.T.) ;
#518=FACE_OUTER_BOUND('',#513,.T.) ;
#530=FACE_OUTER_BOUND('',#525,.T.) ;
#550=FACE_OUTER_BOUND('',#537,.T.) ;
#570=FACE_OUTER_BOUND('',#557,.T.) ;
#41=LINE('Line',#38,#40) ;
#50=LINE('Line',#47,#49) ;
#57=LINE('Line',#54,#56) ;
#64=LINE('Line',#61,#63) ;
#81=LINE('Line',#78,#80) ;
#88=LINE('Line',#85,#87) ;
#95=LINE('Line',#92,#94) ;
#112=LINE('Line',#109,#111) ;
#119=LINE('Line',#116,#118) ;
#126=LINE('Line',#123,#125) ;
#143=LINE('Line',#140,#142) ;
#152=LINE('Line',#149,#151) ;
#159=LINE('Line',#156,#158) ;
#166=LINE('Line',#163,#165) ;
#178=LINE('Line',#175,#177) ;
#185=LINE('Line',#182,#184) ;
#192=LINE('Line',#189,#191) ;
#209=LINE('Line',#206,#208) ;
#216=LINE('Line',#213,#215) ;
#223=LINE('Line',#220,#222) ;
#240=LINE('Line',#237,#239) ;
#249=LINE('Line',#246,#248) ;
#256=LINE('Line',#253,#255) ;
#263=LINE('Line',#260,#262) ;
#280=LINE('Line',#277,#279) ;
#289=LINE('Line',#286,#288) ;
#296=LINE('Line',#293,#295) ;
#303=LINE('Line',#300,#302) ;
#314=LINE('Line',#311,#313) ;
#321=LINE('Line',#318,#320) ;
#328=LINE('Line',#325,#327) ;
#345=LINE('Line',#342,#344) ;
#352=LINE('Line',#349,#351) ;
#359=LINE('Line',#356,#358) ;
#376=LINE('Line',#373,#375) ;
#381=LINE('Line',#378,#380) ;
#393=LINE('Line',#390,#392) ;
#398=LINE('Line',#395,#397) ;
#410=LINE('Line',#407,#409) ;
#415=LINE('Line',#412,#414) ;
#432=LINE('Line',#429,#431) ;
#439=LINE('Line',#436,#438) ;
#446=LINE('Line',#443,#445) ;
#463=LINE('Line',#460,#462) ;
#470=LINE('Line',#467,#469) ;
#487=LINE('Line',#484,#486) ;
#494=LINE('Line',#491,#493) ;
#511=LINE('Line',#508,#510) ;
#37=PLANE('',#36) ;
#77=PLANE('',#76) ;
#108=PLANE('',#107) ;
#139=PLANE('',#138) ;
#205=PLANE('',#204) ;
#236=PLANE('',#235) ;
#276=PLANE('',#275) ;
#341=PLANE('',#340) ;
#372=PLANE('',#371) ;
#428=PLANE('',#427) ;
#459=PLANE('',#458) ;
#483=PLANE('',#482) ;
#507=PLANE('',#506) ;
#524=PLANE('',#523) ;
#536=PLANE('',#535) ;
#556=PLANE('',#555) ;
#14=PLANE_ANGLE_MEASURE_WITH_UNIT(PLANE_ANGLE_MEASURE(0.0174532925199),#13) ;
#9=PRODUCT_CATEGORY_RELATIONSHIP(' ',' ',#7,#8) ;
#6=PRODUCT_DEFINITION_FORMATION_WITH_SPECIFIED_SOURCE('',' ',#5,.NOT_KNOWN.) ;
#21=SHAPE_DEFINITION_REPRESENTATION(#11,#20) ;
#43=VERTEX_POINT('',#42) ;
#45=VERTEX_POINT('',#44) ;
#52=VERTEX_POINT('',#51) ;
#59=VERTEX_POINT('',#58) ;
#83=VERTEX_POINT('',#82) ;
#90=VERTEX_POINT('',#89) ;
#114=VERTEX_POINT('',#113) ;
#121=VERTEX_POINT('',#120) ;
#145=VERTEX_POINT('',#144) ;
#147=VERTEX_POINT('',#146) ;
#154=VERTEX_POINT('',#153) ;
#161=VERTEX_POINT('',#160) ;
#180=VERTEX_POINT('',#179) ;
#187=VERTEX_POINT('',#186) ;
#211=VERTEX_POINT('',#210) ;
#218=VERTEX_POINT('',#217) ;
#242=VERTEX_POINT('',#241) ;
#244=VERTEX_POINT('',#243) ;
#251=VERTEX_POINT('',#250) ;
#258=VERTEX_POINT('',#257) ;
#282=VERTEX_POINT('',#281) ;
#284=VERTEX_POINT('',#283) ;
#291=VERTEX_POINT('',#290) ;
#298=VERTEX_POINT('',#297) ;
#316=VERTEX_POINT('',#315) ;
#323=VERTEX_POINT('',#322) ;
#347=VERTEX_POINT('',#346) ;
#354=VERTEX_POINT('',#353) ;
#434=VERTEX_POINT('',#433) ;
#441=VERTEX_POINT('',#440) ;
#465=VERTEX_POINT('',#464) ;
#489=VERTEX_POINT('',#488) ;
#12=(LENGTH_UNIT()NAMED_UNIT(*)SI_UNIT(.MILLI.,.METRE.)) ;
#13=(NAMED_UNIT(*)PLANE_ANGLE_UNIT()SI_UNIT($,.RADIAN.)) ;
#15=(NAMED_UNIT(*)SI_UNIT($,.STERADIAN.)SOLID_ANGLE_UNIT()) ;
#17=(GEOMETRIC_REPRESENTATION_CONTEXT(3)GLOBAL_UNCERTAINTY_ASSIGNED_CONTEXT((#16))GLOBAL_UNIT_ASSIGNED_CONTEXT((#12,#13,#15))REPRESENTATION_CONTEXT(' ',' ')) ;
ENDSEC;
END-ISO-10303-21;
