ISO-10303-21;
HEADER;
FILE_DESCRIPTION(('CATIA V5R24 STEP','CAx-IF Rec.Pracs.--- Model Styling and Organization---1.2---2011-12-15'),'2;1');

FILE_NAME ('001912-1_1_0379400000_0379400000.stp','2018-09-07T13:06:41+00:00',('none'),('Weidmueller'),'CATIA Version 5-6 Release 2014 SP4 HF52','CATIA V5 STEP AP214','none');

FILE_SCHEMA(('AUTOMOTIVE_DESIGN { 1 0 10303 214 1 1 1 1 }'));

ENDSEC;
DATA;
#5=PRODUCT('0379400000','','',(#2)) ;
#2=PRODUCT_CONTEXT(' ',#1,'mechanical') ;
#1=APPLICATION_CONTEXT('automotive design') ;
#10=PRODUCT_DEFINITION('',' ',#6,#3) ;
#3=PRODUCT_DEFINITION_CONTEXT('part definition',#1,' ') ;
#11=PRODUCT_DEFINITION_SHAPE(' ',' ',#10) ;
#562=MECHANICAL_DESIGN_GEOMETRIC_PRESENTATION_REPRESENTATION(' ',(#46),#16) ;
#19=SHAPE_REPRESENTATION(' ',(#18),#16) ;
#18=AXIS2_PLACEMENT_3D(' ',#17,$,$) ;
#24=AXIS2_PLACEMENT_3D('Plane Axis2P3D',#21,#22,#23) ;
#31=AXIS2_PLACEMENT_3D('Plane Axis2P3D',#28,#29,#30) ;
#36=AXIS2_PLACEMENT_3D('Plane Axis2P3D',#33,#34,#35) ;
#52=AXIS2_PLACEMENT_3D('Cone Axis2P3D',#49,#50,#51) ;
#65=AXIS2_PLACEMENT_3D('Circle Axis2P3D',#63,#64,$) ;
#84=AXIS2_PLACEMENT_3D('Plane Axis2P3D',#81,#82,#83) ;
#97=AXIS2_PLACEMENT_3D('Circle Axis2P3D',#95,#96,$) ;
#104=AXIS2_PLACEMENT_3D('Circle Axis2P3D',#102,#103,$) ;
#118=AXIS2_PLACEMENT_3D('Circle Axis2P3D',#116,#117,$) ;
#125=AXIS2_PLACEMENT_3D('Circle Axis2P3D',#123,#124,$) ;
#148=AXIS2_PLACEMENT_3D('Circle Axis2P3D',#146,#147,$) ;
#155=AXIS2_PLACEMENT_3D('Circle Axis2P3D',#153,#154,$) ;
#169=AXIS2_PLACEMENT_3D('Circle Axis2P3D',#167,#168,$) ;
#176=AXIS2_PLACEMENT_3D('Circle Axis2P3D',#174,#175,$) ;
#191=AXIS2_PLACEMENT_3D('Cylinder Axis2P3D',#188,#189,#190) ;
#202=AXIS2_PLACEMENT_3D('Circle Axis2P3D',#200,#201,$) ;
#250=AXIS2_PLACEMENT_3D('Circle Axis2P3D',#248,#249,$) ;
#292=AXIS2_PLACEMENT_3D('Plane Axis2P3D',#289,#290,#291) ;
#316=AXIS2_PLACEMENT_3D('Cone Axis2P3D',#313,#314,#315) ;
#334=AXIS2_PLACEMENT_3D('Circle Axis2P3D',#332,#333,$) ;
#346=AXIS2_PLACEMENT_3D('Circle Axis2P3D',#344,#345,$) ;
#359=AXIS2_PLACEMENT_3D('Cylinder Axis2P3D',#356,#357,#358) ;
#377=AXIS2_PLACEMENT_3D('Circle Axis2P3D',#375,#376,$) ;
#389=AXIS2_PLACEMENT_3D('Circle Axis2P3D',#387,#388,$) ;
#402=AXIS2_PLACEMENT_3D('Plane Axis2P3D',#399,#400,#401) ;
#412=AXIS2_PLACEMENT_3D('Cylinder Axis2P3D',#409,#410,#411) ;
#442=AXIS2_PLACEMENT_3D('Plane Axis2P3D',#439,#440,#441) ;
#515=AXIS2_PLACEMENT_3D('Cylinder Axis2P3D',#512,#513,#514) ;
#524=AXIS2_PLACEMENT_3D('Circle Axis2P3D',#522,#523,$) ;
#17=CARTESIAN_POINT(' ',(0.,0.,0.)) ;
#21=CARTESIAN_POINT('Axis2P3D Location',(0.,0.,0.)) ;
#28=CARTESIAN_POINT('Axis2P3D Location',(0.,0.,0.)) ;
#33=CARTESIAN_POINT('Axis2P3D Location',(0.,0.,0.)) ;
#49=CARTESIAN_POINT('Axis2P3D Location',(1.85,1.85,5.07865536485)) ;
#54=CARTESIAN_POINT('Line Origine',(1.33442024489,2.13166250393,5.417848648)) ;
#58=CARTESIAN_POINT('Vertex',(1.85,1.85,5.07865536485)) ;
#60=CARTESIAN_POINT('Vertex',(0.818840489779,2.41332500786,5.75704193115)) ;
#63=CARTESIAN_POINT('Axis2P3D Location',(1.85,1.85,5.75704193115)) ;
#67=CARTESIAN_POINT('Vertex',(2.88115951022,1.28667499214,5.75704193115)) ;
#70=CARTESIAN_POINT('Line Origine',(2.36557975511,1.56833749607,5.417848648)) ;
#81=CARTESIAN_POINT('Axis2P3D Location',(3.7,1.85,11.2570419312)) ;
#86=CARTESIAN_POINT('Line Origine',(2.25,0.394470911741,11.2570419312)) ;
#90=CARTESIAN_POINT('Vertex',(2.25,0.0437608131812,11.2570419312)) ;
#92=CARTESIAN_POINT('Vertex',(2.25,0.745181010301,11.2570419312)) ;
#95=CARTESIAN_POINT('Axis2P3D Location',(1.85,1.85,11.2570419312)) ;
#99=CARTESIAN_POINT('Vertex',(3.4735277395,2.73693724642,11.2570419312)) ;
#102=CARTESIAN_POINT('Axis2P3D Location',(1.85,1.85,11.2570419312)) ;
#106=CARTESIAN_POINT('Vertex',(2.25,3.65623918682,11.2570419312)) ;
#109=CARTESIAN_POINT('Line Origine',(2.25,3.30552908826,11.2570419312)) ;
#113=CARTESIAN_POINT('Vertex',(2.25,2.9548189897,11.2570419312)) ;
#116=CARTESIAN_POINT('Axis2P3D Location',(1.85,1.85,11.2570419312)) ;
#120=CARTESIAN_POINT('Vertex',(2.88115951022,1.28667499214,11.2570419312)) ;
#123=CARTESIAN_POINT('Axis2P3D Location',(1.85,1.85,11.2570419312)) ;
#137=CARTESIAN_POINT('Line Origine',(1.45,3.30552908826,11.2570419312)) ;
#141=CARTESIAN_POINT('Vertex',(1.45,2.9548189897,11.2570419312)) ;
#143=CARTESIAN_POINT('Vertex',(1.45,3.65623918682,11.2570419312)) ;
#146=CARTESIAN_POINT('Axis2P3D Location',(1.85,1.85,11.2570419312)) ;
#150=CARTESIAN_POINT('Vertex',(0.226472260503,0.963062753582,11.2570419312)) ;
#153=CARTESIAN_POINT('Axis2P3D Location',(1.85,1.85,11.2570419312)) ;
#157=CARTESIAN_POINT('Vertex',(1.45,0.0437608131812,11.2570419312)) ;
#160=CARTESIAN_POINT('Line Origine',(1.45,0.394470911741,11.2570419312)) ;
#164=CARTESIAN_POINT('Vertex',(1.45,0.745181010301,11.2570419312)) ;
#167=CARTESIAN_POINT('Axis2P3D Location',(1.85,1.85,11.2570419312)) ;
#171=CARTESIAN_POINT('Vertex',(0.818840489779,2.41332500786,11.2570419312)) ;
#174=CARTESIAN_POINT('Axis2P3D Location',(1.85,1.85,11.2570419312)) ;
#188=CARTESIAN_POINT('Axis2P3D Location',(1.85,1.85,5.62852096558)) ;
#193=CARTESIAN_POINT('Line Origine',(0.226472260503,0.963062753582,8.55704193115)) ;
#197=CARTESIAN_POINT('Vertex',(0.226472260503,0.963062753582,5.85704193115)) ;
#200=CARTESIAN_POINT('Axis2P3D Location',(1.85,1.85,5.85704193115)) ;
#204=CARTESIAN_POINT('Vertex',(3.4735277395,2.73693724642,5.85704193115)) ;
#207=CARTESIAN_POINT('Line Origine',(3.4735277395,2.73693724642,8.55704193115)) ;
#212=CARTESIAN_POINT('Line Origine',(2.25,0.0437608131812,8.55704193115)) ;
#216=CARTESIAN_POINT('Vertex',(2.25,0.0437608131812,10.5570419312)) ;
#220=CARTESIAN_POINT('Control Point',(2.25,0.0437608131812,10.5570419312)) ;
#221=CARTESIAN_POINT('Control Point',(2.25,0.0437608131812,10.4543201472)) ;
#222=CARTESIAN_POINT('Control Point',(2.21702573491,0.0364585100683,10.3516014208)) ;
#223=CARTESIAN_POINT('Control Point',(2.15151179679,0.021734116873,10.264129308)) ;
#224=CARTESIAN_POINT('Control Point',(1.93445423279,-0.00785476664614,10.1149034895)) ;
#225=CARTESIAN_POINT('Control Point',(1.65856653525,-0.00162026622192,10.1545994963)) ;
#226=CARTESIAN_POINT('Control Point',(1.51970268904,0.0283248311592,10.2583521564)) ;
#227=CARTESIAN_POINT('Control Point',(1.45,0.0437608131811,10.4076938122)) ;
#228=CARTESIAN_POINT('Control Point',(1.45,0.0437608131811,10.5570419312)) ;
#229=CARTESIAN_POINT('Vertex',(1.45,0.0437608131811,10.5570419312)) ;
#232=CARTESIAN_POINT('Line Origine',(1.45,0.0437608131812,8.55704193115)) ;
#248=CARTESIAN_POINT('Axis2P3D Location',(1.85,1.85,5.85704193115)) ;
#253=CARTESIAN_POINT('Line Origine',(1.45,3.65623918682,8.55704193115)) ;
#257=CARTESIAN_POINT('Vertex',(1.45,3.65623918682,10.5570419312)) ;
#261=CARTESIAN_POINT('Control Point',(2.25,3.65623918682,10.5570419312)) ;
#262=CARTESIAN_POINT('Control Point',(2.25,3.65623918682,10.4543201472)) ;
#263=CARTESIAN_POINT('Control Point',(2.21702573491,3.66354148993,10.3516014208)) ;
#264=CARTESIAN_POINT('Control Point',(2.15151179679,3.67826588313,10.264129308)) ;
#265=CARTESIAN_POINT('Control Point',(1.93445423279,3.70785476665,10.1149034895)) ;
#266=CARTESIAN_POINT('Control Point',(1.65856653526,3.70162026622,10.1545994963)) ;
#267=CARTESIAN_POINT('Control Point',(1.51970268904,3.67167516884,10.2583521564)) ;
#268=CARTESIAN_POINT('Control Point',(1.45,3.65623918682,10.4076938122)) ;
#269=CARTESIAN_POINT('Control Point',(1.45,3.65623918682,10.5570419312)) ;
#270=CARTESIAN_POINT('Vertex',(2.25,3.65623918682,10.5570419312)) ;
#273=CARTESIAN_POINT('Line Origine',(2.25,3.65623918682,8.55704193115)) ;
#289=CARTESIAN_POINT('Axis2P3D Location',(1.45,1.85,10.5570419312)) ;
#294=CARTESIAN_POINT('Line Origine',(1.45,2.9548189897,10.9070419312)) ;
#298=CARTESIAN_POINT('Vertex',(1.45,2.9548189897,10.5570419312)) ;
#301=CARTESIAN_POINT('Line Origine',(1.45,3.30552908826,10.5570419312)) ;
#313=CARTESIAN_POINT('Axis2P3D Location',(1.85,1.85,4.9)) ;
#318=CARTESIAN_POINT('Line Origine',(3.31995079117,2.65303777716,5.37852096558)) ;
#322=CARTESIAN_POINT('Vertex',(3.16637384284,2.56913830791,4.9)) ;
#325=CARTESIAN_POINT('Line Origine',(0.380049208834,1.04696222284,5.37852096558)) ;
#329=CARTESIAN_POINT('Vertex',(0.533626157164,1.13086169209,4.9)) ;
#332=CARTESIAN_POINT('Axis2P3D Location',(1.85,1.85,4.9)) ;
#344=CARTESIAN_POINT('Axis2P3D Location',(1.85,1.85,4.9)) ;
#356=CARTESIAN_POINT('Axis2P3D Location',(1.85,1.85,5.62852096558)) ;
#361=CARTESIAN_POINT('Line Origine',(3.16637384284,2.56913830791,2.45)) ;
#365=CARTESIAN_POINT('Vertex',(3.16637384284,2.56913830791,8.44143898354E-016)) ;
#368=CARTESIAN_POINT('Line Origine',(0.533626157164,1.13086169209,2.45)) ;
#372=CARTESIAN_POINT('Vertex',(0.533626157164,1.13086169209,9.32212941046E-016)) ;
#375=CARTESIAN_POINT('Axis2P3D Location',(1.85,1.85,0.)) ;
#387=CARTESIAN_POINT('Axis2P3D Location',(1.85,1.85,0.)) ;
#399=CARTESIAN_POINT('Axis2P3D Location',(1.85,1.85,0.)) ;
#409=CARTESIAN_POINT('Axis2P3D Location',(1.85,1.85,10.5570419312)) ;
#415=CARTESIAN_POINT('Control Point',(2.25,2.9548189897,10.5570419312)) ;
#416=CARTESIAN_POINT('Control Point',(2.25,2.9548189897,10.4279947781)) ;
#417=CARTESIAN_POINT('Control Point',(2.19795885091,2.97366050101,10.298948228)) ;
#418=CARTESIAN_POINT('Control Point',(2.09724219497,3.01000382312,10.2011578801)) ;
#419=CARTESIAN_POINT('Control Point',(1.84070606929,3.04198331308,10.1070879128)) ;
#420=CARTESIAN_POINT('Control Point',(1.59116689901,3.0059485306,10.2130720165)) ;
#421=CARTESIAN_POINT('Control Point',(1.49809661882,2.97223238282,10.3089222109)) ;
#422=CARTESIAN_POINT('Control Point',(1.45,2.9548189897,10.4329817924)) ;
#423=CARTESIAN_POINT('Control Point',(1.45,2.9548189897,10.5570419312)) ;
#424=CARTESIAN_POINT('Vertex',(2.25,2.9548189897,10.5570419312)) ;
#427=CARTESIAN_POINT('Line Origine',(2.25,1.85,10.5570419312)) ;
#439=CARTESIAN_POINT('Axis2P3D Location',(2.25,1.85,11.2570419312)) ;
#444=CARTESIAN_POINT('Line Origine',(2.25,2.9548189897,10.9070419312)) ;
#456=CARTESIAN_POINT('Line Origine',(1.45,0.745181010301,10.9070419312)) ;
#460=CARTESIAN_POINT('Vertex',(1.45,0.745181010301,10.5570419312)) ;
#463=CARTESIAN_POINT('Line Origine',(1.45,0.394470911741,10.5570419312)) ;
#476=CARTESIAN_POINT('Control Point',(2.25,0.745181010301,10.5570419312)) ;
#477=CARTESIAN_POINT('Control Point',(2.25,0.745181010301,10.4279947781)) ;
#478=CARTESIAN_POINT('Control Point',(2.19795885091,0.726339498994,10.298948228)) ;
#479=CARTESIAN_POINT('Control Point',(2.09724219497,0.689996176879,10.2011578801)) ;
#480=CARTESIAN_POINT('Control Point',(1.84070606929,0.658016686925,10.1070879128)) ;
#481=CARTESIAN_POINT('Control Point',(1.59116689902,0.694051469403,10.2130720165)) ;
#482=CARTESIAN_POINT('Control Point',(1.49809661882,0.727767617185,10.3089222109)) ;
#483=CARTESIAN_POINT('Control Point',(1.45,0.745181010301,10.4329817924)) ;
#484=CARTESIAN_POINT('Control Point',(1.45,0.745181010301,10.5570419312)) ;
#485=CARTESIAN_POINT('Vertex',(2.25,0.745181010301,10.5570419312)) ;
#488=CARTESIAN_POINT('Line Origine',(2.25,1.85,10.5570419312)) ;
#500=CARTESIAN_POINT('Line Origine',(2.25,0.745181010301,10.9070419312)) ;
#512=CARTESIAN_POINT('Axis2P3D Location',(1.85,1.85,11.2570419312)) ;
#517=CARTESIAN_POINT('Line Origine',(0.818840489779,2.41332500786,8.66204193121)) ;
#522=CARTESIAN_POINT('Axis2P3D Location',(1.85,1.85,5.75704193115)) ;
#527=CARTESIAN_POINT('Line Origine',(2.88115951022,1.28667499214,8.66204193121)) ;
#22=DIRECTION('Axis2P3D Direction',(0.,0.,1.)) ;
#23=DIRECTION('Axis2P3D XDirection',(1.,0.,0.)) ;
#29=DIRECTION('Axis2P3D Direction',(1.,0.,0.)) ;
#30=DIRECTION('Axis2P3D XDirection',(0.,1.,0.)) ;
#34=DIRECTION('Axis2P3D Direction',(0.,1.,0.)) ;
#35=DIRECTION('Axis2P3D XDirection',(0.,0.,1.)) ;
#50=DIRECTION('Axis2P3D Direction',(0.,6.12323399574E-017,1.)) ;
#51=DIRECTION('Axis2P3D XDirection',(0.87758256189,-0.479425538604,0.)) ;
#55=DIRECTION('Vector Direction',(-0.760008792515,0.415194695654,0.5)) ;
#64=DIRECTION('Axis2P3D Direction',(-0.,6.12323399574E-017,1.)) ;
#71=DIRECTION('Vector Direction',(0.760008792515,-0.415194695654,0.5)) ;
#82=DIRECTION('Axis2P3D Direction',(-0.,6.12323399574E-017,1.)) ;
#83=DIRECTION('Axis2P3D XDirection',(1.,0.,0.)) ;
#87=DIRECTION('Vector Direction',(0.,1.,0.)) ;
#96=DIRECTION('Axis2P3D Direction',(-0.,6.12323399574E-017,1.)) ;
#103=DIRECTION('Axis2P3D Direction',(-0.,6.12323399574E-017,1.)) ;
#110=DIRECTION('Vector Direction',(0.,1.,0.)) ;
#117=DIRECTION('Axis2P3D Direction',(-0.,6.12323399574E-017,1.)) ;
#124=DIRECTION('Axis2P3D Direction',(-0.,6.12323399574E-017,1.)) ;
#138=DIRECTION('Vector Direction',(0.,1.,0.)) ;
#147=DIRECTION('Axis2P3D Direction',(-0.,6.12323399574E-017,1.)) ;
#154=DIRECTION('Axis2P3D Direction',(-0.,6.12323399574E-017,1.)) ;
#161=DIRECTION('Vector Direction',(0.,1.,0.)) ;
#168=DIRECTION('Axis2P3D Direction',(-0.,6.12323399574E-017,1.)) ;
#175=DIRECTION('Axis2P3D Direction',(-0.,6.12323399574E-017,1.)) ;
#189=DIRECTION('Axis2P3D Direction',(-0.,6.12323399574E-017,1.)) ;
#190=DIRECTION('Axis2P3D XDirection',(0.87758256189,0.479425538604,-2.93563475641E-017)) ;
#194=DIRECTION('Vector Direction',(0.,8.22387425648E-017,1.)) ;
#201=DIRECTION('Axis2P3D Direction',(-0.,6.12323399574E-017,1.)) ;
#208=DIRECTION('Vector Direction',(0.,8.22387425648E-017,1.)) ;
#213=DIRECTION('Vector Direction',(0.,8.22387425648E-017,1.)) ;
#233=DIRECTION('Vector Direction',(0.,8.22387425648E-017,1.)) ;
#249=DIRECTION('Axis2P3D Direction',(-0.,6.12323399574E-017,1.)) ;
#254=DIRECTION('Vector Direction',(0.,1.6447748513E-016,1.)) ;
#274=DIRECTION('Vector Direction',(0.,8.22387425648E-017,1.)) ;
#290=DIRECTION('Axis2P3D Direction',(-1.,0.,0.)) ;
#291=DIRECTION('Axis2P3D XDirection',(0.,6.12323399574E-017,1.)) ;
#295=DIRECTION('Vector Direction',(0.,0.,1.)) ;
#302=DIRECTION('Vector Direction',(0.,1.,0.)) ;
#314=DIRECTION('Axis2P3D Direction',(0.,6.12323399574E-017,1.)) ;
#315=DIRECTION('Axis2P3D XDirection',(0.87758256189,0.479425538604,0.)) ;
#319=DIRECTION('Vector Direction',(0.301416880847,0.164664792488,0.939166316504)) ;
#326=DIRECTION('Vector Direction',(-0.301416880847,-0.164664792488,0.939166316504)) ;
#333=DIRECTION('Axis2P3D Direction',(-0.,6.12323399574E-017,1.)) ;
#345=DIRECTION('Axis2P3D Direction',(-0.,6.12323399574E-017,1.)) ;
#357=DIRECTION('Axis2P3D Direction',(-0.,6.12323399574E-017,1.)) ;
#358=DIRECTION('Axis2P3D XDirection',(0.87758256189,0.479425538604,-2.93563475641E-017)) ;
#362=DIRECTION('Vector Direction',(0.,9.06304509898E-017,1.)) ;
#369=DIRECTION('Vector Direction',(0.,9.06304509898E-017,1.)) ;
#376=DIRECTION('Axis2P3D Direction',(-0.,6.12323399574E-017,1.)) ;
#388=DIRECTION('Axis2P3D Direction',(-0.,6.12323399574E-017,1.)) ;
#400=DIRECTION('Axis2P3D Direction',(-0.,6.12323399574E-017,1.)) ;
#401=DIRECTION('Axis2P3D XDirection',(1.,0.,0.)) ;
#410=DIRECTION('Axis2P3D Direction',(0.,-1.,6.12323399574E-017)) ;
#411=DIRECTION('Axis2P3D XDirection',(-1.,7.49879891331E-033,1.22464679915E-016)) ;
#428=DIRECTION('Vector Direction',(0.,-1.,0.)) ;
#440=DIRECTION('Axis2P3D Direction',(1.,0.,0.)) ;
#441=DIRECTION('Axis2P3D XDirection',(0.,-6.12323399574E-017,-1.)) ;
#445=DIRECTION('Vector Direction',(0.,0.,-1.)) ;
#457=DIRECTION('Vector Direction',(0.,0.,1.)) ;
#464=DIRECTION('Vector Direction',(0.,1.,0.)) ;
#489=DIRECTION('Vector Direction',(0.,-1.,0.)) ;
#501=DIRECTION('Vector Direction',(0.,0.,-1.)) ;
#513=DIRECTION('Axis2P3D Direction',(0.,-6.12323399574E-017,-1.)) ;
#514=DIRECTION('Axis2P3D XDirection',(0.87758256189,-0.479425538604,2.93563475641E-017)) ;
#518=DIRECTION('Vector Direction',(0.,-7.64353201103E-017,-1.)) ;
#523=DIRECTION('Axis2P3D Direction',(0.,-6.12323399574E-017,-1.)) ;
#528=DIRECTION('Vector Direction',(0.,-7.64353201103E-017,-1.)) ;
#47=PRESENTATION_LAYER_ASSIGNMENT('1',' ',(#38)) ;
#8=PRODUCT_RELATED_PRODUCT_CATEGORY('part',$,(#5)) ;
#7=PRODUCT_CATEGORY('part','specification') ;
#46=STYLED_ITEM(' ',(#45),#38) ;
#45=PRESENTATION_STYLE_ASSIGNMENT((#44)) ;
#44=SURFACE_STYLE_USAGE(.BOTH.,#43) ;
#43=SURFACE_SIDE_STYLE(' ',(#42)) ;
#42=SURFACE_STYLE_FILL_AREA(#41) ;
#41=FILL_AREA_STYLE(' ',(#40)) ;
#40=FILL_AREA_STYLE_COLOUR(' ',#39) ;
#56=VECTOR('Line Direction',#55,1.) ;
#72=VECTOR('Line Direction',#71,1.) ;
#88=VECTOR('Line Direction',#87,1.) ;
#111=VECTOR('Line Direction',#110,1.) ;
#139=VECTOR('Line Direction',#138,1.) ;
#162=VECTOR('Line Direction',#161,1.) ;
#195=VECTOR('Line Direction',#194,1.) ;
#209=VECTOR('Line Direction',#208,1.) ;
#214=VECTOR('Line Direction',#213,1.) ;
#234=VECTOR('Line Direction',#233,1.) ;
#255=VECTOR('Line Direction',#254,1.) ;
#275=VECTOR('Line Direction',#274,1.) ;
#296=VECTOR('Line Direction',#295,1.) ;
#303=VECTOR('Line Direction',#302,1.) ;
#320=VECTOR('Line Direction',#319,1.) ;
#327=VECTOR('Line Direction',#326,1.) ;
#363=VECTOR('Line Direction',#362,1.) ;
#370=VECTOR('Line Direction',#369,1.) ;
#429=VECTOR('Line Direction',#428,1.) ;
#446=VECTOR('Line Direction',#445,1.) ;
#458=VECTOR('Line Direction',#457,1.) ;
#465=VECTOR('Line Direction',#464,1.) ;
#490=VECTOR('Line Direction',#489,1.) ;
#502=VECTOR('Line Direction',#501,1.) ;
#519=VECTOR('Line Direction',#518,1.) ;
#529=VECTOR('Line Direction',#528,1.) ;
#15=UNCERTAINTY_MEASURE_WITH_UNIT(LENGTH_MEASURE(0.005),#12,'distance_accuracy_value','CONFUSED CURVE UNCERTAINTY') ;
#561=SHAPE_REPRESENTATION_RELATIONSHIP(' ',' ',#19,#560) ;
#76=ORIENTED_EDGE('',*,*,#62,.T.) ;
#77=ORIENTED_EDGE('',*,*,#69,.F.) ;
#78=ORIENTED_EDGE('',*,*,#74,.F.) ;
#129=ORIENTED_EDGE('',*,*,#94,.F.) ;
#130=ORIENTED_EDGE('',*,*,#101,.T.) ;
#131=ORIENTED_EDGE('',*,*,#108,.T.) ;
#132=ORIENTED_EDGE('',*,*,#115,.F.) ;
#133=ORIENTED_EDGE('',*,*,#122,.F.) ;
#134=ORIENTED_EDGE('',*,*,#127,.F.) ;
#180=ORIENTED_EDGE('',*,*,#145,.T.) ;
#181=ORIENTED_EDGE('',*,*,#152,.T.) ;
#182=ORIENTED_EDGE('',*,*,#159,.T.) ;
#183=ORIENTED_EDGE('',*,*,#166,.T.) ;
#184=ORIENTED_EDGE('',*,*,#173,.F.) ;
#185=ORIENTED_EDGE('',*,*,#178,.F.) ;
#238=ORIENTED_EDGE('',*,*,#159,.F.) ;
#239=ORIENTED_EDGE('',*,*,#199,.F.) ;
#240=ORIENTED_EDGE('',*,*,#206,.T.) ;
#241=ORIENTED_EDGE('',*,*,#211,.T.) ;
#242=ORIENTED_EDGE('',*,*,#101,.F.) ;
#243=ORIENTED_EDGE('',*,*,#218,.T.) ;
#244=ORIENTED_EDGE('',*,*,#231,.T.) ;
#245=ORIENTED_EDGE('',*,*,#236,.F.) ;
#279=ORIENTED_EDGE('',*,*,#108,.F.) ;
#280=ORIENTED_EDGE('',*,*,#211,.F.) ;
#281=ORIENTED_EDGE('',*,*,#252,.T.) ;
#282=ORIENTED_EDGE('',*,*,#199,.T.) ;
#283=ORIENTED_EDGE('',*,*,#152,.F.) ;
#284=ORIENTED_EDGE('',*,*,#259,.T.) ;
#285=ORIENTED_EDGE('',*,*,#272,.F.) ;
#286=ORIENTED_EDGE('',*,*,#277,.F.) ;
#307=ORIENTED_EDGE('',*,*,#300,.F.) ;
#308=ORIENTED_EDGE('',*,*,#305,.T.) ;
#309=ORIENTED_EDGE('',*,*,#259,.F.) ;
#310=ORIENTED_EDGE('',*,*,#145,.F.) ;
#338=ORIENTED_EDGE('',*,*,#324,.T.) ;
#339=ORIENTED_EDGE('',*,*,#206,.F.) ;
#340=ORIENTED_EDGE('',*,*,#331,.F.) ;
#341=ORIENTED_EDGE('',*,*,#336,.T.) ;
#350=ORIENTED_EDGE('',*,*,#331,.T.) ;
#351=ORIENTED_EDGE('',*,*,#252,.F.) ;
#352=ORIENTED_EDGE('',*,*,#324,.F.) ;
#353=ORIENTED_EDGE('',*,*,#348,.T.) ;
#381=ORIENTED_EDGE('',*,*,#367,.T.) ;
#382=ORIENTED_EDGE('',*,*,#336,.F.) ;
#383=ORIENTED_EDGE('',*,*,#374,.F.) ;
#384=ORIENTED_EDGE('',*,*,#379,.T.) ;
#393=ORIENTED_EDGE('',*,*,#374,.T.) ;
#394=ORIENTED_EDGE('',*,*,#348,.F.) ;
#395=ORIENTED_EDGE('',*,*,#367,.F.) ;
#396=ORIENTED_EDGE('',*,*,#391,.T.) ;
#405=ORIENTED_EDGE('',*,*,#379,.F.) ;
#406=ORIENTED_EDGE('',*,*,#391,.F.) ;
#433=ORIENTED_EDGE('',*,*,#426,.F.) ;
#434=ORIENTED_EDGE('',*,*,#431,.T.) ;
#435=ORIENTED_EDGE('',*,*,#272,.T.) ;
#436=ORIENTED_EDGE('',*,*,#305,.F.) ;
#450=ORIENTED_EDGE('',*,*,#448,.F.) ;
#451=ORIENTED_EDGE('',*,*,#115,.T.) ;
#452=ORIENTED_EDGE('',*,*,#277,.T.) ;
#453=ORIENTED_EDGE('',*,*,#431,.F.) ;
#469=ORIENTED_EDGE('',*,*,#462,.T.) ;
#470=ORIENTED_EDGE('',*,*,#166,.F.) ;
#471=ORIENTED_EDGE('',*,*,#236,.T.) ;
#472=ORIENTED_EDGE('',*,*,#467,.T.) ;
#494=ORIENTED_EDGE('',*,*,#487,.T.) ;
#495=ORIENTED_EDGE('',*,*,#467,.F.) ;
#496=ORIENTED_EDGE('',*,*,#231,.F.) ;
#497=ORIENTED_EDGE('',*,*,#492,.T.) ;
#506=ORIENTED_EDGE('',*,*,#504,.T.) ;
#507=ORIENTED_EDGE('',*,*,#492,.F.) ;
#508=ORIENTED_EDGE('',*,*,#218,.F.) ;
#509=ORIENTED_EDGE('',*,*,#94,.T.) ;
#533=ORIENTED_EDGE('',*,*,#122,.T.) ;
#534=ORIENTED_EDGE('',*,*,#448,.T.) ;
#535=ORIENTED_EDGE('',*,*,#426,.T.) ;
#536=ORIENTED_EDGE('',*,*,#300,.T.) ;
#537=ORIENTED_EDGE('',*,*,#178,.T.) ;
#538=ORIENTED_EDGE('',*,*,#521,.F.) ;
#539=ORIENTED_EDGE('',*,*,#526,.T.) ;
#540=ORIENTED_EDGE('',*,*,#531,.T.) ;
#544=ORIENTED_EDGE('',*,*,#173,.T.) ;
#545=ORIENTED_EDGE('',*,*,#462,.F.) ;
#546=ORIENTED_EDGE('',*,*,#487,.F.) ;
#547=ORIENTED_EDGE('',*,*,#504,.F.) ;
#548=ORIENTED_EDGE('',*,*,#127,.T.) ;
#549=ORIENTED_EDGE('',*,*,#531,.F.) ;
#550=ORIENTED_EDGE('',*,*,#69,.T.) ;
#551=ORIENTED_EDGE('',*,*,#521,.T.) ;
#555=ORIENTED_EDGE('',*,*,#74,.T.) ;
#556=ORIENTED_EDGE('',*,*,#526,.F.) ;
#557=ORIENTED_EDGE('',*,*,#62,.F.) ;
#48=CLOSED_SHELL('Closed Shell',(#80,#136,#187,#247,#288,#312,#343,#355,#386,#398,#408,#438,#455,#474,#499,#511,#542,#553,#559)) ;
#560=ADVANCED_BREP_SHAPE_REPRESENTATION('NONE',(#38),#16) ;
#80=ADVANCED_FACE('Koerper.2',(#79),#53,.F.) ;
#136=ADVANCED_FACE('Koerper.2',(#135),#85,.T.) ;
#187=ADVANCED_FACE('Koerper.2',(#186),#85,.T.) ;
#247=ADVANCED_FACE('Koerper.2',(#246),#192,.T.) ;
#288=ADVANCED_FACE('Koerper.2',(#287),#192,.T.) ;
#312=ADVANCED_FACE('Koerper.2',(#311),#293,.F.) ;
#343=ADVANCED_FACE('Koerper.2',(#342),#317,.T.) ;
#355=ADVANCED_FACE('Koerper.2',(#354),#317,.T.) ;
#386=ADVANCED_FACE('Koerper.2',(#385),#360,.T.) ;
#398=ADVANCED_FACE('Koerper.2',(#397),#360,.T.) ;
#408=ADVANCED_FACE('Koerper.2',(#407),#403,.F.) ;
#438=ADVANCED_FACE('Koerper.2',(#437),#413,.F.) ;
#455=ADVANCED_FACE('Koerper.2',(#454),#443,.F.) ;
#474=ADVANCED_FACE('Koerper.2',(#473),#293,.F.) ;
#499=ADVANCED_FACE('Koerper.2',(#498),#413,.F.) ;
#511=ADVANCED_FACE('Koerper.2',(#510),#443,.F.) ;
#542=ADVANCED_FACE('Koerper.2',(#541),#516,.F.) ;
#553=ADVANCED_FACE('Koerper.2',(#552),#516,.F.) ;
#559=ADVANCED_FACE('Koerper.2',(#558),#53,.F.) ;
#4=APPLICATION_PROTOCOL_DEFINITION('international standard','automotive_design',2001,#1) ;
#219=B_SPLINE_CURVE_WITH_KNOTS('',5,(#220,#221,#222,#223,#224,#225,#226,#227,#228),.UNSPECIFIED.,.F.,.U.,(6,3,6),(0.,0.726352699873,1.78240337634),.UNSPECIFIED.) ;
#260=B_SPLINE_CURVE_WITH_KNOTS('',5,(#261,#262,#263,#264,#265,#266,#267,#268,#269),.UNSPECIFIED.,.F.,.U.,(6,3,6),(0.,0.72635269987,1.78240337632),.UNSPECIFIED.) ;
#414=B_SPLINE_CURVE_WITH_KNOTS('',5,(#415,#416,#417,#418,#419,#420,#421,#422,#423),.UNSPECIFIED.,.F.,.U.,(6,3,6),(0.,0.912501170144,1.78973882391),.UNSPECIFIED.) ;
#475=B_SPLINE_CURVE_WITH_KNOTS('',5,(#476,#477,#478,#479,#480,#481,#482,#483,#484),.UNSPECIFIED.,.F.,.U.,(6,3,6),(0.,0.912501170152,1.78973882391),.UNSPECIFIED.) ;
#38=MANIFOLD_SOLID_BREP('Koerper.2',#48) ;
#66=CIRCLE('generated circle',#65,1.175) ;
#98=CIRCLE('generated circle',#97,1.85) ;
#105=CIRCLE('generated circle',#104,1.85) ;
#119=CIRCLE('generated circle',#118,1.175) ;
#126=CIRCLE('generated circle',#125,1.175) ;
#149=CIRCLE('generated circle',#148,1.85) ;
#156=CIRCLE('generated circle',#155,1.85) ;
#170=CIRCLE('generated circle',#169,1.175) ;
#177=CIRCLE('generated circle',#176,1.175) ;
#203=CIRCLE('generated circle',#202,1.85) ;
#251=CIRCLE('generated circle',#250,1.85) ;
#335=CIRCLE('generated circle',#334,1.5) ;
#347=CIRCLE('generated circle',#346,1.5) ;
#378=CIRCLE('generated circle',#377,1.5) ;
#390=CIRCLE('generated circle',#389,1.5) ;
#525=CIRCLE('generated circle',#524,1.175) ;
#39=COLOUR_RGB('Colour',0.823529411765,0.823529411765,1.) ;
#53=CONICAL_SURFACE('Cone',#52,0.,1.0471975512) ;
#317=CONICAL_SURFACE('Cone',#316,1.5,0.350601422528) ;
#26=CONSTRUCTIVE_GEOMETRY_REPRESENTATION('supplemental geometry',(#25,#32,#37),#16) ;
#27=CONSTRUCTIVE_GEOMETRY_REPRESENTATION_RELATIONSHIP('supplemental geometry','',#19,#26) ;
#192=CYLINDRICAL_SURFACE('generated cylinder',#191,1.85) ;
#360=CYLINDRICAL_SURFACE('generated cylinder',#359,1.5) ;
#413=CYLINDRICAL_SURFACE('generated cylinder',#412,0.4) ;
#516=CYLINDRICAL_SURFACE('generated cylinder',#515,1.175) ;
#62=EDGE_CURVE('',#59,#61,#57,.T.) ;
#69=EDGE_CURVE('',#68,#61,#66,.F.) ;
#74=EDGE_CURVE('',#59,#68,#73,.T.) ;
#94=EDGE_CURVE('',#91,#93,#89,.T.) ;
#101=EDGE_CURVE('',#91,#100,#98,.T.) ;
#108=EDGE_CURVE('',#100,#107,#105,.T.) ;
#115=EDGE_CURVE('',#114,#107,#112,.T.) ;
#122=EDGE_CURVE('',#121,#114,#119,.T.) ;
#127=EDGE_CURVE('',#93,#121,#126,.T.) ;
#145=EDGE_CURVE('',#142,#144,#140,.T.) ;
#152=EDGE_CURVE('',#144,#151,#149,.T.) ;
#159=EDGE_CURVE('',#151,#158,#156,.T.) ;
#166=EDGE_CURVE('',#158,#165,#163,.T.) ;
#173=EDGE_CURVE('',#172,#165,#170,.T.) ;
#178=EDGE_CURVE('',#142,#172,#177,.T.) ;
#199=EDGE_CURVE('',#198,#151,#196,.T.) ;
#206=EDGE_CURVE('',#198,#205,#203,.T.) ;
#211=EDGE_CURVE('',#205,#100,#210,.T.) ;
#218=EDGE_CURVE('',#91,#217,#215,.F.) ;
#231=EDGE_CURVE('',#217,#230,#219,.T.) ;
#236=EDGE_CURVE('',#158,#230,#235,.F.) ;
#252=EDGE_CURVE('',#205,#198,#251,.T.) ;
#259=EDGE_CURVE('',#144,#258,#256,.F.) ;
#272=EDGE_CURVE('',#271,#258,#260,.T.) ;
#277=EDGE_CURVE('',#107,#271,#276,.F.) ;
#300=EDGE_CURVE('',#299,#142,#297,.T.) ;
#305=EDGE_CURVE('',#299,#258,#304,.T.) ;
#324=EDGE_CURVE('',#323,#205,#321,.T.) ;
#331=EDGE_CURVE('',#330,#198,#328,.T.) ;
#336=EDGE_CURVE('',#330,#323,#335,.T.) ;
#348=EDGE_CURVE('',#323,#330,#347,.T.) ;
#367=EDGE_CURVE('',#366,#323,#364,.T.) ;
#374=EDGE_CURVE('',#373,#330,#371,.T.) ;
#379=EDGE_CURVE('',#373,#366,#378,.T.) ;
#391=EDGE_CURVE('',#366,#373,#390,.T.) ;
#426=EDGE_CURVE('',#425,#299,#414,.T.) ;
#431=EDGE_CURVE('',#425,#271,#430,.F.) ;
#448=EDGE_CURVE('',#114,#425,#447,.T.) ;
#462=EDGE_CURVE('',#461,#165,#459,.T.) ;
#467=EDGE_CURVE('',#230,#461,#466,.T.) ;
#487=EDGE_CURVE('',#486,#461,#475,.T.) ;
#492=EDGE_CURVE('',#217,#486,#491,.F.) ;
#504=EDGE_CURVE('',#93,#486,#503,.T.) ;
#521=EDGE_CURVE('',#61,#172,#520,.F.) ;
#526=EDGE_CURVE('',#61,#68,#525,.T.) ;
#531=EDGE_CURVE('',#68,#121,#530,.F.) ;
#75=EDGE_LOOP('',(#76,#77,#78)) ;
#128=EDGE_LOOP('',(#129,#130,#131,#132,#133,#134)) ;
#179=EDGE_LOOP('',(#180,#181,#182,#183,#184,#185)) ;
#237=EDGE_LOOP('',(#238,#239,#240,#241,#242,#243,#244,#245)) ;
#278=EDGE_LOOP('',(#279,#280,#281,#282,#283,#284,#285,#286)) ;
#306=EDGE_LOOP('',(#307,#308,#309,#310)) ;
#337=EDGE_LOOP('',(#338,#339,#340,#341)) ;
#349=EDGE_LOOP('',(#350,#351,#352,#353)) ;
#380=EDGE_LOOP('',(#381,#382,#383,#384)) ;
#392=EDGE_LOOP('',(#393,#394,#395,#396)) ;
#404=EDGE_LOOP('',(#405,#406)) ;
#432=EDGE_LOOP('',(#433,#434,#435,#436)) ;
#449=EDGE_LOOP('',(#450,#451,#452,#453)) ;
#468=EDGE_LOOP('',(#469,#470,#471,#472)) ;
#493=EDGE_LOOP('',(#494,#495,#496,#497)) ;
#505=EDGE_LOOP('',(#506,#507,#508,#509)) ;
#532=EDGE_LOOP('',(#533,#534,#535,#536,#537,#538,#539,#540)) ;
#543=EDGE_LOOP('',(#544,#545,#546,#547,#548,#549,#550,#551)) ;
#554=EDGE_LOOP('',(#555,#556,#557)) ;
#79=FACE_OUTER_BOUND('',#75,.T.) ;
#135=FACE_OUTER_BOUND('',#128,.T.) ;
#186=FACE_OUTER_BOUND('',#179,.T.) ;
#246=FACE_OUTER_BOUND('',#237,.T.) ;
#287=FACE_OUTER_BOUND('',#278,.T.) ;
#311=FACE_OUTER_BOUND('',#306,.T.) ;
#342=FACE_OUTER_BOUND('',#337,.T.) ;
#354=FACE_OUTER_BOUND('',#349,.T.) ;
#385=FACE_OUTER_BOUND('',#380,.T.) ;
#397=FACE_OUTER_BOUND('',#392,.T.) ;
#407=FACE_OUTER_BOUND('',#404,.T.) ;
#437=FACE_OUTER_BOUND('',#432,.T.) ;
#454=FACE_OUTER_BOUND('',#449,.T.) ;
#473=FACE_OUTER_BOUND('',#468,.T.) ;
#498=FACE_OUTER_BOUND('',#493,.T.) ;
#510=FACE_OUTER_BOUND('',#505,.T.) ;
#541=FACE_OUTER_BOUND('',#532,.T.) ;
#552=FACE_OUTER_BOUND('',#543,.T.) ;
#558=FACE_OUTER_BOUND('',#554,.T.) ;
#57=LINE('Line',#54,#56) ;
#73=LINE('Line',#70,#72) ;
#89=LINE('Line',#86,#88) ;
#112=LINE('Line',#109,#111) ;
#140=LINE('Line',#137,#139) ;
#163=LINE('Line',#160,#162) ;
#196=LINE('Line',#193,#195) ;
#210=LINE('Line',#207,#209) ;
#215=LINE('Line',#212,#214) ;
#235=LINE('Line',#232,#234) ;
#256=LINE('Line',#253,#255) ;
#276=LINE('Line',#273,#275) ;
#297=LINE('Line',#294,#296) ;
#304=LINE('Line',#301,#303) ;
#321=LINE('Line',#318,#320) ;
#328=LINE('Line',#325,#327) ;
#364=LINE('Line',#361,#363) ;
#371=LINE('Line',#368,#370) ;
#430=LINE('Line',#427,#429) ;
#447=LINE('Line',#444,#446) ;
#459=LINE('Line',#456,#458) ;
#466=LINE('Line',#463,#465) ;
#491=LINE('Line',#488,#490) ;
#503=LINE('Line',#500,#502) ;
#520=LINE('Line',#517,#519) ;
#530=LINE('Line',#527,#529) ;
#25=PLANE('Referenz_xy',#24) ;
#32=PLANE('Referenz_yz',#31) ;
#37=PLANE('Referenz_zx',#36) ;
#85=PLANE('',#84) ;
#293=PLANE('',#292) ;
#403=PLANE('',#402) ;
#443=PLANE('',#442) ;
#9=PRODUCT_CATEGORY_RELATIONSHIP(' ',' ',#7,#8) ;
#6=PRODUCT_DEFINITION_FORMATION_WITH_SPECIFIED_SOURCE('',' ',#5,.NOT_KNOWN.) ;
#20=SHAPE_DEFINITION_REPRESENTATION(#11,#19) ;
#59=VERTEX_POINT('',#58) ;
#61=VERTEX_POINT('',#60) ;
#68=VERTEX_POINT('',#67) ;
#91=VERTEX_POINT('',#90) ;
#93=VERTEX_POINT('',#92) ;
#100=VERTEX_POINT('',#99) ;
#107=VERTEX_POINT('',#106) ;
#114=VERTEX_POINT('',#113) ;
#121=VERTEX_POINT('',#120) ;
#142=VERTEX_POINT('',#141) ;
#144=VERTEX_POINT('',#143) ;
#151=VERTEX_POINT('',#150) ;
#158=VERTEX_POINT('',#157) ;
#165=VERTEX_POINT('',#164) ;
#172=VERTEX_POINT('',#171) ;
#198=VERTEX_POINT('',#197) ;
#205=VERTEX_POINT('',#204) ;
#217=VERTEX_POINT('',#216) ;
#230=VERTEX_POINT('',#229) ;
#258=VERTEX_POINT('',#257) ;
#271=VERTEX_POINT('',#270) ;
#299=VERTEX_POINT('',#298) ;
#323=VERTEX_POINT('',#322) ;
#330=VERTEX_POINT('',#329) ;
#366=VERTEX_POINT('',#365) ;
#373=VERTEX_POINT('',#372) ;
#425=VERTEX_POINT('',#424) ;
#461=VERTEX_POINT('',#460) ;
#486=VERTEX_POINT('',#485) ;
#12=(LENGTH_UNIT()NAMED_UNIT(*)SI_UNIT(.MILLI.,.METRE.)) ;
#13=(NAMED_UNIT(*)PLANE_ANGLE_UNIT()SI_UNIT($,.RADIAN.)) ;
#14=(NAMED_UNIT(*)SI_UNIT($,.STERADIAN.)SOLID_ANGLE_UNIT()) ;
#16=(GEOMETRIC_REPRESENTATION_CONTEXT(3)GLOBAL_UNCERTAINTY_ASSIGNED_CONTEXT((#15))GLOBAL_UNIT_ASSIGNED_CONTEXT((#12,#13,#14))REPRESENTATION_CONTEXT(' ',' ')) ;
ENDSEC;
END-ISO-10303-21;
