ISO-10303-21;
HEADER;
FILE_DESCRIPTION(('CATIA V5 STEP Exchange','CAx-IF Rec.Pracs.--- Model Styling and Organization---1.4--- 2014-01-23'),'2;1');

FILE_NAME ('002083-2_0_0470900000_04709000000_S.stp','2021-05-07T10:22:36+00:00',('none'),('Weidmueller'),'CATIA Version 5-6 Release 2016 SP3 HF44','CATIA V5 STEP AP214','none');

FILE_SCHEMA(('AUTOMOTIVE_DESIGN { 1 0 10303 214 1 1 1 1 }'));

ENDSEC;
DATA;
#5=PRODUCT('QL 4 SAK16','','QUERVERBINDUNGSLASCHE',(#2)) ;
#2=PRODUCT_CONTEXT(' ',#1,'mechanical') ;
#1=APPLICATION_CONTEXT('automotive design') ;
#10=PRODUCT_DEFINITION('',' ',#6,#3) ;
#3=PRODUCT_DEFINITION_CONTEXT('part definition',#1,' ') ;
#11=PRODUCT_DEFINITION_SHAPE(' ',' ',#10) ;
#453=MECHANICAL_DESIGN_GEOMETRIC_PRESENTATION_REPRESENTATION(' ',(#29),#16) ;
#454=MECHANICAL_DESIGN_GEOMETRIC_PRESENTATION_REPRESENTATION(' ',(#450),#16) ;
#19=SHAPE_REPRESENTATION(' ',(#18),#16) ;
#18=AXIS2_PLACEMENT_3D(' ',#17,$,$) ;
#35=AXIS2_PLACEMENT_3D('Cylinder Axis2P3D',#32,#33,#34) ;
#39=AXIS2_PLACEMENT_3D('Circle Axis2P3D',#37,#38,$) ;
#55=AXIS2_PLACEMENT_3D('Circle Axis2P3D',#53,#54,$) ;
#74=AXIS2_PLACEMENT_3D('Circle Axis2P3D',#72,#73,$) ;
#79=AXIS2_PLACEMENT_3D('Circle Axis2P3D',#77,#78,$) ;
#92=AXIS2_PLACEMENT_3D('Plane Axis2P3D',#89,#90,#91) ;
#132=AXIS2_PLACEMENT_3D('Plane Axis2P3D',#129,#130,#131) ;
#163=AXIS2_PLACEMENT_3D('Plane Axis2P3D',#160,#161,#162) ;
#194=AXIS2_PLACEMENT_3D('Plane Axis2P3D',#191,#192,#193) ;
#216=AXIS2_PLACEMENT_3D('Plane Axis2P3D',#213,#214,#215) ;
#230=AXIS2_PLACEMENT_3D('Circle Axis2P3D',#228,#229,$) ;
#239=AXIS2_PLACEMENT_3D('Circle Axis2P3D',#237,#238,$) ;
#248=AXIS2_PLACEMENT_3D('Circle Axis2P3D',#246,#247,$) ;
#257=AXIS2_PLACEMENT_3D('Circle Axis2P3D',#255,#256,$) ;
#266=AXIS2_PLACEMENT_3D('Circle Axis2P3D',#264,#265,$) ;
#275=AXIS2_PLACEMENT_3D('Circle Axis2P3D',#273,#274,$) ;
#286=AXIS2_PLACEMENT_3D('Plane Axis2P3D',#283,#284,#285) ;
#300=AXIS2_PLACEMENT_3D('Circle Axis2P3D',#298,#299,$) ;
#309=AXIS2_PLACEMENT_3D('Circle Axis2P3D',#307,#308,$) ;
#318=AXIS2_PLACEMENT_3D('Circle Axis2P3D',#316,#317,$) ;
#327=AXIS2_PLACEMENT_3D('Circle Axis2P3D',#325,#326,$) ;
#336=AXIS2_PLACEMENT_3D('Circle Axis2P3D',#334,#335,$) ;
#345=AXIS2_PLACEMENT_3D('Circle Axis2P3D',#343,#344,$) ;
#356=AXIS2_PLACEMENT_3D('Cylinder Axis2P3D',#353,#354,#355) ;
#385=AXIS2_PLACEMENT_3D('Cylinder Axis2P3D',#382,#383,#384) ;
#414=AXIS2_PLACEMENT_3D('Cylinder Axis2P3D',#411,#412,#413) ;
#445=AXIS2_PLACEMENT_3D('Axis System.1',#442,#443,#444) ;
#17=CARTESIAN_POINT(' ',(0.,0.,0.)) ;
#32=CARTESIAN_POINT('Axis2P3D Location',(3.,3.,1.9)) ;
#37=CARTESIAN_POINT('Axis2P3D Location',(3.,3.,2.)) ;
#41=CARTESIAN_POINT('Vertex',(4.49189035521,2.18497658437,2.)) ;
#43=CARTESIAN_POINT('Vertex',(1.50810964479,3.81502341563,2.)) ;
#46=CARTESIAN_POINT('Line Origine',(1.50810964479,3.81502341563,1.15500000002)) ;
#50=CARTESIAN_POINT('Vertex',(1.50810964479,3.81502341563,0.)) ;
#53=CARTESIAN_POINT('Axis2P3D Location',(3.,3.,0.)) ;
#57=CARTESIAN_POINT('Vertex',(4.49189035521,2.18497658437,0.)) ;
#60=CARTESIAN_POINT('Line Origine',(4.49189035521,2.18497658437,1.15500000002)) ;
#72=CARTESIAN_POINT('Axis2P3D Location',(3.,3.,2.)) ;
#77=CARTESIAN_POINT('Axis2P3D Location',(3.,3.,0.)) ;
#89=CARTESIAN_POINT('Axis2P3D Location',(0.,6.,0.)) ;
#94=CARTESIAN_POINT('Line Origine',(0.,6.,1.)) ;
#98=CARTESIAN_POINT('Vertex',(0.,6.,0.)) ;
#100=CARTESIAN_POINT('Vertex',(0.,6.,2.)) ;
#103=CARTESIAN_POINT('Line Origine',(0.,3.,0.)) ;
#107=CARTESIAN_POINT('Vertex',(0.,0.,0.)) ;
#110=CARTESIAN_POINT('Line Origine',(0.,0.,1.)) ;
#114=CARTESIAN_POINT('Vertex',(0.,0.,2.)) ;
#117=CARTESIAN_POINT('Line Origine',(0.,3.,2.)) ;
#129=CARTESIAN_POINT('Axis2P3D Location',(41.7,6.,0.)) ;
#134=CARTESIAN_POINT('Line Origine',(41.7,6.,1.)) ;
#138=CARTESIAN_POINT('Vertex',(41.7,6.,0.)) ;
#140=CARTESIAN_POINT('Vertex',(41.7,6.,2.)) ;
#143=CARTESIAN_POINT('Line Origine',(20.85,6.,0.)) ;
#148=CARTESIAN_POINT('Line Origine',(20.85,6.,2.)) ;
#160=CARTESIAN_POINT('Axis2P3D Location',(41.7,-1.37152523496E-014,0.)) ;
#165=CARTESIAN_POINT('Line Origine',(41.7,-1.37152523496E-014,1.)) ;
#169=CARTESIAN_POINT('Vertex',(41.7,0.,0.)) ;
#171=CARTESIAN_POINT('Vertex',(41.7,0.,2.)) ;
#174=CARTESIAN_POINT('Line Origine',(41.7,3.,0.)) ;
#179=CARTESIAN_POINT('Line Origine',(41.7,3.,2.)) ;
#191=CARTESIAN_POINT('Axis2P3D Location',(0.,0.,0.)) ;
#196=CARTESIAN_POINT('Line Origine',(20.85,0.,0.)) ;
#201=CARTESIAN_POINT('Line Origine',(20.85,0.,2.)) ;
#213=CARTESIAN_POINT('Axis2P3D Location',(0.,0.,2.)) ;
#228=CARTESIAN_POINT('Axis2P3D Location',(14.9,3.,2.)) ;
#232=CARTESIAN_POINT('Vertex',(16.3918903552,2.18497658437,2.)) ;
#234=CARTESIAN_POINT('Vertex',(13.4081096448,3.81502341563,2.)) ;
#237=CARTESIAN_POINT('Axis2P3D Location',(14.9,3.,2.)) ;
#246=CARTESIAN_POINT('Axis2P3D Location',(26.8,3.,2.)) ;
#250=CARTESIAN_POINT('Vertex',(28.2918903552,2.18497658437,2.)) ;
#252=CARTESIAN_POINT('Vertex',(25.3081096448,3.81502341563,2.)) ;
#255=CARTESIAN_POINT('Axis2P3D Location',(26.8,3.,2.)) ;
#264=CARTESIAN_POINT('Axis2P3D Location',(38.7,3.,2.)) ;
#268=CARTESIAN_POINT('Vertex',(40.1918903552,2.18497658437,2.)) ;
#270=CARTESIAN_POINT('Vertex',(37.2081096448,3.81502341563,2.)) ;
#273=CARTESIAN_POINT('Axis2P3D Location',(38.7,3.,2.)) ;
#283=CARTESIAN_POINT('Axis2P3D Location',(0.,0.,0.)) ;
#298=CARTESIAN_POINT('Axis2P3D Location',(14.9,3.,0.)) ;
#302=CARTESIAN_POINT('Vertex',(13.4081096448,3.81502341563,0.)) ;
#304=CARTESIAN_POINT('Vertex',(16.3918903552,2.18497658437,0.)) ;
#307=CARTESIAN_POINT('Axis2P3D Location',(14.9,3.,0.)) ;
#316=CARTESIAN_POINT('Axis2P3D Location',(26.8,3.,0.)) ;
#320=CARTESIAN_POINT('Vertex',(25.3081096448,3.81502341563,0.)) ;
#322=CARTESIAN_POINT('Vertex',(28.2918903552,2.18497658437,0.)) ;
#325=CARTESIAN_POINT('Axis2P3D Location',(26.8,3.,0.)) ;
#334=CARTESIAN_POINT('Axis2P3D Location',(38.7,3.,0.)) ;
#338=CARTESIAN_POINT('Vertex',(37.2081096448,3.81502341563,0.)) ;
#340=CARTESIAN_POINT('Vertex',(40.1918903552,2.18497658437,0.)) ;
#343=CARTESIAN_POINT('Axis2P3D Location',(38.7,3.,0.)) ;
#353=CARTESIAN_POINT('Axis2P3D Location',(38.7,3.,1.9)) ;
#358=CARTESIAN_POINT('Line Origine',(37.2081096448,3.81502341563,1.15500000002)) ;
#363=CARTESIAN_POINT('Line Origine',(40.1918903552,2.18497658437,1.15500000002)) ;
#382=CARTESIAN_POINT('Axis2P3D Location',(26.8,3.,1.9)) ;
#387=CARTESIAN_POINT('Line Origine',(25.3081096448,3.81502341563,1.15500000002)) ;
#392=CARTESIAN_POINT('Line Origine',(28.2918903552,2.18497658437,1.15500000002)) ;
#411=CARTESIAN_POINT('Axis2P3D Location',(14.9,3.,1.9)) ;
#416=CARTESIAN_POINT('Line Origine',(13.4081096448,3.81502341563,1.15500000002)) ;
#421=CARTESIAN_POINT('Line Origine',(16.3918903552,2.18497658437,1.15500000002)) ;
#442=CARTESIAN_POINT('Axis2P3D Location',(0.,0.,0.)) ;
#33=DIRECTION('Axis2P3D Direction',(0.,-0.,-1.)) ;
#34=DIRECTION('Axis2P3D XDirection',(0.87758256189,-0.479425538604,0.)) ;
#38=DIRECTION('Axis2P3D Direction',(0.,-0.,-1.)) ;
#47=DIRECTION('Vector Direction',(0.,0.,-1.)) ;
#54=DIRECTION('Axis2P3D Direction',(0.,-0.,-1.)) ;
#61=DIRECTION('Vector Direction',(0.,0.,-1.)) ;
#73=DIRECTION('Axis2P3D Direction',(0.,-0.,-1.)) ;
#78=DIRECTION('Axis2P3D Direction',(0.,-0.,-1.)) ;
#90=DIRECTION('Axis2P3D Direction',(-1.,0.,0.)) ;
#91=DIRECTION('Axis2P3D XDirection',(0.,-1.,0.)) ;
#95=DIRECTION('Vector Direction',(0.,0.,1.)) ;
#104=DIRECTION('Vector Direction',(0.,-1.,0.)) ;
#111=DIRECTION('Vector Direction',(0.,0.,1.)) ;
#118=DIRECTION('Vector Direction',(0.,-1.,0.)) ;
#130=DIRECTION('Axis2P3D Direction',(0.,1.,-0.)) ;
#131=DIRECTION('Axis2P3D XDirection',(-1.,0.,0.)) ;
#135=DIRECTION('Vector Direction',(0.,0.,1.)) ;
#144=DIRECTION('Vector Direction',(-1.,0.,0.)) ;
#149=DIRECTION('Vector Direction',(-1.,0.,0.)) ;
#161=DIRECTION('Axis2P3D Direction',(1.,0.,0.)) ;
#162=DIRECTION('Axis2P3D XDirection',(0.,1.,0.)) ;
#166=DIRECTION('Vector Direction',(0.,0.,1.)) ;
#175=DIRECTION('Vector Direction',(0.,1.,0.)) ;
#180=DIRECTION('Vector Direction',(0.,1.,0.)) ;
#192=DIRECTION('Axis2P3D Direction',(0.,-1.,0.)) ;
#193=DIRECTION('Axis2P3D XDirection',(1.,0.,0.)) ;
#197=DIRECTION('Vector Direction',(1.,0.,0.)) ;
#202=DIRECTION('Vector Direction',(1.,0.,0.)) ;
#214=DIRECTION('Axis2P3D Direction',(0.,0.,1.)) ;
#215=DIRECTION('Axis2P3D XDirection',(1.,0.,0.)) ;
#229=DIRECTION('Axis2P3D Direction',(0.,0.,1.)) ;
#238=DIRECTION('Axis2P3D Direction',(0.,0.,1.)) ;
#247=DIRECTION('Axis2P3D Direction',(0.,0.,1.)) ;
#256=DIRECTION('Axis2P3D Direction',(0.,0.,1.)) ;
#265=DIRECTION('Axis2P3D Direction',(0.,0.,1.)) ;
#274=DIRECTION('Axis2P3D Direction',(0.,0.,1.)) ;
#284=DIRECTION('Axis2P3D Direction',(0.,0.,1.)) ;
#285=DIRECTION('Axis2P3D XDirection',(1.,0.,0.)) ;
#299=DIRECTION('Axis2P3D Direction',(0.,0.,1.)) ;
#308=DIRECTION('Axis2P3D Direction',(0.,0.,1.)) ;
#317=DIRECTION('Axis2P3D Direction',(0.,0.,1.)) ;
#326=DIRECTION('Axis2P3D Direction',(0.,0.,1.)) ;
#335=DIRECTION('Axis2P3D Direction',(0.,0.,1.)) ;
#344=DIRECTION('Axis2P3D Direction',(0.,0.,1.)) ;
#354=DIRECTION('Axis2P3D Direction',(0.,0.,-1.)) ;
#355=DIRECTION('Axis2P3D XDirection',(0.87758256189,-0.479425538604,0.)) ;
#359=DIRECTION('Vector Direction',(0.,0.,-1.)) ;
#364=DIRECTION('Vector Direction',(0.,0.,-1.)) ;
#383=DIRECTION('Axis2P3D Direction',(0.,0.,-1.)) ;
#384=DIRECTION('Axis2P3D XDirection',(0.87758256189,-0.479425538604,0.)) ;
#388=DIRECTION('Vector Direction',(0.,0.,-1.)) ;
#393=DIRECTION('Vector Direction',(0.,0.,-1.)) ;
#412=DIRECTION('Axis2P3D Direction',(0.,0.,-1.)) ;
#413=DIRECTION('Axis2P3D XDirection',(0.87758256189,-0.479425538604,0.)) ;
#417=DIRECTION('Vector Direction',(0.,0.,-1.)) ;
#422=DIRECTION('Vector Direction',(0.,0.,-1.)) ;
#443=DIRECTION('Axis2P3D Direction',(0.,0.,1.)) ;
#444=DIRECTION('Axis2P3D XDirection',(1.,0.,0.)) ;
#30=PRESENTATION_LAYER_ASSIGNMENT('1',' ',(#21)) ;
#8=PRODUCT_RELATED_PRODUCT_CATEGORY('part',$,(#5)) ;
#7=PRODUCT_CATEGORY('part','specification') ;
#29=STYLED_ITEM(' ',(#28),#21) ;
#450=STYLED_ITEM(' ',(#449),#445) ;
#28=PRESENTATION_STYLE_ASSIGNMENT((#27)) ;
#449=PRESENTATION_STYLE_ASSIGNMENT((#448)) ;
#448=CURVE_STYLE(' ',#446,POSITIVE_LENGTH_MEASURE(0.129999995232),#447) ;
#27=SURFACE_STYLE_USAGE(.BOTH.,#26) ;
#26=SURFACE_SIDE_STYLE(' ',(#25)) ;
#25=SURFACE_STYLE_FILL_AREA(#24) ;
#24=FILL_AREA_STYLE(' ',(#23)) ;
#23=FILL_AREA_STYLE_COLOUR(' ',#22) ;
#48=VECTOR('Line Direction',#47,1.) ;
#62=VECTOR('Line Direction',#61,1.) ;
#96=VECTOR('Line Direction',#95,1.) ;
#105=VECTOR('Line Direction',#104,1.) ;
#112=VECTOR('Line Direction',#111,1.) ;
#119=VECTOR('Line Direction',#118,1.) ;
#136=VECTOR('Line Direction',#135,1.) ;
#145=VECTOR('Line Direction',#144,1.) ;
#150=VECTOR('Line Direction',#149,1.) ;
#167=VECTOR('Line Direction',#166,1.) ;
#176=VECTOR('Line Direction',#175,1.) ;
#181=VECTOR('Line Direction',#180,1.) ;
#198=VECTOR('Line Direction',#197,1.) ;
#203=VECTOR('Line Direction',#202,1.) ;
#360=VECTOR('Line Direction',#359,1.) ;
#365=VECTOR('Line Direction',#364,1.) ;
#389=VECTOR('Line Direction',#388,1.) ;
#394=VECTOR('Line Direction',#393,1.) ;
#418=VECTOR('Line Direction',#417,1.) ;
#423=VECTOR('Line Direction',#422,1.) ;
#15=UNCERTAINTY_MEASURE_WITH_UNIT(LENGTH_MEASURE(0.005),#12,'distance_accuracy_value','CONFUSED CURVE UNCERTAINTY') ;
#441=SHAPE_REPRESENTATION_RELATIONSHIP(' ',' ',#19,#440) ;
#66=ORIENTED_EDGE('',*,*,#45,.T.) ;
#67=ORIENTED_EDGE('',*,*,#52,.F.) ;
#68=ORIENTED_EDGE('',*,*,#59,.T.) ;
#69=ORIENTED_EDGE('',*,*,#64,.T.) ;
#83=ORIENTED_EDGE('',*,*,#76,.T.) ;
#84=ORIENTED_EDGE('',*,*,#64,.F.) ;
#85=ORIENTED_EDGE('',*,*,#81,.T.) ;
#86=ORIENTED_EDGE('',*,*,#52,.T.) ;
#123=ORIENTED_EDGE('',*,*,#102,.F.) ;
#124=ORIENTED_EDGE('',*,*,#109,.T.) ;
#125=ORIENTED_EDGE('',*,*,#116,.T.) ;
#126=ORIENTED_EDGE('',*,*,#121,.F.) ;
#154=ORIENTED_EDGE('',*,*,#142,.F.) ;
#155=ORIENTED_EDGE('',*,*,#147,.T.) ;
#156=ORIENTED_EDGE('',*,*,#102,.T.) ;
#157=ORIENTED_EDGE('',*,*,#152,.F.) ;
#185=ORIENTED_EDGE('',*,*,#173,.F.) ;
#186=ORIENTED_EDGE('',*,*,#178,.T.) ;
#187=ORIENTED_EDGE('',*,*,#142,.T.) ;
#188=ORIENTED_EDGE('',*,*,#183,.F.) ;
#207=ORIENTED_EDGE('',*,*,#116,.F.) ;
#208=ORIENTED_EDGE('',*,*,#200,.T.) ;
#209=ORIENTED_EDGE('',*,*,#173,.T.) ;
#210=ORIENTED_EDGE('',*,*,#205,.F.) ;
#219=ORIENTED_EDGE('',*,*,#205,.T.) ;
#220=ORIENTED_EDGE('',*,*,#183,.T.) ;
#221=ORIENTED_EDGE('',*,*,#152,.T.) ;
#222=ORIENTED_EDGE('',*,*,#121,.T.) ;
#225=ORIENTED_EDGE('',*,*,#76,.F.) ;
#226=ORIENTED_EDGE('',*,*,#45,.F.) ;
#243=ORIENTED_EDGE('',*,*,#236,.F.) ;
#244=ORIENTED_EDGE('',*,*,#241,.F.) ;
#261=ORIENTED_EDGE('',*,*,#254,.F.) ;
#262=ORIENTED_EDGE('',*,*,#259,.F.) ;
#279=ORIENTED_EDGE('',*,*,#272,.F.) ;
#280=ORIENTED_EDGE('',*,*,#277,.F.) ;
#289=ORIENTED_EDGE('',*,*,#109,.F.) ;
#290=ORIENTED_EDGE('',*,*,#147,.F.) ;
#291=ORIENTED_EDGE('',*,*,#178,.F.) ;
#292=ORIENTED_EDGE('',*,*,#200,.F.) ;
#295=ORIENTED_EDGE('',*,*,#81,.F.) ;
#296=ORIENTED_EDGE('',*,*,#59,.F.) ;
#313=ORIENTED_EDGE('',*,*,#306,.F.) ;
#314=ORIENTED_EDGE('',*,*,#311,.F.) ;
#331=ORIENTED_EDGE('',*,*,#324,.F.) ;
#332=ORIENTED_EDGE('',*,*,#329,.F.) ;
#349=ORIENTED_EDGE('',*,*,#342,.F.) ;
#350=ORIENTED_EDGE('',*,*,#347,.F.) ;
#369=ORIENTED_EDGE('',*,*,#272,.T.) ;
#370=ORIENTED_EDGE('',*,*,#362,.F.) ;
#371=ORIENTED_EDGE('',*,*,#342,.T.) ;
#372=ORIENTED_EDGE('',*,*,#367,.T.) ;
#376=ORIENTED_EDGE('',*,*,#277,.T.) ;
#377=ORIENTED_EDGE('',*,*,#367,.F.) ;
#378=ORIENTED_EDGE('',*,*,#347,.T.) ;
#379=ORIENTED_EDGE('',*,*,#362,.T.) ;
#398=ORIENTED_EDGE('',*,*,#254,.T.) ;
#399=ORIENTED_EDGE('',*,*,#391,.F.) ;
#400=ORIENTED_EDGE('',*,*,#324,.T.) ;
#401=ORIENTED_EDGE('',*,*,#396,.T.) ;
#405=ORIENTED_EDGE('',*,*,#259,.T.) ;
#406=ORIENTED_EDGE('',*,*,#396,.F.) ;
#407=ORIENTED_EDGE('',*,*,#329,.T.) ;
#408=ORIENTED_EDGE('',*,*,#391,.T.) ;
#427=ORIENTED_EDGE('',*,*,#236,.T.) ;
#428=ORIENTED_EDGE('',*,*,#420,.F.) ;
#429=ORIENTED_EDGE('',*,*,#306,.T.) ;
#430=ORIENTED_EDGE('',*,*,#425,.T.) ;
#434=ORIENTED_EDGE('',*,*,#241,.T.) ;
#435=ORIENTED_EDGE('',*,*,#425,.F.) ;
#436=ORIENTED_EDGE('',*,*,#311,.T.) ;
#437=ORIENTED_EDGE('',*,*,#420,.T.) ;
#227=FACE_BOUND('',#224,.T.) ;
#245=FACE_BOUND('',#242,.T.) ;
#263=FACE_BOUND('',#260,.T.) ;
#281=FACE_BOUND('',#278,.T.) ;
#297=FACE_BOUND('',#294,.T.) ;
#315=FACE_BOUND('',#312,.T.) ;
#333=FACE_BOUND('',#330,.T.) ;
#351=FACE_BOUND('',#348,.T.) ;
#31=CLOSED_SHELL('Closed Shell',(#71,#88,#128,#159,#190,#212,#282,#352,#374,#381,#403,#410,#432,#439)) ;
#440=ADVANCED_BREP_SHAPE_REPRESENTATION('NONE',(#21),#16) ;
#71=ADVANCED_FACE('Body.4',(#70),#36,.F.) ;
#88=ADVANCED_FACE('Body.4',(#87),#36,.F.) ;
#128=ADVANCED_FACE('Body.4',(#127),#93,.T.) ;
#159=ADVANCED_FACE('Body.4',(#158),#133,.T.) ;
#190=ADVANCED_FACE('Body.4',(#189),#164,.T.) ;
#212=ADVANCED_FACE('Body.4',(#211),#195,.T.) ;
#282=ADVANCED_FACE('Body.4',(#223,#227,#245,#263,#281),#217,.T.) ;
#352=ADVANCED_FACE('Body.4',(#293,#297,#315,#333,#351),#287,.F.) ;
#374=ADVANCED_FACE('Body.4',(#373),#357,.F.) ;
#381=ADVANCED_FACE('Body.4',(#380),#357,.F.) ;
#403=ADVANCED_FACE('Body.4',(#402),#386,.F.) ;
#410=ADVANCED_FACE('Body.4',(#409),#386,.F.) ;
#432=ADVANCED_FACE('Body.4',(#431),#415,.F.) ;
#439=ADVANCED_FACE('Body.4',(#438),#415,.F.) ;
#4=APPLICATION_PROTOCOL_DEFINITION('international standard','automotive_design',2001,#1) ;
#21=MANIFOLD_SOLID_BREP('Body.4',#31) ;
#40=CIRCLE('generated circle',#39,1.7) ;
#56=CIRCLE('generated circle',#55,1.7) ;
#75=CIRCLE('generated circle',#74,1.7) ;
#80=CIRCLE('generated circle',#79,1.7) ;
#231=CIRCLE('generated circle',#230,1.7) ;
#240=CIRCLE('generated circle',#239,1.7) ;
#249=CIRCLE('generated circle',#248,1.7) ;
#258=CIRCLE('generated circle',#257,1.7) ;
#267=CIRCLE('generated circle',#266,1.7) ;
#276=CIRCLE('generated circle',#275,1.7) ;
#301=CIRCLE('generated circle',#300,1.7) ;
#310=CIRCLE('generated circle',#309,1.7) ;
#319=CIRCLE('generated circle',#318,1.7) ;
#328=CIRCLE('generated circle',#327,1.7) ;
#337=CIRCLE('generated circle',#336,1.7) ;
#346=CIRCLE('generated circle',#345,1.7) ;
#22=COLOUR_RGB('Colour',0.823529411765,0.823529411765,1.) ;
#451=CONSTRUCTIVE_GEOMETRY_REPRESENTATION('supplemental geometry',(#445),#16) ;
#452=CONSTRUCTIVE_GEOMETRY_REPRESENTATION_RELATIONSHIP('supplemental geometry','',#19,#451) ;
#36=CYLINDRICAL_SURFACE('generated cylinder',#35,1.7) ;
#357=CYLINDRICAL_SURFACE('generated cylinder',#356,1.7) ;
#386=CYLINDRICAL_SURFACE('generated cylinder',#385,1.7) ;
#415=CYLINDRICAL_SURFACE('generated cylinder',#414,1.7) ;
#447=DRAUGHTING_PRE_DEFINED_COLOUR('white') ;
#446=DRAUGHTING_PRE_DEFINED_CURVE_FONT('continuous') ;
#45=EDGE_CURVE('',#42,#44,#40,.F.) ;
#52=EDGE_CURVE('',#51,#44,#49,.F.) ;
#59=EDGE_CURVE('',#51,#58,#56,.T.) ;
#64=EDGE_CURVE('',#58,#42,#63,.F.) ;
#76=EDGE_CURVE('',#44,#42,#75,.F.) ;
#81=EDGE_CURVE('',#58,#51,#80,.T.) ;
#102=EDGE_CURVE('',#99,#101,#97,.T.) ;
#109=EDGE_CURVE('',#99,#108,#106,.T.) ;
#116=EDGE_CURVE('',#108,#115,#113,.T.) ;
#121=EDGE_CURVE('',#101,#115,#120,.T.) ;
#142=EDGE_CURVE('',#139,#141,#137,.T.) ;
#147=EDGE_CURVE('',#139,#99,#146,.T.) ;
#152=EDGE_CURVE('',#141,#101,#151,.T.) ;
#173=EDGE_CURVE('',#170,#172,#168,.T.) ;
#178=EDGE_CURVE('',#170,#139,#177,.T.) ;
#183=EDGE_CURVE('',#172,#141,#182,.T.) ;
#200=EDGE_CURVE('',#108,#170,#199,.T.) ;
#205=EDGE_CURVE('',#115,#172,#204,.T.) ;
#236=EDGE_CURVE('',#233,#235,#231,.T.) ;
#241=EDGE_CURVE('',#235,#233,#240,.T.) ;
#254=EDGE_CURVE('',#251,#253,#249,.T.) ;
#259=EDGE_CURVE('',#253,#251,#258,.T.) ;
#272=EDGE_CURVE('',#269,#271,#267,.T.) ;
#277=EDGE_CURVE('',#271,#269,#276,.T.) ;
#306=EDGE_CURVE('',#303,#305,#301,.F.) ;
#311=EDGE_CURVE('',#305,#303,#310,.F.) ;
#324=EDGE_CURVE('',#321,#323,#319,.F.) ;
#329=EDGE_CURVE('',#323,#321,#328,.F.) ;
#342=EDGE_CURVE('',#339,#341,#337,.F.) ;
#347=EDGE_CURVE('',#341,#339,#346,.F.) ;
#362=EDGE_CURVE('',#339,#271,#361,.F.) ;
#367=EDGE_CURVE('',#341,#269,#366,.F.) ;
#391=EDGE_CURVE('',#321,#253,#390,.F.) ;
#396=EDGE_CURVE('',#323,#251,#395,.F.) ;
#420=EDGE_CURVE('',#303,#235,#419,.F.) ;
#425=EDGE_CURVE('',#305,#233,#424,.F.) ;
#65=EDGE_LOOP('',(#66,#67,#68,#69)) ;
#82=EDGE_LOOP('',(#83,#84,#85,#86)) ;
#122=EDGE_LOOP('',(#123,#124,#125,#126)) ;
#153=EDGE_LOOP('',(#154,#155,#156,#157)) ;
#184=EDGE_LOOP('',(#185,#186,#187,#188)) ;
#206=EDGE_LOOP('',(#207,#208,#209,#210)) ;
#218=EDGE_LOOP('',(#219,#220,#221,#222)) ;
#224=EDGE_LOOP('',(#225,#226)) ;
#242=EDGE_LOOP('',(#243,#244)) ;
#260=EDGE_LOOP('',(#261,#262)) ;
#278=EDGE_LOOP('',(#279,#280)) ;
#288=EDGE_LOOP('',(#289,#290,#291,#292)) ;
#294=EDGE_LOOP('',(#295,#296)) ;
#312=EDGE_LOOP('',(#313,#314)) ;
#330=EDGE_LOOP('',(#331,#332)) ;
#348=EDGE_LOOP('',(#349,#350)) ;
#368=EDGE_LOOP('',(#369,#370,#371,#372)) ;
#375=EDGE_LOOP('',(#376,#377,#378,#379)) ;
#397=EDGE_LOOP('',(#398,#399,#400,#401)) ;
#404=EDGE_LOOP('',(#405,#406,#407,#408)) ;
#426=EDGE_LOOP('',(#427,#428,#429,#430)) ;
#433=EDGE_LOOP('',(#434,#435,#436,#437)) ;
#70=FACE_OUTER_BOUND('',#65,.T.) ;
#87=FACE_OUTER_BOUND('',#82,.T.) ;
#127=FACE_OUTER_BOUND('',#122,.T.) ;
#158=FACE_OUTER_BOUND('',#153,.T.) ;
#189=FACE_OUTER_BOUND('',#184,.T.) ;
#211=FACE_OUTER_BOUND('',#206,.T.) ;
#223=FACE_OUTER_BOUND('',#218,.T.) ;
#293=FACE_OUTER_BOUND('',#288,.T.) ;
#373=FACE_OUTER_BOUND('',#368,.T.) ;
#380=FACE_OUTER_BOUND('',#375,.T.) ;
#402=FACE_OUTER_BOUND('',#397,.T.) ;
#409=FACE_OUTER_BOUND('',#404,.T.) ;
#431=FACE_OUTER_BOUND('',#426,.T.) ;
#438=FACE_OUTER_BOUND('',#433,.T.) ;
#49=LINE('Line',#46,#48) ;
#63=LINE('Line',#60,#62) ;
#97=LINE('Line',#94,#96) ;
#106=LINE('Line',#103,#105) ;
#113=LINE('Line',#110,#112) ;
#120=LINE('Line',#117,#119) ;
#137=LINE('Line',#134,#136) ;
#146=LINE('Line',#143,#145) ;
#151=LINE('Line',#148,#150) ;
#168=LINE('Line',#165,#167) ;
#177=LINE('Line',#174,#176) ;
#182=LINE('Line',#179,#181) ;
#199=LINE('Line',#196,#198) ;
#204=LINE('Line',#201,#203) ;
#361=LINE('Line',#358,#360) ;
#366=LINE('Line',#363,#365) ;
#390=LINE('Line',#387,#389) ;
#395=LINE('Line',#392,#394) ;
#419=LINE('Line',#416,#418) ;
#424=LINE('Line',#421,#423) ;
#93=PLANE('',#92) ;
#133=PLANE('',#132) ;
#164=PLANE('',#163) ;
#195=PLANE('',#194) ;
#217=PLANE('',#216) ;
#287=PLANE('',#286) ;
#9=PRODUCT_CATEGORY_RELATIONSHIP(' ',' ',#7,#8) ;
#6=PRODUCT_DEFINITION_FORMATION_WITH_SPECIFIED_SOURCE('',' ',#5,.NOT_KNOWN.) ;
#20=SHAPE_DEFINITION_REPRESENTATION(#11,#19) ;
#42=VERTEX_POINT('',#41) ;
#44=VERTEX_POINT('',#43) ;
#51=VERTEX_POINT('',#50) ;
#58=VERTEX_POINT('',#57) ;
#99=VERTEX_POINT('',#98) ;
#101=VERTEX_POINT('',#100) ;
#108=VERTEX_POINT('',#107) ;
#115=VERTEX_POINT('',#114) ;
#139=VERTEX_POINT('',#138) ;
#141=VERTEX_POINT('',#140) ;
#170=VERTEX_POINT('',#169) ;
#172=VERTEX_POINT('',#171) ;
#233=VERTEX_POINT('',#232) ;
#235=VERTEX_POINT('',#234) ;
#251=VERTEX_POINT('',#250) ;
#253=VERTEX_POINT('',#252) ;
#269=VERTEX_POINT('',#268) ;
#271=VERTEX_POINT('',#270) ;
#303=VERTEX_POINT('',#302) ;
#305=VERTEX_POINT('',#304) ;
#321=VERTEX_POINT('',#320) ;
#323=VERTEX_POINT('',#322) ;
#339=VERTEX_POINT('',#338) ;
#341=VERTEX_POINT('',#340) ;
#12=(LENGTH_UNIT()NAMED_UNIT(*)SI_UNIT(.MILLI.,.METRE.)) ;
#13=(NAMED_UNIT(*)PLANE_ANGLE_UNIT()SI_UNIT($,.RADIAN.)) ;
#14=(NAMED_UNIT(*)SI_UNIT($,.STERADIAN.)SOLID_ANGLE_UNIT()) ;
#16=(GEOMETRIC_REPRESENTATION_CONTEXT(3)GLOBAL_UNCERTAINTY_ASSIGNED_CONTEXT((#15))GLOBAL_UNIT_ASSIGNED_CONTEXT((#12,#13,#14))REPRESENTATION_CONTEXT(' ',' ')) ;
ENDSEC;
END-ISO-10303-21;
