ISO-10303-21;
HEADER;
FILE_DESCRIPTION(('CATIA V5R19 STEP'),'2;1');

FILE_NAME ('D1457581_0_1856780000_1856780000.stp','2015-03-02T09:46:10+00:00',('none'),('Weidmueller'),'CATIA Version 5 Release 20 SP 5 (IN-10)','CATIA V5 STEP AP214','none');

FILE_SCHEMA(('AUTOMOTIVE_DESIGN { 1 0 10303 214 1 1 1 1 }'));

ENDSEC;
/* file written by CATIA V5R20 */
DATA;
#5=PRODUCT('MFF 10/6','','',(#2)) ;
#2=PRODUCT_CONTEXT(' ',#1,'mechanical') ;
#1=APPLICATION_CONTEXT('automotive design') ;
#10=PRODUCT_DEFINITION('',' ',#6,#3) ;
#3=PRODUCT_DEFINITION_CONTEXT('part definition',#1,' ') ;
#11=PRODUCT_DEFINITION_SHAPE(' ',' ',#10) ;
#452=MECHANICAL_DESIGN_GEOMETRIC_PRESENTATION_REPRESENTATION(' ',(#30),#17) ;
#20=SHAPE_REPRESENTATION(' ',(#19),#17) ;
#19=AXIS2_PLACEMENT_3D(' ',#18,$,$) ;
#36=AXIS2_PLACEMENT_3D('Plane Axis2P3D',#33,#34,#35) ;
#76=AXIS2_PLACEMENT_3D('Plane Axis2P3D',#73,#74,#75) ;
#107=AXIS2_PLACEMENT_3D('Plane Axis2P3D',#104,#105,#106) ;
#131=AXIS2_PLACEMENT_3D('Plane Axis2P3D',#128,#129,#130) ;
#155=AXIS2_PLACEMENT_3D('Plane Axis2P3D',#152,#153,#154) ;
#172=AXIS2_PLACEMENT_3D('Plane Axis2P3D',#169,#170,#171) ;
#276=AXIS2_PLACEMENT_3D('Plane Axis2P3D',#273,#274,#275) ;
#293=AXIS2_PLACEMENT_3D('Plane Axis2P3D',#290,#291,#292) ;
#345=AXIS2_PLACEMENT_3D('Plane Axis2P3D',#342,#343,#344) ;
#376=AXIS2_PLACEMENT_3D('Plane Axis2P3D',#373,#374,#375) ;
#407=AXIS2_PLACEMENT_3D('Plane Axis2P3D',#404,#405,#406) ;
#424=AXIS2_PLACEMENT_3D('Plane Axis2P3D',#421,#422,#423) ;
#441=AXIS2_PLACEMENT_3D('Plane Axis2P3D',#438,#439,#440) ;
#18=CARTESIAN_POINT(' ',(0.,0.,0.)) ;
#33=CARTESIAN_POINT('Axis2P3D Location',(2.925,3.5,2.8)) ;
#38=CARTESIAN_POINT('Line Origine',(4.825,3.1248711306,1.4)) ;
#42=CARTESIAN_POINT('Vertex',(4.825,3.5,2.8)) ;
#44=CARTESIAN_POINT('Vertex',(4.825,2.74974226119,-1.33226762955E-015)) ;
#47=CARTESIAN_POINT('Line Origine',(2.925,2.74974226119,-1.33226762955E-015)) ;
#51=CARTESIAN_POINT('Vertex',(1.025,2.74974226119,-1.33226762955E-015)) ;
#54=CARTESIAN_POINT('Line Origine',(1.025,3.1248711306,1.4)) ;
#58=CARTESIAN_POINT('Vertex',(1.025,3.5,2.8)) ;
#61=CARTESIAN_POINT('Line Origine',(2.925,3.5,2.8)) ;
#73=CARTESIAN_POINT('Axis2P3D Location',(1.025,-0.3,3.6)) ;
#78=CARTESIAN_POINT('Line Origine',(1.025,2.4498711306,-4.4408920985E-016)) ;
#82=CARTESIAN_POINT('Vertex',(1.025,2.15,-4.4408920985E-016)) ;
#85=CARTESIAN_POINT('Line Origine',(1.025,2.15,1.4)) ;
#89=CARTESIAN_POINT('Vertex',(1.025,2.15,2.8)) ;
#92=CARTESIAN_POINT('Line Origine',(1.025,2.825,2.8)) ;
#104=CARTESIAN_POINT('Axis2P3D Location',(2.925,2.15,-4.4408920985E-016)) ;
#109=CARTESIAN_POINT('Line Origine',(4.825,2.4498711306,-4.4408920985E-016)) ;
#113=CARTESIAN_POINT('Vertex',(4.825,2.15,-4.4408920985E-016)) ;
#116=CARTESIAN_POINT('Line Origine',(2.925,2.15,-4.4408920985E-016)) ;
#128=CARTESIAN_POINT('Axis2P3D Location',(4.825,-0.3,3.6)) ;
#133=CARTESIAN_POINT('Line Origine',(4.825,2.825,2.8)) ;
#137=CARTESIAN_POINT('Vertex',(4.825,2.15,2.8)) ;
#140=CARTESIAN_POINT('Line Origine',(4.825,2.15,1.4)) ;
#152=CARTESIAN_POINT('Axis2P3D Location',(2.925,2.15,2.8)) ;
#157=CARTESIAN_POINT('Line Origine',(2.925,2.15,2.8)) ;
#169=CARTESIAN_POINT('Axis2P3D Location',(2.925,7.65,2.8)) ;
#174=CARTESIAN_POINT('Line Origine',(2.925,7.65,-1.7763568394E-015)) ;
#178=CARTESIAN_POINT('Vertex',(1.025,7.65,-1.33226762955E-015)) ;
#180=CARTESIAN_POINT('Vertex',(4.825,7.65,-1.33226762955E-015)) ;
#183=CARTESIAN_POINT('Line Origine',(1.025,7.65,1.4)) ;
#187=CARTESIAN_POINT('Vertex',(1.025,7.65,2.8)) ;
#190=CARTESIAN_POINT('Line Origine',(2.925,7.65,2.8)) ;
#194=CARTESIAN_POINT('Vertex',(4.825,7.65,2.8)) ;
#197=CARTESIAN_POINT('Line Origine',(4.825,7.65,1.4)) ;
#209=CARTESIAN_POINT('Line Origine',(4.825,6.975,2.8)) ;
#213=CARTESIAN_POINT('Vertex',(4.825,6.3,2.8)) ;
#216=CARTESIAN_POINT('Line Origine',(4.825,6.6751288694,1.4)) ;
#220=CARTESIAN_POINT('Vertex',(4.825,7.05025773881,-1.33226762955E-015)) ;
#223=CARTESIAN_POINT('Line Origine',(4.825,7.3501288694,-1.33226762955E-015)) ;
#235=CARTESIAN_POINT('Line Origine',(1.025,7.3501288694,-1.33226762955E-015)) ;
#239=CARTESIAN_POINT('Vertex',(1.025,7.05025773881,-1.33226762955E-015)) ;
#242=CARTESIAN_POINT('Line Origine',(1.025,6.6751288694,1.4)) ;
#246=CARTESIAN_POINT('Vertex',(1.025,6.3,2.8)) ;
#249=CARTESIAN_POINT('Line Origine',(1.025,6.975,2.8)) ;
#261=CARTESIAN_POINT('Line Origine',(2.925,7.05025773881,-4.4408920985E-016)) ;
#273=CARTESIAN_POINT('Axis2P3D Location',(2.925,6.3,2.8)) ;
#278=CARTESIAN_POINT('Line Origine',(2.925,6.3,2.8)) ;
#290=CARTESIAN_POINT('Axis2P3D Location',(2.925,9.8,2.8)) ;
#295=CARTESIAN_POINT('Line Origine',(0.,4.9,2.8)) ;
#299=CARTESIAN_POINT('Vertex',(0.,-1.05471187339E-015,2.8)) ;
#301=CARTESIAN_POINT('Vertex',(0.,9.8,2.8)) ;
#304=CARTESIAN_POINT('Line Origine',(2.925,9.8,2.8)) ;
#308=CARTESIAN_POINT('Vertex',(5.85,9.8,2.8)) ;
#311=CARTESIAN_POINT('Line Origine',(5.85,4.9,2.8)) ;
#315=CARTESIAN_POINT('Vertex',(5.85,-1.05471187339E-015,2.8)) ;
#318=CARTESIAN_POINT('Line Origine',(2.925,-1.7763568394E-015,2.8)) ;
#342=CARTESIAN_POINT('Axis2P3D Location',(0.,-0.3,3.6)) ;
#347=CARTESIAN_POINT('Line Origine',(0.,-8.881784197E-016,3.2)) ;
#351=CARTESIAN_POINT('Vertex',(0.,-8.881784197E-016,3.6)) ;
#354=CARTESIAN_POINT('Line Origine',(0.,4.9,3.6)) ;
#358=CARTESIAN_POINT('Vertex',(0.,9.8,3.6)) ;
#361=CARTESIAN_POINT('Line Origine',(0.,9.8,3.2)) ;
#373=CARTESIAN_POINT('Axis2P3D Location',(5.85,-0.3,3.6)) ;
#378=CARTESIAN_POINT('Line Origine',(5.85,9.8,3.2)) ;
#382=CARTESIAN_POINT('Vertex',(5.85,9.8,3.6)) ;
#385=CARTESIAN_POINT('Line Origine',(5.85,4.9,3.6)) ;
#389=CARTESIAN_POINT('Vertex',(5.85,-8.881784197E-016,3.6)) ;
#392=CARTESIAN_POINT('Line Origine',(5.85,-8.881784197E-016,3.2)) ;
#404=CARTESIAN_POINT('Axis2P3D Location',(2.925,-8.881784197E-016,2.8)) ;
#409=CARTESIAN_POINT('Line Origine',(2.925,-8.881784197E-016,3.6)) ;
#421=CARTESIAN_POINT('Axis2P3D Location',(2.925,-8.881784197E-016,3.6)) ;
#426=CARTESIAN_POINT('Line Origine',(2.925,9.8,3.6)) ;
#438=CARTESIAN_POINT('Axis2P3D Location',(2.925,9.8,3.6)) ;
#34=DIRECTION('Axis2P3D Direction',(-1.77437695707E-016,-0.965925826289,0.258819045103)) ;
#35=DIRECTION('Axis2P3D XDirection',(-4.75442872715E-017,-0.258819045103,-0.965925826289)) ;
#39=DIRECTION('Vector Direction',(0.,-0.258819045103,-0.965925826289)) ;
#48=DIRECTION('Vector Direction',(1.,-2.33731163079E-016,0.)) ;
#55=DIRECTION('Vector Direction',(0.,-0.258819045103,-0.965925826289)) ;
#62=DIRECTION('Vector Direction',(1.,-2.33731163079E-016,0.)) ;
#74=DIRECTION('Axis2P3D Direction',(-1.,1.83697019872E-016,2.58195522249E-032)) ;
#75=DIRECTION('Axis2P3D XDirection',(-2.58195522249E-032,4.74297479815E-048,-1.)) ;
#79=DIRECTION('Vector Direction',(3.70233380725E-016,1.,0.)) ;
#86=DIRECTION('Vector Direction',(0.,0.,-1.)) ;
#93=DIRECTION('Vector Direction',(1.6447748513E-016,1.,0.)) ;
#105=DIRECTION('Axis2P3D Direction',(0.,-0.,-1.)) ;
#106=DIRECTION('Axis2P3D XDirection',(1.83697019872E-016,1.,-0.)) ;
#110=DIRECTION('Vector Direction',(0.,1.,0.)) ;
#117=DIRECTION('Vector Direction',(1.,-2.33731163079E-016,0.)) ;
#129=DIRECTION('Axis2P3D Direction',(-1.,1.83697019872E-016,2.58195522249E-032)) ;
#130=DIRECTION('Axis2P3D XDirection',(-2.58195522249E-032,4.74297479815E-048,-1.)) ;
#134=DIRECTION('Vector Direction',(0.,1.,0.)) ;
#141=DIRECTION('Vector Direction',(0.,0.,-1.)) ;
#153=DIRECTION('Axis2P3D Direction',(-1.83697019872E-016,-1.,-2.43086534291E-063)) ;
#154=DIRECTION('Axis2P3D XDirection',(-2.58195522249E-032,4.74297479815E-048,-1.)) ;
#158=DIRECTION('Vector Direction',(1.,-2.33731163079E-016,0.)) ;
#170=DIRECTION('Axis2P3D Direction',(-1.83697019872E-016,-1.,-2.43086534291E-063)) ;
#171=DIRECTION('Axis2P3D XDirection',(-2.58195522249E-032,4.74297479815E-048,-1.)) ;
#175=DIRECTION('Vector Direction',(1.,0.,0.)) ;
#184=DIRECTION('Vector Direction',(0.,0.,-1.)) ;
#191=DIRECTION('Vector Direction',(1.,0.,0.)) ;
#198=DIRECTION('Vector Direction',(0.,0.,-1.)) ;
#210=DIRECTION('Vector Direction',(-6.57909940519E-016,-1.,0.)) ;
#217=DIRECTION('Vector Direction',(3.06398026407E-016,0.258819045103,-0.965925826289)) ;
#224=DIRECTION('Vector Direction',(0.,-1.,0.)) ;
#236=DIRECTION('Vector Direction',(-3.70233380725E-016,-1.,0.)) ;
#243=DIRECTION('Vector Direction',(7.65995066019E-017,0.258819045103,-0.965925826289)) ;
#250=DIRECTION('Vector Direction',(-3.28954970259E-016,-1.,0.)) ;
#262=DIRECTION('Vector Direction',(1.,0.,0.)) ;
#274=DIRECTION('Axis2P3D Direction',(-1.77437695707E-016,-0.965925826289,-0.258819045103)) ;
#275=DIRECTION('Axis2P3D XDirection',(4.75442872715E-017,0.258819045103,-0.965925826289)) ;
#279=DIRECTION('Vector Direction',(1.,0.,0.)) ;
#291=DIRECTION('Axis2P3D Direction',(-0.,-0.,-1.)) ;
#292=DIRECTION('Axis2P3D XDirection',(0.,-1.,0.)) ;
#296=DIRECTION('Vector Direction',(0.,-1.,0.)) ;
#305=DIRECTION('Vector Direction',(-1.,0.,0.)) ;
#312=DIRECTION('Vector Direction',(0.,-1.,0.)) ;
#319=DIRECTION('Vector Direction',(-1.,0.,0.)) ;
#343=DIRECTION('Axis2P3D Direction',(1.,0.,0.)) ;
#344=DIRECTION('Axis2P3D XDirection',(0.,1.,0.)) ;
#348=DIRECTION('Vector Direction',(0.,0.,1.)) ;
#355=DIRECTION('Vector Direction',(0.,1.,0.)) ;
#362=DIRECTION('Vector Direction',(0.,0.,-1.)) ;
#374=DIRECTION('Axis2P3D Direction',(1.,0.,0.)) ;
#375=DIRECTION('Axis2P3D XDirection',(0.,1.,0.)) ;
#379=DIRECTION('Vector Direction',(0.,0.,-1.)) ;
#386=DIRECTION('Vector Direction',(0.,1.,0.)) ;
#393=DIRECTION('Vector Direction',(0.,0.,1.)) ;
#405=DIRECTION('Axis2P3D Direction',(0.,-1.,0.)) ;
#406=DIRECTION('Axis2P3D XDirection',(0.,0.,1.)) ;
#410=DIRECTION('Vector Direction',(-1.,0.,0.)) ;
#422=DIRECTION('Axis2P3D Direction',(0.,-0.,1.)) ;
#423=DIRECTION('Axis2P3D XDirection',(0.,1.,0.)) ;
#427=DIRECTION('Vector Direction',(-1.,0.,0.)) ;
#439=DIRECTION('Axis2P3D Direction',(0.,1.,0.)) ;
#440=DIRECTION('Axis2P3D XDirection',(0.,0.,-1.)) ;
#31=PRESENTATION_LAYER_ASSIGNMENT('1',' ',(#22)) ;
#8=PRODUCT_RELATED_PRODUCT_CATEGORY('part',$,(#5)) ;
#7=PRODUCT_CATEGORY('part','specification') ;
#30=STYLED_ITEM(' ',(#29),#22) ;
#29=PRESENTATION_STYLE_ASSIGNMENT((#28)) ;
#28=SURFACE_STYLE_USAGE(.BOTH.,#27) ;
#27=SURFACE_SIDE_STYLE(' ',(#26)) ;
#26=SURFACE_STYLE_FILL_AREA(#25) ;
#25=FILL_AREA_STYLE(' ',(#24)) ;
#24=FILL_AREA_STYLE_COLOUR(' ',#23) ;
#40=VECTOR('Line Direction',#39,1.) ;
#49=VECTOR('Line Direction',#48,1.) ;
#56=VECTOR('Line Direction',#55,1.) ;
#63=VECTOR('Line Direction',#62,1.) ;
#80=VECTOR('Line Direction',#79,1.) ;
#87=VECTOR('Line Direction',#86,1.) ;
#94=VECTOR('Line Direction',#93,1.) ;
#111=VECTOR('Line Direction',#110,1.) ;
#118=VECTOR('Line Direction',#117,1.) ;
#135=VECTOR('Line Direction',#134,1.) ;
#142=VECTOR('Line Direction',#141,1.) ;
#159=VECTOR('Line Direction',#158,1.) ;
#176=VECTOR('Line Direction',#175,1.) ;
#185=VECTOR('Line Direction',#184,1.) ;
#192=VECTOR('Line Direction',#191,1.) ;
#199=VECTOR('Line Direction',#198,1.) ;
#211=VECTOR('Line Direction',#210,1.) ;
#218=VECTOR('Line Direction',#217,1.) ;
#225=VECTOR('Line Direction',#224,1.) ;
#237=VECTOR('Line Direction',#236,1.) ;
#244=VECTOR('Line Direction',#243,1.) ;
#251=VECTOR('Line Direction',#250,1.) ;
#263=VECTOR('Line Direction',#262,1.) ;
#280=VECTOR('Line Direction',#279,1.) ;
#297=VECTOR('Line Direction',#296,1.) ;
#306=VECTOR('Line Direction',#305,1.) ;
#313=VECTOR('Line Direction',#312,1.) ;
#320=VECTOR('Line Direction',#319,1.) ;
#349=VECTOR('Line Direction',#348,1.) ;
#356=VECTOR('Line Direction',#355,1.) ;
#363=VECTOR('Line Direction',#362,1.) ;
#380=VECTOR('Line Direction',#379,1.) ;
#387=VECTOR('Line Direction',#386,1.) ;
#394=VECTOR('Line Direction',#393,1.) ;
#411=VECTOR('Line Direction',#410,1.) ;
#428=VECTOR('Line Direction',#427,1.) ;
#16=UNCERTAINTY_MEASURE_WITH_UNIT(LENGTH_MEASURE(0.005),#12,'distance_accuracy_value','CONFUSED CURVE UNCERTAINTY') ;
#451=SHAPE_REPRESENTATION_RELATIONSHIP(' ',' ',#20,#450) ;
#67=ORIENTED_EDGE('',*,*,#46,.T.) ;
#68=ORIENTED_EDGE('',*,*,#53,.F.) ;
#69=ORIENTED_EDGE('',*,*,#60,.F.) ;
#70=ORIENTED_EDGE('',*,*,#65,.T.) ;
#98=ORIENTED_EDGE('',*,*,#60,.T.) ;
#99=ORIENTED_EDGE('',*,*,#84,.T.) ;
#100=ORIENTED_EDGE('',*,*,#91,.T.) ;
#101=ORIENTED_EDGE('',*,*,#96,.T.) ;
#122=ORIENTED_EDGE('',*,*,#115,.T.) ;
#123=ORIENTED_EDGE('',*,*,#120,.F.) ;
#124=ORIENTED_EDGE('',*,*,#84,.F.) ;
#125=ORIENTED_EDGE('',*,*,#53,.T.) ;
#146=ORIENTED_EDGE('',*,*,#139,.F.) ;
#147=ORIENTED_EDGE('',*,*,#144,.F.) ;
#148=ORIENTED_EDGE('',*,*,#115,.F.) ;
#149=ORIENTED_EDGE('',*,*,#46,.F.) ;
#163=ORIENTED_EDGE('',*,*,#144,.T.) ;
#164=ORIENTED_EDGE('',*,*,#161,.F.) ;
#165=ORIENTED_EDGE('',*,*,#91,.F.) ;
#166=ORIENTED_EDGE('',*,*,#120,.T.) ;
#203=ORIENTED_EDGE('',*,*,#182,.F.) ;
#204=ORIENTED_EDGE('',*,*,#189,.T.) ;
#205=ORIENTED_EDGE('',*,*,#196,.T.) ;
#206=ORIENTED_EDGE('',*,*,#201,.F.) ;
#229=ORIENTED_EDGE('',*,*,#215,.T.) ;
#230=ORIENTED_EDGE('',*,*,#222,.T.) ;
#231=ORIENTED_EDGE('',*,*,#227,.T.) ;
#232=ORIENTED_EDGE('',*,*,#201,.T.) ;
#255=ORIENTED_EDGE('',*,*,#189,.F.) ;
#256=ORIENTED_EDGE('',*,*,#241,.F.) ;
#257=ORIENTED_EDGE('',*,*,#248,.F.) ;
#258=ORIENTED_EDGE('',*,*,#253,.F.) ;
#267=ORIENTED_EDGE('',*,*,#265,.F.) ;
#268=ORIENTED_EDGE('',*,*,#241,.T.) ;
#269=ORIENTED_EDGE('',*,*,#182,.T.) ;
#270=ORIENTED_EDGE('',*,*,#227,.F.) ;
#284=ORIENTED_EDGE('',*,*,#282,.F.) ;
#285=ORIENTED_EDGE('',*,*,#248,.T.) ;
#286=ORIENTED_EDGE('',*,*,#265,.T.) ;
#287=ORIENTED_EDGE('',*,*,#222,.F.) ;
#324=ORIENTED_EDGE('',*,*,#303,.T.) ;
#325=ORIENTED_EDGE('',*,*,#310,.F.) ;
#326=ORIENTED_EDGE('',*,*,#317,.F.) ;
#327=ORIENTED_EDGE('',*,*,#322,.T.) ;
#330=ORIENTED_EDGE('',*,*,#65,.F.) ;
#331=ORIENTED_EDGE('',*,*,#96,.F.) ;
#332=ORIENTED_EDGE('',*,*,#161,.T.) ;
#333=ORIENTED_EDGE('',*,*,#139,.T.) ;
#336=ORIENTED_EDGE('',*,*,#215,.F.) ;
#337=ORIENTED_EDGE('',*,*,#196,.F.) ;
#338=ORIENTED_EDGE('',*,*,#253,.T.) ;
#339=ORIENTED_EDGE('',*,*,#282,.T.) ;
#367=ORIENTED_EDGE('',*,*,#353,.F.) ;
#368=ORIENTED_EDGE('',*,*,#360,.F.) ;
#369=ORIENTED_EDGE('',*,*,#365,.F.) ;
#370=ORIENTED_EDGE('',*,*,#303,.F.) ;
#398=ORIENTED_EDGE('',*,*,#317,.T.) ;
#399=ORIENTED_EDGE('',*,*,#384,.T.) ;
#400=ORIENTED_EDGE('',*,*,#391,.T.) ;
#401=ORIENTED_EDGE('',*,*,#396,.T.) ;
#415=ORIENTED_EDGE('',*,*,#353,.T.) ;
#416=ORIENTED_EDGE('',*,*,#322,.F.) ;
#417=ORIENTED_EDGE('',*,*,#396,.F.) ;
#418=ORIENTED_EDGE('',*,*,#413,.T.) ;
#432=ORIENTED_EDGE('',*,*,#360,.T.) ;
#433=ORIENTED_EDGE('',*,*,#413,.F.) ;
#434=ORIENTED_EDGE('',*,*,#391,.F.) ;
#435=ORIENTED_EDGE('',*,*,#430,.T.) ;
#444=ORIENTED_EDGE('',*,*,#365,.T.) ;
#445=ORIENTED_EDGE('',*,*,#430,.F.) ;
#446=ORIENTED_EDGE('',*,*,#384,.F.) ;
#447=ORIENTED_EDGE('',*,*,#310,.T.) ;
#334=FACE_BOUND('',#329,.T.) ;
#340=FACE_BOUND('',#335,.T.) ;
#32=CLOSED_SHELL('Closed Shell',(#72,#103,#127,#151,#168,#208,#234,#260,#272,#289,#341,#372,#403,#420,#437,#449)) ;
#450=ADVANCED_BREP_SHAPE_REPRESENTATION('NONE',(#22),#17) ;
#72=ADVANCED_FACE('S3D gedreht',(#71),#37,.F.) ;
#103=ADVANCED_FACE('S3D gedreht',(#102),#77,.T.) ;
#127=ADVANCED_FACE('S3D gedreht',(#126),#108,.T.) ;
#151=ADVANCED_FACE('S3D gedreht',(#150),#132,.F.) ;
#168=ADVANCED_FACE('S3D gedreht',(#167),#156,.T.) ;
#208=ADVANCED_FACE('S3D gedreht',(#207),#173,.F.) ;
#234=ADVANCED_FACE('S3D gedreht',(#233),#132,.F.) ;
#260=ADVANCED_FACE('S3D gedreht',(#259),#77,.T.) ;
#272=ADVANCED_FACE('S3D gedreht',(#271),#108,.T.) ;
#289=ADVANCED_FACE('S3D gedreht',(#288),#277,.T.) ;
#341=ADVANCED_FACE('S3D gedreht',(#328,#334,#340),#294,.T.) ;
#372=ADVANCED_FACE('S3D gedreht',(#371),#346,.F.) ;
#403=ADVANCED_FACE('S3D gedreht',(#402),#377,.T.) ;
#420=ADVANCED_FACE('S3D gedreht',(#419),#408,.T.) ;
#437=ADVANCED_FACE('S3D gedreht',(#436),#425,.T.) ;
#449=ADVANCED_FACE('S3D gedreht',(#448),#442,.T.) ;
#4=APPLICATION_PROTOCOL_DEFINITION('international standard','automotive_design',2001,#1) ;
#22=MANIFOLD_SOLID_BREP('S3D gedreht',#32) ;
#23=DRAUGHTING_PRE_DEFINED_COLOUR('white') ;
#46=EDGE_CURVE('',#43,#45,#41,.T.) ;
#53=EDGE_CURVE('',#52,#45,#50,.T.) ;
#60=EDGE_CURVE('',#59,#52,#57,.T.) ;
#65=EDGE_CURVE('',#59,#43,#64,.T.) ;
#84=EDGE_CURVE('',#52,#83,#81,.F.) ;
#91=EDGE_CURVE('',#83,#90,#88,.F.) ;
#96=EDGE_CURVE('',#90,#59,#95,.T.) ;
#115=EDGE_CURVE('',#45,#114,#112,.F.) ;
#120=EDGE_CURVE('',#83,#114,#119,.T.) ;
#139=EDGE_CURVE('',#138,#43,#136,.T.) ;
#144=EDGE_CURVE('',#114,#138,#143,.F.) ;
#161=EDGE_CURVE('',#90,#138,#160,.T.) ;
#182=EDGE_CURVE('',#179,#181,#177,.T.) ;
#189=EDGE_CURVE('',#179,#188,#186,.F.) ;
#196=EDGE_CURVE('',#188,#195,#193,.T.) ;
#201=EDGE_CURVE('',#181,#195,#200,.F.) ;
#215=EDGE_CURVE('',#195,#214,#212,.T.) ;
#222=EDGE_CURVE('',#214,#221,#219,.T.) ;
#227=EDGE_CURVE('',#221,#181,#226,.F.) ;
#241=EDGE_CURVE('',#240,#179,#238,.F.) ;
#248=EDGE_CURVE('',#247,#240,#245,.T.) ;
#253=EDGE_CURVE('',#188,#247,#252,.T.) ;
#265=EDGE_CURVE('',#240,#221,#264,.T.) ;
#282=EDGE_CURVE('',#247,#214,#281,.T.) ;
#303=EDGE_CURVE('',#300,#302,#298,.F.) ;
#310=EDGE_CURVE('',#309,#302,#307,.T.) ;
#317=EDGE_CURVE('',#316,#309,#314,.F.) ;
#322=EDGE_CURVE('',#316,#300,#321,.T.) ;
#353=EDGE_CURVE('',#352,#300,#350,.F.) ;
#360=EDGE_CURVE('',#359,#352,#357,.F.) ;
#365=EDGE_CURVE('',#302,#359,#364,.F.) ;
#384=EDGE_CURVE('',#309,#383,#381,.F.) ;
#391=EDGE_CURVE('',#383,#390,#388,.F.) ;
#396=EDGE_CURVE('',#390,#316,#395,.F.) ;
#413=EDGE_CURVE('',#390,#352,#412,.T.) ;
#430=EDGE_CURVE('',#383,#359,#429,.T.) ;
#66=EDGE_LOOP('',(#67,#68,#69,#70)) ;
#97=EDGE_LOOP('',(#98,#99,#100,#101)) ;
#121=EDGE_LOOP('',(#122,#123,#124,#125)) ;
#145=EDGE_LOOP('',(#146,#147,#148,#149)) ;
#162=EDGE_LOOP('',(#163,#164,#165,#166)) ;
#202=EDGE_LOOP('',(#203,#204,#205,#206)) ;
#228=EDGE_LOOP('',(#229,#230,#231,#232)) ;
#254=EDGE_LOOP('',(#255,#256,#257,#258)) ;
#266=EDGE_LOOP('',(#267,#268,#269,#270)) ;
#283=EDGE_LOOP('',(#284,#285,#286,#287)) ;
#323=EDGE_LOOP('',(#324,#325,#326,#327)) ;
#329=EDGE_LOOP('',(#330,#331,#332,#333)) ;
#335=EDGE_LOOP('',(#336,#337,#338,#339)) ;
#366=EDGE_LOOP('',(#367,#368,#369,#370)) ;
#397=EDGE_LOOP('',(#398,#399,#400,#401)) ;
#414=EDGE_LOOP('',(#415,#416,#417,#418)) ;
#431=EDGE_LOOP('',(#432,#433,#434,#435)) ;
#443=EDGE_LOOP('',(#444,#445,#446,#447)) ;
#71=FACE_OUTER_BOUND('',#66,.T.) ;
#102=FACE_OUTER_BOUND('',#97,.T.) ;
#126=FACE_OUTER_BOUND('',#121,.T.) ;
#150=FACE_OUTER_BOUND('',#145,.T.) ;
#167=FACE_OUTER_BOUND('',#162,.T.) ;
#207=FACE_OUTER_BOUND('',#202,.T.) ;
#233=FACE_OUTER_BOUND('',#228,.T.) ;
#259=FACE_OUTER_BOUND('',#254,.T.) ;
#271=FACE_OUTER_BOUND('',#266,.T.) ;
#288=FACE_OUTER_BOUND('',#283,.T.) ;
#328=FACE_OUTER_BOUND('',#323,.T.) ;
#371=FACE_OUTER_BOUND('',#366,.T.) ;
#402=FACE_OUTER_BOUND('',#397,.T.) ;
#419=FACE_OUTER_BOUND('',#414,.T.) ;
#436=FACE_OUTER_BOUND('',#431,.T.) ;
#448=FACE_OUTER_BOUND('',#443,.T.) ;
#41=LINE('Line',#38,#40) ;
#50=LINE('Line',#47,#49) ;
#57=LINE('Line',#54,#56) ;
#64=LINE('Line',#61,#63) ;
#81=LINE('Line',#78,#80) ;
#88=LINE('Line',#85,#87) ;
#95=LINE('Line',#92,#94) ;
#112=LINE('Line',#109,#111) ;
#119=LINE('Line',#116,#118) ;
#136=LINE('Line',#133,#135) ;
#143=LINE('Line',#140,#142) ;
#160=LINE('Line',#157,#159) ;
#177=LINE('Line',#174,#176) ;
#186=LINE('Line',#183,#185) ;
#193=LINE('Line',#190,#192) ;
#200=LINE('Line',#197,#199) ;
#212=LINE('Line',#209,#211) ;
#219=LINE('Line',#216,#218) ;
#226=LINE('Line',#223,#225) ;
#238=LINE('Line',#235,#237) ;
#245=LINE('Line',#242,#244) ;
#252=LINE('Line',#249,#251) ;
#264=LINE('Line',#261,#263) ;
#281=LINE('Line',#278,#280) ;
#298=LINE('Line',#295,#297) ;
#307=LINE('Line',#304,#306) ;
#314=LINE('Line',#311,#313) ;
#321=LINE('Line',#318,#320) ;
#350=LINE('Line',#347,#349) ;
#357=LINE('Line',#354,#356) ;
#364=LINE('Line',#361,#363) ;
#381=LINE('Line',#378,#380) ;
#388=LINE('Line',#385,#387) ;
#395=LINE('Line',#392,#394) ;
#412=LINE('Line',#409,#411) ;
#429=LINE('Line',#426,#428) ;
#37=PLANE('',#36) ;
#77=PLANE('',#76) ;
#108=PLANE('',#107) ;
#132=PLANE('',#131) ;
#156=PLANE('',#155) ;
#173=PLANE('',#172) ;
#277=PLANE('',#276) ;
#294=PLANE('',#293) ;
#346=PLANE('',#345) ;
#377=PLANE('',#376) ;
#408=PLANE('',#407) ;
#425=PLANE('',#424) ;
#442=PLANE('',#441) ;
#14=PLANE_ANGLE_MEASURE_WITH_UNIT(PLANE_ANGLE_MEASURE(0.0174532925199),#13) ;
#9=PRODUCT_CATEGORY_RELATIONSHIP(' ',' ',#7,#8) ;
#6=PRODUCT_DEFINITION_FORMATION_WITH_SPECIFIED_SOURCE('',' ',#5,.NOT_KNOWN.) ;
#21=SHAPE_DEFINITION_REPRESENTATION(#11,#20) ;
#43=VERTEX_POINT('',#42) ;
#45=VERTEX_POINT('',#44) ;
#52=VERTEX_POINT('',#51) ;
#59=VERTEX_POINT('',#58) ;
#83=VERTEX_POINT('',#82) ;
#90=VERTEX_POINT('',#89) ;
#114=VERTEX_POINT('',#113) ;
#138=VERTEX_POINT('',#137) ;
#179=VERTEX_POINT('',#178) ;
#181=VERTEX_POINT('',#180) ;
#188=VERTEX_POINT('',#187) ;
#195=VERTEX_POINT('',#194) ;
#214=VERTEX_POINT('',#213) ;
#221=VERTEX_POINT('',#220) ;
#240=VERTEX_POINT('',#239) ;
#247=VERTEX_POINT('',#246) ;
#300=VERTEX_POINT('',#299) ;
#302=VERTEX_POINT('',#301) ;
#309=VERTEX_POINT('',#308) ;
#316=VERTEX_POINT('',#315) ;
#352=VERTEX_POINT('',#351) ;
#359=VERTEX_POINT('',#358) ;
#383=VERTEX_POINT('',#382) ;
#390=VERTEX_POINT('',#389) ;
#12=(LENGTH_UNIT()NAMED_UNIT(*)SI_UNIT(.MILLI.,.METRE.)) ;
#13=(NAMED_UNIT(*)PLANE_ANGLE_UNIT()SI_UNIT($,.RADIAN.)) ;
#15=(NAMED_UNIT(*)SI_UNIT($,.STERADIAN.)SOLID_ANGLE_UNIT()) ;
#17=(GEOMETRIC_REPRESENTATION_CONTEXT(3)GLOBAL_UNCERTAINTY_ASSIGNED_CONTEXT((#16))GLOBAL_UNIT_ASSIGNED_CONTEXT((#12,#13,#15))REPRESENTATION_CONTEXT(' ',' ')) ;
ENDSEC;
END-ISO-10303-21;
