ISO-10303-21;
HEADER;
FILE_DESCRIPTION(('CATIA V5R19 STEP'),'2;1');

FILE_NAME ('6746158_4', '2015-01-15T11:25:31+00:00', ('Weidmueller Interface'), ('Weidmueller'), 'CATIA Version 5 Release 20 SP 5 (IN-10)', 'CATIA V5 STEP AP214', 'none');

FILE_SCHEMA(('AUTOMOTIVE_DESIGN { 1 0 10303 214 1 1 1 1 }'));

ENDSEC;
/* file written by CATIA V5R20 */
DATA;
#5=PRODUCT('7760056014','','',(#2)) ;
#2=PRODUCT_CONTEXT(' ',#1,'mechanical') ;
#1=APPLICATION_CONTEXT('automotive design') ;
#10=PRODUCT_DEFINITION('',' ',#6,#3) ;
#3=PRODUCT_DEFINITION_CONTEXT('part definition',#1,' ') ;
#11=PRODUCT_DEFINITION_SHAPE(' ',' ',#10) ;
#622=MECHANICAL_DESIGN_GEOMETRIC_PRESENTATION_REPRESENTATION(' ',(#88,#126,#164,#195,#219,#244,#291,#329,#360,#398,#422,#476,#514,#533,#571,#590,#607,#619,#30),#17) ;
#20=SHAPE_REPRESENTATION(' ',(#19),#17) ;
#19=AXIS2_PLACEMENT_3D(' ',#18,$,$) ;
#36=AXIS2_PLACEMENT_3D('Plane Axis2P3D',#33,#34,#35) ;
#92=AXIS2_PLACEMENT_3D('Plane Axis2P3D',#89,#90,#91) ;
#130=AXIS2_PLACEMENT_3D('Plane Axis2P3D',#127,#128,#129) ;
#168=AXIS2_PLACEMENT_3D('Plane Axis2P3D',#165,#166,#167) ;
#199=AXIS2_PLACEMENT_3D('Plane Axis2P3D',#196,#197,#198) ;
#223=AXIS2_PLACEMENT_3D('Plane Axis2P3D',#220,#221,#222) ;
#248=AXIS2_PLACEMENT_3D('Plane Axis2P3D',#245,#246,#247) ;
#295=AXIS2_PLACEMENT_3D('Plane Axis2P3D',#292,#293,#294) ;
#333=AXIS2_PLACEMENT_3D('Plane Axis2P3D',#330,#331,#332) ;
#364=AXIS2_PLACEMENT_3D('Plane Axis2P3D',#361,#362,#363) ;
#402=AXIS2_PLACEMENT_3D('Plane Axis2P3D',#399,#400,#401) ;
#435=AXIS2_PLACEMENT_3D('Circle Axis2P3D',#433,#434,$) ;
#444=AXIS2_PLACEMENT_3D('Circle Axis2P3D',#442,#443,$) ;
#453=AXIS2_PLACEMENT_3D('Circle Axis2P3D',#451,#452,$) ;
#462=AXIS2_PLACEMENT_3D('Circle Axis2P3D',#460,#461,$) ;
#480=AXIS2_PLACEMENT_3D('Cylinder Axis2P3D',#477,#478,#479) ;
#491=AXIS2_PLACEMENT_3D('Circle Axis2P3D',#489,#490,$) ;
#517=AXIS2_PLACEMENT_3D('Circle Axis2P3D',#515,#516,$) ;
#537=AXIS2_PLACEMENT_3D('Cylinder Axis2P3D',#534,#535,#536) ;
#548=AXIS2_PLACEMENT_3D('Circle Axis2P3D',#546,#547,$) ;
#574=AXIS2_PLACEMENT_3D('Circle Axis2P3D',#572,#573,$) ;
#594=AXIS2_PLACEMENT_3D('Plane Axis2P3D',#591,#592,#593) ;
#18=CARTESIAN_POINT(' ',(0.,0.,0.)) ;
#33=CARTESIAN_POINT('Axis2P3D Location',(5.05,5.6,8.)) ;
#38=CARTESIAN_POINT('Line Origine',(5.05,5.6,7.25)) ;
#42=CARTESIAN_POINT('Vertex',(5.05,5.6,8.)) ;
#44=CARTESIAN_POINT('Vertex',(5.05,5.6,6.5)) ;
#47=CARTESIAN_POINT('Line Origine',(5.05,7.1,8.)) ;
#51=CARTESIAN_POINT('Vertex',(5.05,8.6,8.)) ;
#54=CARTESIAN_POINT('Line Origine',(5.05,10.1,8.)) ;
#58=CARTESIAN_POINT('Vertex',(5.05,11.6,8.)) ;
#61=CARTESIAN_POINT('Line Origine',(5.05,11.6,7.25)) ;
#65=CARTESIAN_POINT('Vertex',(5.05,11.6,6.5)) ;
#68=CARTESIAN_POINT('Line Origine',(5.05,8.6,6.5)) ;
#89=CARTESIAN_POINT('Axis2P3D Location',(5.05,5.6,8.)) ;
#94=CARTESIAN_POINT('Line Origine',(7.35,5.6,7.25)) ;
#98=CARTESIAN_POINT('Vertex',(7.35,5.6,8.)) ;
#100=CARTESIAN_POINT('Vertex',(7.35,5.6,6.5)) ;
#103=CARTESIAN_POINT('Line Origine',(6.2,5.6,8.)) ;
#108=CARTESIAN_POINT('Line Origine',(6.2,5.6,6.5)) ;
#127=CARTESIAN_POINT('Axis2P3D Location',(0.,0.,8.)) ;
#132=CARTESIAN_POINT('Line Origine',(7.35,10.1,8.)) ;
#136=CARTESIAN_POINT('Vertex',(7.35,11.6,8.)) ;
#138=CARTESIAN_POINT('Vertex',(7.35,8.6,8.)) ;
#141=CARTESIAN_POINT('Line Origine',(6.2,11.6,8.)) ;
#146=CARTESIAN_POINT('Line Origine',(6.2,8.6,8.)) ;
#165=CARTESIAN_POINT('Axis2P3D Location',(7.35,11.6,8.)) ;
#170=CARTESIAN_POINT('Line Origine',(7.35,11.6,7.25)) ;
#174=CARTESIAN_POINT('Vertex',(7.35,11.6,6.5)) ;
#177=CARTESIAN_POINT('Line Origine',(6.2,11.6,6.5)) ;
#196=CARTESIAN_POINT('Axis2P3D Location',(0.,0.,6.5)) ;
#201=CARTESIAN_POINT('Line Origine',(7.35,8.6,6.5)) ;
#220=CARTESIAN_POINT('Axis2P3D Location',(7.35,11.6,8.)) ;
#225=CARTESIAN_POINT('Line Origine',(7.35,7.1,8.)) ;
#245=CARTESIAN_POINT('Axis2P3D Location',(0.,0.,28.)) ;
#250=CARTESIAN_POINT('Line Origine',(6.2,0.,28.)) ;
#254=CARTESIAN_POINT('Vertex',(0.,0.,28.)) ;
#256=CARTESIAN_POINT('Vertex',(12.4,0.,28.)) ;
#259=CARTESIAN_POINT('Line Origine',(12.4,4.3,28.)) ;
#263=CARTESIAN_POINT('Vertex',(12.4,8.6,28.)) ;
#266=CARTESIAN_POINT('Line Origine',(6.2,8.6,28.)) ;
#270=CARTESIAN_POINT('Vertex',(3.5527136788E-015,8.6,28.)) ;
#273=CARTESIAN_POINT('Line Origine',(0.,4.3,28.)) ;
#292=CARTESIAN_POINT('Axis2P3D Location',(0.,0.,8.)) ;
#297=CARTESIAN_POINT('Line Origine',(0.,0.,18.)) ;
#301=CARTESIAN_POINT('Vertex',(0.,0.,8.)) ;
#304=CARTESIAN_POINT('Line Origine',(6.2,0.,8.)) ;
#308=CARTESIAN_POINT('Vertex',(12.4,0.,8.)) ;
#311=CARTESIAN_POINT('Line Origine',(12.4,0.,18.)) ;
#330=CARTESIAN_POINT('Axis2P3D Location',(12.4,0.,8.)) ;
#335=CARTESIAN_POINT('Line Origine',(12.4,4.3,8.)) ;
#339=CARTESIAN_POINT('Vertex',(12.4,8.6,8.)) ;
#342=CARTESIAN_POINT('Line Origine',(12.4,8.6,18.)) ;
#361=CARTESIAN_POINT('Axis2P3D Location',(12.4,8.6,8.)) ;
#366=CARTESIAN_POINT('Line Origine',(9.875,8.6,8.)) ;
#371=CARTESIAN_POINT('Line Origine',(2.525,8.6,8.)) ;
#375=CARTESIAN_POINT('Vertex',(3.5527136788E-015,8.6,8.)) ;
#378=CARTESIAN_POINT('Line Origine',(3.5527136788E-015,8.6,18.)) ;
#399=CARTESIAN_POINT('Axis2P3D Location',(0.,8.6,8.)) ;
#404=CARTESIAN_POINT('Line Origine',(0.,4.3,8.)) ;
#433=CARTESIAN_POINT('Axis2P3D Location',(2.35,5.4,8.)) ;
#437=CARTESIAN_POINT('Vertex',(0.45,5.4,8.)) ;
#439=CARTESIAN_POINT('Vertex',(4.25,5.4,8.)) ;
#442=CARTESIAN_POINT('Axis2P3D Location',(2.35,5.4,8.)) ;
#451=CARTESIAN_POINT('Axis2P3D Location',(10.05,5.4,8.)) ;
#455=CARTESIAN_POINT('Vertex',(8.15,5.4,8.)) ;
#457=CARTESIAN_POINT('Vertex',(11.95,5.4,8.)) ;
#460=CARTESIAN_POINT('Axis2P3D Location',(10.05,5.4,8.)) ;
#477=CARTESIAN_POINT('Axis2P3D Location',(2.35,5.4,4.)) ;
#482=CARTESIAN_POINT('Line Origine',(4.25,5.4,4.)) ;
#486=CARTESIAN_POINT('Vertex',(4.25,5.4,0.)) ;
#489=CARTESIAN_POINT('Axis2P3D Location',(2.35,5.4,0.)) ;
#493=CARTESIAN_POINT('Vertex',(0.45,5.4,0.)) ;
#496=CARTESIAN_POINT('Line Origine',(0.45,5.4,4.)) ;
#515=CARTESIAN_POINT('Axis2P3D Location',(2.35,5.4,0.)) ;
#534=CARTESIAN_POINT('Axis2P3D Location',(10.05,5.4,4.)) ;
#539=CARTESIAN_POINT('Line Origine',(11.95,5.4,4.)) ;
#543=CARTESIAN_POINT('Vertex',(11.95,5.4,0.)) ;
#546=CARTESIAN_POINT('Axis2P3D Location',(10.05,5.4,0.)) ;
#550=CARTESIAN_POINT('Vertex',(8.15,5.4,0.)) ;
#553=CARTESIAN_POINT('Line Origine',(8.15,5.4,4.)) ;
#572=CARTESIAN_POINT('Axis2P3D Location',(10.05,5.4,0.)) ;
#591=CARTESIAN_POINT('Axis2P3D Location',(0.,0.,0.)) ;
#34=DIRECTION('Axis2P3D Direction',(-1.,0.,0.)) ;
#35=DIRECTION('Axis2P3D XDirection',(0.,1.,0.)) ;
#39=DIRECTION('Vector Direction',(0.,0.,-1.)) ;
#48=DIRECTION('Vector Direction',(0.,1.,0.)) ;
#55=DIRECTION('Vector Direction',(0.,1.,0.)) ;
#62=DIRECTION('Vector Direction',(0.,0.,-1.)) ;
#69=DIRECTION('Vector Direction',(0.,1.,0.)) ;
#90=DIRECTION('Axis2P3D Direction',(-0.,1.,0.)) ;
#91=DIRECTION('Axis2P3D XDirection',(1.,0.,0.)) ;
#95=DIRECTION('Vector Direction',(0.,0.,-1.)) ;
#104=DIRECTION('Vector Direction',(1.,0.,0.)) ;
#109=DIRECTION('Vector Direction',(1.,0.,0.)) ;
#128=DIRECTION('Axis2P3D Direction',(0.,0.,1.)) ;
#129=DIRECTION('Axis2P3D XDirection',(1.,0.,0.)) ;
#133=DIRECTION('Vector Direction',(0.,-1.,0.)) ;
#142=DIRECTION('Vector Direction',(-1.,0.,0.)) ;
#147=DIRECTION('Vector Direction',(-1.,0.,0.)) ;
#166=DIRECTION('Axis2P3D Direction',(0.,-1.,0.)) ;
#167=DIRECTION('Axis2P3D XDirection',(-1.,-0.,0.)) ;
#171=DIRECTION('Vector Direction',(0.,0.,-1.)) ;
#178=DIRECTION('Vector Direction',(-1.,0.,0.)) ;
#197=DIRECTION('Axis2P3D Direction',(0.,0.,-1.)) ;
#198=DIRECTION('Axis2P3D XDirection',(1.,0.,0.)) ;
#202=DIRECTION('Vector Direction',(0.,-1.,0.)) ;
#221=DIRECTION('Axis2P3D Direction',(1.,0.,0.)) ;
#222=DIRECTION('Axis2P3D XDirection',(0.,-1.,0.)) ;
#226=DIRECTION('Vector Direction',(0.,-1.,0.)) ;
#246=DIRECTION('Axis2P3D Direction',(0.,0.,1.)) ;
#247=DIRECTION('Axis2P3D XDirection',(1.,0.,0.)) ;
#251=DIRECTION('Vector Direction',(1.,0.,0.)) ;
#260=DIRECTION('Vector Direction',(0.,1.,0.)) ;
#267=DIRECTION('Vector Direction',(-1.,0.,0.)) ;
#274=DIRECTION('Vector Direction',(0.,-1.,0.)) ;
#293=DIRECTION('Axis2P3D Direction',(0.,-1.,0.)) ;
#294=DIRECTION('Axis2P3D XDirection',(1.,0.,0.)) ;
#298=DIRECTION('Vector Direction',(0.,0.,1.)) ;
#305=DIRECTION('Vector Direction',(1.,0.,0.)) ;
#312=DIRECTION('Vector Direction',(0.,0.,1.)) ;
#331=DIRECTION('Axis2P3D Direction',(1.,0.,0.)) ;
#332=DIRECTION('Axis2P3D XDirection',(0.,1.,0.)) ;
#336=DIRECTION('Vector Direction',(0.,1.,0.)) ;
#343=DIRECTION('Vector Direction',(0.,0.,1.)) ;
#362=DIRECTION('Axis2P3D Direction',(0.,1.,-0.)) ;
#363=DIRECTION('Axis2P3D XDirection',(-1.,0.,0.)) ;
#367=DIRECTION('Vector Direction',(-1.,0.,0.)) ;
#372=DIRECTION('Vector Direction',(-1.,0.,0.)) ;
#379=DIRECTION('Vector Direction',(0.,0.,1.)) ;
#400=DIRECTION('Axis2P3D Direction',(-1.,0.,0.)) ;
#401=DIRECTION('Axis2P3D XDirection',(0.,-1.,0.)) ;
#405=DIRECTION('Vector Direction',(0.,-1.,0.)) ;
#434=DIRECTION('Axis2P3D Direction',(0.,0.,1.)) ;
#443=DIRECTION('Axis2P3D Direction',(0.,0.,1.)) ;
#452=DIRECTION('Axis2P3D Direction',(0.,0.,1.)) ;
#461=DIRECTION('Axis2P3D Direction',(0.,0.,1.)) ;
#478=DIRECTION('Axis2P3D Direction',(0.,0.,1.)) ;
#479=DIRECTION('Axis2P3D XDirection',(1.,0.,0.)) ;
#483=DIRECTION('Vector Direction',(0.,0.,1.)) ;
#490=DIRECTION('Axis2P3D Direction',(0.,0.,1.)) ;
#497=DIRECTION('Vector Direction',(0.,0.,1.)) ;
#516=DIRECTION('Axis2P3D Direction',(0.,0.,1.)) ;
#535=DIRECTION('Axis2P3D Direction',(0.,0.,1.)) ;
#536=DIRECTION('Axis2P3D XDirection',(1.,0.,0.)) ;
#540=DIRECTION('Vector Direction',(0.,0.,1.)) ;
#547=DIRECTION('Axis2P3D Direction',(0.,0.,1.)) ;
#554=DIRECTION('Vector Direction',(0.,0.,1.)) ;
#573=DIRECTION('Axis2P3D Direction',(0.,0.,1.)) ;
#592=DIRECTION('Axis2P3D Direction',(0.,0.,1.)) ;
#593=DIRECTION('Axis2P3D XDirection',(1.,0.,0.)) ;
#31=PRESENTATION_LAYER_ASSIGNMENT('1',' ',(#22)) ;
#8=PRODUCT_RELATED_PRODUCT_CATEGORY('part',$,(#5)) ;
#7=PRODUCT_CATEGORY('part','specification') ;
#30=STYLED_ITEM(' ',(#29),#22) ;
#29=PRESENTATION_STYLE_ASSIGNMENT((#28)) ;
#87=PRESENTATION_STYLE_ASSIGNMENT((#86)) ;
#125=PRESENTATION_STYLE_ASSIGNMENT((#124)) ;
#163=PRESENTATION_STYLE_ASSIGNMENT((#162)) ;
#194=PRESENTATION_STYLE_ASSIGNMENT((#193)) ;
#218=PRESENTATION_STYLE_ASSIGNMENT((#217)) ;
#243=PRESENTATION_STYLE_ASSIGNMENT((#242)) ;
#290=PRESENTATION_STYLE_ASSIGNMENT((#289)) ;
#328=PRESENTATION_STYLE_ASSIGNMENT((#327)) ;
#359=PRESENTATION_STYLE_ASSIGNMENT((#358)) ;
#397=PRESENTATION_STYLE_ASSIGNMENT((#396)) ;
#421=PRESENTATION_STYLE_ASSIGNMENT((#420)) ;
#475=PRESENTATION_STYLE_ASSIGNMENT((#474)) ;
#513=PRESENTATION_STYLE_ASSIGNMENT((#512)) ;
#532=PRESENTATION_STYLE_ASSIGNMENT((#531)) ;
#570=PRESENTATION_STYLE_ASSIGNMENT((#569)) ;
#589=PRESENTATION_STYLE_ASSIGNMENT((#588)) ;
#606=PRESENTATION_STYLE_ASSIGNMENT((#605)) ;
#618=PRESENTATION_STYLE_ASSIGNMENT((#617)) ;
#28=SURFACE_STYLE_USAGE(.BOTH.,#27) ;
#86=SURFACE_STYLE_USAGE(.BOTH.,#85) ;
#124=SURFACE_STYLE_USAGE(.BOTH.,#123) ;
#162=SURFACE_STYLE_USAGE(.BOTH.,#161) ;
#193=SURFACE_STYLE_USAGE(.BOTH.,#192) ;
#217=SURFACE_STYLE_USAGE(.BOTH.,#216) ;
#242=SURFACE_STYLE_USAGE(.BOTH.,#241) ;
#289=SURFACE_STYLE_USAGE(.BOTH.,#288) ;
#327=SURFACE_STYLE_USAGE(.BOTH.,#326) ;
#358=SURFACE_STYLE_USAGE(.BOTH.,#357) ;
#396=SURFACE_STYLE_USAGE(.BOTH.,#395) ;
#420=SURFACE_STYLE_USAGE(.BOTH.,#419) ;
#474=SURFACE_STYLE_USAGE(.BOTH.,#473) ;
#512=SURFACE_STYLE_USAGE(.BOTH.,#511) ;
#531=SURFACE_STYLE_USAGE(.BOTH.,#530) ;
#569=SURFACE_STYLE_USAGE(.BOTH.,#568) ;
#588=SURFACE_STYLE_USAGE(.BOTH.,#587) ;
#605=SURFACE_STYLE_USAGE(.BOTH.,#604) ;
#617=SURFACE_STYLE_USAGE(.BOTH.,#616) ;
#27=SURFACE_SIDE_STYLE(' ',(#26)) ;
#85=SURFACE_SIDE_STYLE(' ',(#84)) ;
#123=SURFACE_SIDE_STYLE(' ',(#122)) ;
#161=SURFACE_SIDE_STYLE(' ',(#160)) ;
#192=SURFACE_SIDE_STYLE(' ',(#191)) ;
#216=SURFACE_SIDE_STYLE(' ',(#215)) ;
#241=SURFACE_SIDE_STYLE(' ',(#240)) ;
#288=SURFACE_SIDE_STYLE(' ',(#287)) ;
#326=SURFACE_SIDE_STYLE(' ',(#325)) ;
#357=SURFACE_SIDE_STYLE(' ',(#356)) ;
#395=SURFACE_SIDE_STYLE(' ',(#394)) ;
#419=SURFACE_SIDE_STYLE(' ',(#418)) ;
#473=SURFACE_SIDE_STYLE(' ',(#472)) ;
#511=SURFACE_SIDE_STYLE(' ',(#510)) ;
#530=SURFACE_SIDE_STYLE(' ',(#529)) ;
#568=SURFACE_SIDE_STYLE(' ',(#567)) ;
#587=SURFACE_SIDE_STYLE(' ',(#586)) ;
#604=SURFACE_SIDE_STYLE(' ',(#603)) ;
#616=SURFACE_SIDE_STYLE(' ',(#615)) ;
#26=SURFACE_STYLE_FILL_AREA(#25) ;
#84=SURFACE_STYLE_FILL_AREA(#83) ;
#122=SURFACE_STYLE_FILL_AREA(#121) ;
#160=SURFACE_STYLE_FILL_AREA(#159) ;
#191=SURFACE_STYLE_FILL_AREA(#190) ;
#215=SURFACE_STYLE_FILL_AREA(#214) ;
#240=SURFACE_STYLE_FILL_AREA(#239) ;
#287=SURFACE_STYLE_FILL_AREA(#286) ;
#325=SURFACE_STYLE_FILL_AREA(#324) ;
#356=SURFACE_STYLE_FILL_AREA(#355) ;
#394=SURFACE_STYLE_FILL_AREA(#393) ;
#418=SURFACE_STYLE_FILL_AREA(#417) ;
#472=SURFACE_STYLE_FILL_AREA(#471) ;
#510=SURFACE_STYLE_FILL_AREA(#509) ;
#529=SURFACE_STYLE_FILL_AREA(#528) ;
#567=SURFACE_STYLE_FILL_AREA(#566) ;
#586=SURFACE_STYLE_FILL_AREA(#585) ;
#603=SURFACE_STYLE_FILL_AREA(#602) ;
#615=SURFACE_STYLE_FILL_AREA(#614) ;
#25=FILL_AREA_STYLE(' ',(#24)) ;
#83=FILL_AREA_STYLE(' ',(#82)) ;
#121=FILL_AREA_STYLE(' ',(#120)) ;
#159=FILL_AREA_STYLE(' ',(#158)) ;
#190=FILL_AREA_STYLE(' ',(#189)) ;
#214=FILL_AREA_STYLE(' ',(#213)) ;
#239=FILL_AREA_STYLE(' ',(#238)) ;
#286=FILL_AREA_STYLE(' ',(#285)) ;
#324=FILL_AREA_STYLE(' ',(#323)) ;
#355=FILL_AREA_STYLE(' ',(#354)) ;
#393=FILL_AREA_STYLE(' ',(#392)) ;
#417=FILL_AREA_STYLE(' ',(#416)) ;
#471=FILL_AREA_STYLE(' ',(#470)) ;
#509=FILL_AREA_STYLE(' ',(#508)) ;
#528=FILL_AREA_STYLE(' ',(#527)) ;
#566=FILL_AREA_STYLE(' ',(#565)) ;
#585=FILL_AREA_STYLE(' ',(#584)) ;
#602=FILL_AREA_STYLE(' ',(#601)) ;
#614=FILL_AREA_STYLE(' ',(#613)) ;
#24=FILL_AREA_STYLE_COLOUR(' ',#23) ;
#82=FILL_AREA_STYLE_COLOUR(' ',#81) ;
#120=FILL_AREA_STYLE_COLOUR(' ',#81) ;
#158=FILL_AREA_STYLE_COLOUR(' ',#81) ;
#189=FILL_AREA_STYLE_COLOUR(' ',#81) ;
#213=FILL_AREA_STYLE_COLOUR(' ',#81) ;
#238=FILL_AREA_STYLE_COLOUR(' ',#81) ;
#285=FILL_AREA_STYLE_COLOUR(' ',#81) ;
#323=FILL_AREA_STYLE_COLOUR(' ',#81) ;
#354=FILL_AREA_STYLE_COLOUR(' ',#81) ;
#392=FILL_AREA_STYLE_COLOUR(' ',#81) ;
#416=FILL_AREA_STYLE_COLOUR(' ',#81) ;
#470=FILL_AREA_STYLE_COLOUR(' ',#81) ;
#508=FILL_AREA_STYLE_COLOUR(' ',#81) ;
#527=FILL_AREA_STYLE_COLOUR(' ',#81) ;
#565=FILL_AREA_STYLE_COLOUR(' ',#81) ;
#584=FILL_AREA_STYLE_COLOUR(' ',#81) ;
#601=FILL_AREA_STYLE_COLOUR(' ',#81) ;
#613=FILL_AREA_STYLE_COLOUR(' ',#81) ;
#40=VECTOR('Line Direction',#39,1.) ;
#49=VECTOR('Line Direction',#48,1.) ;
#56=VECTOR('Line Direction',#55,1.) ;
#63=VECTOR('Line Direction',#62,1.) ;
#70=VECTOR('Line Direction',#69,1.) ;
#96=VECTOR('Line Direction',#95,1.) ;
#105=VECTOR('Line Direction',#104,1.) ;
#110=VECTOR('Line Direction',#109,1.) ;
#134=VECTOR('Line Direction',#133,1.) ;
#143=VECTOR('Line Direction',#142,1.) ;
#148=VECTOR('Line Direction',#147,1.) ;
#172=VECTOR('Line Direction',#171,1.) ;
#179=VECTOR('Line Direction',#178,1.) ;
#203=VECTOR('Line Direction',#202,1.) ;
#227=VECTOR('Line Direction',#226,1.) ;
#252=VECTOR('Line Direction',#251,1.) ;
#261=VECTOR('Line Direction',#260,1.) ;
#268=VECTOR('Line Direction',#267,1.) ;
#275=VECTOR('Line Direction',#274,1.) ;
#299=VECTOR('Line Direction',#298,1.) ;
#306=VECTOR('Line Direction',#305,1.) ;
#313=VECTOR('Line Direction',#312,1.) ;
#337=VECTOR('Line Direction',#336,1.) ;
#344=VECTOR('Line Direction',#343,1.) ;
#368=VECTOR('Line Direction',#367,1.) ;
#373=VECTOR('Line Direction',#372,1.) ;
#380=VECTOR('Line Direction',#379,1.) ;
#406=VECTOR('Line Direction',#405,1.) ;
#484=VECTOR('Line Direction',#483,1.) ;
#498=VECTOR('Line Direction',#497,1.) ;
#541=VECTOR('Line Direction',#540,1.) ;
#555=VECTOR('Line Direction',#554,1.) ;
#16=UNCERTAINTY_MEASURE_WITH_UNIT(LENGTH_MEASURE(0.005),#12,'distance_accuracy_value','CONFUSED CURVE UNCERTAINTY') ;
#621=SHAPE_REPRESENTATION_RELATIONSHIP(' ',' ',#20,#620) ;
#74=ORIENTED_EDGE('',*,*,#46,.F.) ;
#75=ORIENTED_EDGE('',*,*,#53,.T.) ;
#76=ORIENTED_EDGE('',*,*,#60,.T.) ;
#77=ORIENTED_EDGE('',*,*,#67,.T.) ;
#78=ORIENTED_EDGE('',*,*,#72,.F.) ;
#114=ORIENTED_EDGE('',*,*,#102,.F.) ;
#115=ORIENTED_EDGE('',*,*,#107,.T.) ;
#116=ORIENTED_EDGE('',*,*,#46,.T.) ;
#117=ORIENTED_EDGE('',*,*,#112,.F.) ;
#152=ORIENTED_EDGE('',*,*,#140,.F.) ;
#153=ORIENTED_EDGE('',*,*,#145,.F.) ;
#154=ORIENTED_EDGE('',*,*,#60,.F.) ;
#155=ORIENTED_EDGE('',*,*,#150,.F.) ;
#183=ORIENTED_EDGE('',*,*,#67,.F.) ;
#184=ORIENTED_EDGE('',*,*,#145,.T.) ;
#185=ORIENTED_EDGE('',*,*,#176,.T.) ;
#186=ORIENTED_EDGE('',*,*,#181,.F.) ;
#207=ORIENTED_EDGE('',*,*,#72,.T.) ;
#208=ORIENTED_EDGE('',*,*,#181,.T.) ;
#209=ORIENTED_EDGE('',*,*,#205,.T.) ;
#210=ORIENTED_EDGE('',*,*,#112,.T.) ;
#231=ORIENTED_EDGE('',*,*,#176,.F.) ;
#232=ORIENTED_EDGE('',*,*,#140,.T.) ;
#233=ORIENTED_EDGE('',*,*,#229,.T.) ;
#234=ORIENTED_EDGE('',*,*,#102,.T.) ;
#235=ORIENTED_EDGE('',*,*,#205,.F.) ;
#279=ORIENTED_EDGE('',*,*,#258,.T.) ;
#280=ORIENTED_EDGE('',*,*,#265,.T.) ;
#281=ORIENTED_EDGE('',*,*,#272,.T.) ;
#282=ORIENTED_EDGE('',*,*,#277,.T.) ;
#317=ORIENTED_EDGE('',*,*,#303,.F.) ;
#318=ORIENTED_EDGE('',*,*,#310,.T.) ;
#319=ORIENTED_EDGE('',*,*,#315,.T.) ;
#320=ORIENTED_EDGE('',*,*,#258,.F.) ;
#348=ORIENTED_EDGE('',*,*,#315,.F.) ;
#349=ORIENTED_EDGE('',*,*,#341,.T.) ;
#350=ORIENTED_EDGE('',*,*,#346,.T.) ;
#351=ORIENTED_EDGE('',*,*,#265,.F.) ;
#384=ORIENTED_EDGE('',*,*,#346,.F.) ;
#385=ORIENTED_EDGE('',*,*,#370,.T.) ;
#386=ORIENTED_EDGE('',*,*,#150,.T.) ;
#387=ORIENTED_EDGE('',*,*,#377,.T.) ;
#388=ORIENTED_EDGE('',*,*,#382,.T.) ;
#389=ORIENTED_EDGE('',*,*,#272,.F.) ;
#410=ORIENTED_EDGE('',*,*,#382,.F.) ;
#411=ORIENTED_EDGE('',*,*,#408,.T.) ;
#412=ORIENTED_EDGE('',*,*,#303,.T.) ;
#413=ORIENTED_EDGE('',*,*,#277,.F.) ;
#424=ORIENTED_EDGE('',*,*,#53,.F.) ;
#425=ORIENTED_EDGE('',*,*,#107,.F.) ;
#426=ORIENTED_EDGE('',*,*,#229,.F.) ;
#427=ORIENTED_EDGE('',*,*,#370,.F.) ;
#428=ORIENTED_EDGE('',*,*,#341,.F.) ;
#429=ORIENTED_EDGE('',*,*,#310,.F.) ;
#430=ORIENTED_EDGE('',*,*,#408,.F.) ;
#431=ORIENTED_EDGE('',*,*,#377,.F.) ;
#448=ORIENTED_EDGE('',*,*,#441,.T.) ;
#449=ORIENTED_EDGE('',*,*,#446,.T.) ;
#466=ORIENTED_EDGE('',*,*,#459,.T.) ;
#467=ORIENTED_EDGE('',*,*,#464,.T.) ;
#502=ORIENTED_EDGE('',*,*,#488,.F.) ;
#503=ORIENTED_EDGE('',*,*,#495,.T.) ;
#504=ORIENTED_EDGE('',*,*,#500,.T.) ;
#505=ORIENTED_EDGE('',*,*,#446,.F.) ;
#521=ORIENTED_EDGE('',*,*,#500,.F.) ;
#522=ORIENTED_EDGE('',*,*,#519,.T.) ;
#523=ORIENTED_EDGE('',*,*,#488,.T.) ;
#524=ORIENTED_EDGE('',*,*,#441,.F.) ;
#559=ORIENTED_EDGE('',*,*,#545,.F.) ;
#560=ORIENTED_EDGE('',*,*,#552,.T.) ;
#561=ORIENTED_EDGE('',*,*,#557,.T.) ;
#562=ORIENTED_EDGE('',*,*,#464,.F.) ;
#578=ORIENTED_EDGE('',*,*,#557,.F.) ;
#579=ORIENTED_EDGE('',*,*,#576,.T.) ;
#580=ORIENTED_EDGE('',*,*,#545,.T.) ;
#581=ORIENTED_EDGE('',*,*,#459,.F.) ;
#597=ORIENTED_EDGE('',*,*,#519,.F.) ;
#598=ORIENTED_EDGE('',*,*,#495,.F.) ;
#609=ORIENTED_EDGE('',*,*,#576,.F.) ;
#610=ORIENTED_EDGE('',*,*,#552,.F.) ;
#450=FACE_BOUND('',#447,.T.) ;
#468=FACE_BOUND('',#465,.T.) ;
#32=CLOSED_SHELL('Closed Shell',(#80,#119,#157,#188,#212,#237,#284,#322,#353,#391,#415,#469,#507,#526,#564,#583,#600,#612)) ;
#620=ADVANCED_BREP_SHAPE_REPRESENTATION('NONE',(#22),#17) ;
#80=ADVANCED_FACE('Koerper.2',(#79),#37,.T.) ;
#119=ADVANCED_FACE('Koerper.2',(#118),#93,.F.) ;
#157=ADVANCED_FACE('Koerper.2',(#156),#131,.T.) ;
#188=ADVANCED_FACE('Koerper.2',(#187),#169,.F.) ;
#212=ADVANCED_FACE('Koerper.2',(#211),#200,.T.) ;
#237=ADVANCED_FACE('Koerper.2',(#236),#224,.T.) ;
#284=ADVANCED_FACE('Koerper.2',(#283),#249,.T.) ;
#322=ADVANCED_FACE('Koerper.2',(#321),#296,.T.) ;
#353=ADVANCED_FACE('Koerper.2',(#352),#334,.T.) ;
#391=ADVANCED_FACE('Koerper.2',(#390),#365,.T.) ;
#415=ADVANCED_FACE('Koerper.2',(#414),#403,.T.) ;
#469=ADVANCED_FACE('Koerper.2',(#432,#450,#468),#131,.F.) ;
#507=ADVANCED_FACE('Koerper.2',(#506),#481,.T.) ;
#526=ADVANCED_FACE('Koerper.2',(#525),#481,.T.) ;
#564=ADVANCED_FACE('Koerper.2',(#563),#538,.T.) ;
#583=ADVANCED_FACE('Koerper.2',(#582),#538,.T.) ;
#600=ADVANCED_FACE('Koerper.2',(#599),#595,.F.) ;
#612=ADVANCED_FACE('Koerper.2',(#611),#595,.F.) ;
#4=APPLICATION_PROTOCOL_DEFINITION('international standard','automotive_design',2001,#1) ;
#22=MANIFOLD_SOLID_BREP('Koerper.2',#32) ;
#436=CIRCLE('generated circle',#435,1.9) ;
#445=CIRCLE('generated circle',#444,1.9) ;
#454=CIRCLE('generated circle',#453,1.9) ;
#463=CIRCLE('generated circle',#462,1.9) ;
#492=CIRCLE('generated circle',#491,1.9) ;
#518=CIRCLE('generated circle',#517,1.9) ;
#549=CIRCLE('generated circle',#548,1.9) ;
#575=CIRCLE('generated circle',#574,1.9) ;
#23=COLOUR_RGB('Colour',0.823529411765,0.823529411765,1.) ;
#81=COLOUR_RGB('Colour',0.274509803922,0.235294117647,0.270588235294) ;
#88=OVER_RIDING_STYLED_ITEM(' ',(#87),#80,#30) ;
#126=OVER_RIDING_STYLED_ITEM(' ',(#125),#119,#30) ;
#164=OVER_RIDING_STYLED_ITEM(' ',(#163),#157,#30) ;
#195=OVER_RIDING_STYLED_ITEM(' ',(#194),#188,#30) ;
#219=OVER_RIDING_STYLED_ITEM(' ',(#218),#212,#30) ;
#244=OVER_RIDING_STYLED_ITEM(' ',(#243),#237,#30) ;
#291=OVER_RIDING_STYLED_ITEM(' ',(#290),#284,#30) ;
#329=OVER_RIDING_STYLED_ITEM(' ',(#328),#322,#30) ;
#360=OVER_RIDING_STYLED_ITEM(' ',(#359),#353,#30) ;
#398=OVER_RIDING_STYLED_ITEM(' ',(#397),#391,#30) ;
#422=OVER_RIDING_STYLED_ITEM(' ',(#421),#415,#30) ;
#476=OVER_RIDING_STYLED_ITEM(' ',(#475),#469,#30) ;
#514=OVER_RIDING_STYLED_ITEM(' ',(#513),#507,#30) ;
#533=OVER_RIDING_STYLED_ITEM(' ',(#532),#526,#30) ;
#571=OVER_RIDING_STYLED_ITEM(' ',(#570),#564,#30) ;
#590=OVER_RIDING_STYLED_ITEM(' ',(#589),#583,#30) ;
#607=OVER_RIDING_STYLED_ITEM(' ',(#606),#600,#30) ;
#619=OVER_RIDING_STYLED_ITEM(' ',(#618),#612,#30) ;
#481=CYLINDRICAL_SURFACE('generated cylinder',#480,1.9) ;
#538=CYLINDRICAL_SURFACE('generated cylinder',#537,1.9) ;
#46=EDGE_CURVE('',#43,#45,#41,.T.) ;
#53=EDGE_CURVE('',#43,#52,#50,.T.) ;
#60=EDGE_CURVE('',#52,#59,#57,.T.) ;
#67=EDGE_CURVE('',#59,#66,#64,.T.) ;
#72=EDGE_CURVE('',#45,#66,#71,.T.) ;
#102=EDGE_CURVE('',#99,#101,#97,.T.) ;
#107=EDGE_CURVE('',#99,#43,#106,.F.) ;
#112=EDGE_CURVE('',#101,#45,#111,.F.) ;
#140=EDGE_CURVE('',#137,#139,#135,.T.) ;
#145=EDGE_CURVE('',#59,#137,#144,.F.) ;
#150=EDGE_CURVE('',#139,#52,#149,.T.) ;
#176=EDGE_CURVE('',#137,#175,#173,.T.) ;
#181=EDGE_CURVE('',#66,#175,#180,.F.) ;
#205=EDGE_CURVE('',#175,#101,#204,.T.) ;
#229=EDGE_CURVE('',#139,#99,#228,.T.) ;
#258=EDGE_CURVE('',#255,#257,#253,.T.) ;
#265=EDGE_CURVE('',#257,#264,#262,.T.) ;
#272=EDGE_CURVE('',#264,#271,#269,.T.) ;
#277=EDGE_CURVE('',#271,#255,#276,.T.) ;
#303=EDGE_CURVE('',#302,#255,#300,.T.) ;
#310=EDGE_CURVE('',#302,#309,#307,.T.) ;
#315=EDGE_CURVE('',#309,#257,#314,.T.) ;
#341=EDGE_CURVE('',#309,#340,#338,.T.) ;
#346=EDGE_CURVE('',#340,#264,#345,.T.) ;
#370=EDGE_CURVE('',#340,#139,#369,.T.) ;
#377=EDGE_CURVE('',#52,#376,#374,.T.) ;
#382=EDGE_CURVE('',#376,#271,#381,.T.) ;
#408=EDGE_CURVE('',#376,#302,#407,.T.) ;
#441=EDGE_CURVE('',#438,#440,#436,.T.) ;
#446=EDGE_CURVE('',#440,#438,#445,.T.) ;
#459=EDGE_CURVE('',#456,#458,#454,.T.) ;
#464=EDGE_CURVE('',#458,#456,#463,.T.) ;
#488=EDGE_CURVE('',#487,#440,#485,.T.) ;
#495=EDGE_CURVE('',#487,#494,#492,.T.) ;
#500=EDGE_CURVE('',#494,#438,#499,.T.) ;
#519=EDGE_CURVE('',#494,#487,#518,.T.) ;
#545=EDGE_CURVE('',#544,#458,#542,.T.) ;
#552=EDGE_CURVE('',#544,#551,#549,.T.) ;
#557=EDGE_CURVE('',#551,#456,#556,.T.) ;
#576=EDGE_CURVE('',#551,#544,#575,.T.) ;
#73=EDGE_LOOP('',(#74,#75,#76,#77,#78)) ;
#113=EDGE_LOOP('',(#114,#115,#116,#117)) ;
#151=EDGE_LOOP('',(#152,#153,#154,#155)) ;
#182=EDGE_LOOP('',(#183,#184,#185,#186)) ;
#206=EDGE_LOOP('',(#207,#208,#209,#210)) ;
#230=EDGE_LOOP('',(#231,#232,#233,#234,#235)) ;
#278=EDGE_LOOP('',(#279,#280,#281,#282)) ;
#316=EDGE_LOOP('',(#317,#318,#319,#320)) ;
#347=EDGE_LOOP('',(#348,#349,#350,#351)) ;
#383=EDGE_LOOP('',(#384,#385,#386,#387,#388,#389)) ;
#409=EDGE_LOOP('',(#410,#411,#412,#413)) ;
#423=EDGE_LOOP('',(#424,#425,#426,#427,#428,#429,#430,#431)) ;
#447=EDGE_LOOP('',(#448,#449)) ;
#465=EDGE_LOOP('',(#466,#467)) ;
#501=EDGE_LOOP('',(#502,#503,#504,#505)) ;
#520=EDGE_LOOP('',(#521,#522,#523,#524)) ;
#558=EDGE_LOOP('',(#559,#560,#561,#562)) ;
#577=EDGE_LOOP('',(#578,#579,#580,#581)) ;
#596=EDGE_LOOP('',(#597,#598)) ;
#608=EDGE_LOOP('',(#609,#610)) ;
#79=FACE_OUTER_BOUND('',#73,.T.) ;
#118=FACE_OUTER_BOUND('',#113,.T.) ;
#156=FACE_OUTER_BOUND('',#151,.T.) ;
#187=FACE_OUTER_BOUND('',#182,.T.) ;
#211=FACE_OUTER_BOUND('',#206,.T.) ;
#236=FACE_OUTER_BOUND('',#230,.T.) ;
#283=FACE_OUTER_BOUND('',#278,.T.) ;
#321=FACE_OUTER_BOUND('',#316,.T.) ;
#352=FACE_OUTER_BOUND('',#347,.T.) ;
#390=FACE_OUTER_BOUND('',#383,.T.) ;
#414=FACE_OUTER_BOUND('',#409,.T.) ;
#432=FACE_OUTER_BOUND('',#423,.T.) ;
#506=FACE_OUTER_BOUND('',#501,.T.) ;
#525=FACE_OUTER_BOUND('',#520,.T.) ;
#563=FACE_OUTER_BOUND('',#558,.T.) ;
#582=FACE_OUTER_BOUND('',#577,.T.) ;
#599=FACE_OUTER_BOUND('',#596,.T.) ;
#611=FACE_OUTER_BOUND('',#608,.T.) ;
#41=LINE('Line',#38,#40) ;
#50=LINE('Line',#47,#49) ;
#57=LINE('Line',#54,#56) ;
#64=LINE('Line',#61,#63) ;
#71=LINE('Line',#68,#70) ;
#97=LINE('Line',#94,#96) ;
#106=LINE('Line',#103,#105) ;
#111=LINE('Line',#108,#110) ;
#135=LINE('Line',#132,#134) ;
#144=LINE('Line',#141,#143) ;
#149=LINE('Line',#146,#148) ;
#173=LINE('Line',#170,#172) ;
#180=LINE('Line',#177,#179) ;
#204=LINE('Line',#201,#203) ;
#228=LINE('Line',#225,#227) ;
#253=LINE('Line',#250,#252) ;
#262=LINE('Line',#259,#261) ;
#269=LINE('Line',#266,#268) ;
#276=LINE('Line',#273,#275) ;
#300=LINE('Line',#297,#299) ;
#307=LINE('Line',#304,#306) ;
#314=LINE('Line',#311,#313) ;
#338=LINE('Line',#335,#337) ;
#345=LINE('Line',#342,#344) ;
#369=LINE('Line',#366,#368) ;
#374=LINE('Line',#371,#373) ;
#381=LINE('Line',#378,#380) ;
#407=LINE('Line',#404,#406) ;
#485=LINE('Line',#482,#484) ;
#499=LINE('Line',#496,#498) ;
#542=LINE('Line',#539,#541) ;
#556=LINE('Line',#553,#555) ;
#37=PLANE('',#36) ;
#93=PLANE('',#92) ;
#131=PLANE('',#130) ;
#169=PLANE('',#168) ;
#200=PLANE('',#199) ;
#224=PLANE('',#223) ;
#249=PLANE('',#248) ;
#296=PLANE('',#295) ;
#334=PLANE('',#333) ;
#365=PLANE('',#364) ;
#403=PLANE('',#402) ;
#595=PLANE('',#594) ;
#14=PLANE_ANGLE_MEASURE_WITH_UNIT(PLANE_ANGLE_MEASURE(0.0174532925199),#13) ;
#9=PRODUCT_CATEGORY_RELATIONSHIP(' ',' ',#7,#8) ;
#6=PRODUCT_DEFINITION_FORMATION_WITH_SPECIFIED_SOURCE('',' ',#5,.NOT_KNOWN.) ;
#21=SHAPE_DEFINITION_REPRESENTATION(#11,#20) ;
#43=VERTEX_POINT('',#42) ;
#45=VERTEX_POINT('',#44) ;
#52=VERTEX_POINT('',#51) ;
#59=VERTEX_POINT('',#58) ;
#66=VERTEX_POINT('',#65) ;
#99=VERTEX_POINT('',#98) ;
#101=VERTEX_POINT('',#100) ;
#137=VERTEX_POINT('',#136) ;
#139=VERTEX_POINT('',#138) ;
#175=VERTEX_POINT('',#174) ;
#255=VERTEX_POINT('',#254) ;
#257=VERTEX_POINT('',#256) ;
#264=VERTEX_POINT('',#263) ;
#271=VERTEX_POINT('',#270) ;
#302=VERTEX_POINT('',#301) ;
#309=VERTEX_POINT('',#308) ;
#340=VERTEX_POINT('',#339) ;
#376=VERTEX_POINT('',#375) ;
#438=VERTEX_POINT('',#437) ;
#440=VERTEX_POINT('',#439) ;
#456=VERTEX_POINT('',#455) ;
#458=VERTEX_POINT('',#457) ;
#487=VERTEX_POINT('',#486) ;
#494=VERTEX_POINT('',#493) ;
#544=VERTEX_POINT('',#543) ;
#551=VERTEX_POINT('',#550) ;
#12=(LENGTH_UNIT()NAMED_UNIT(*)SI_UNIT(.MILLI.,.METRE.)) ;
#13=(NAMED_UNIT(*)PLANE_ANGLE_UNIT()SI_UNIT($,.RADIAN.)) ;
#15=(NAMED_UNIT(*)SI_UNIT($,.STERADIAN.)SOLID_ANGLE_UNIT()) ;
#17=(GEOMETRIC_REPRESENTATION_CONTEXT(3)GLOBAL_UNCERTAINTY_ASSIGNED_CONTEXT((#16))GLOBAL_UNIT_ASSIGNED_CONTEXT((#12,#13,#15))REPRESENTATION_CONTEXT(' ',' ')) ;
ENDSEC;
END-ISO-10303-21;
