ISO-10303-21;
HEADER;
FILE_DESCRIPTION(('CATIA V5 STEP Exchange','CAx-IF Rec.Pracs.--- Model Styling and Organization---1.4--- 2014-01-23'),'2;1');

FILE_NAME ('D1456085_0_1781000000_1781000000.stp','2020-01-27T10:59:49+00:00',('none'),('Weidmueller'),'CATIA Version 5-6 Release 2016 SP3 HF44','CATIA V5 STEP AP214','none');

FILE_SCHEMA(('AUTOMOTIVE_DESIGN { 1 0 10303 214 1 1 1 1 }'));

ENDSEC;
DATA;
#5=PRODUCT('1781000000_WQL_3_WF8','','',(#2)) ;
#2=PRODUCT_CONTEXT(' ',#1,'mechanical') ;
#1=APPLICATION_CONTEXT('automotive design') ;
#10=PRODUCT_DEFINITION('',' ',#6,#3) ;
#3=PRODUCT_DEFINITION_CONTEXT('part definition',#1,' ') ;
#11=PRODUCT_DEFINITION_SHAPE(' ',' ',#10) ;
#377=MECHANICAL_DESIGN_GEOMETRIC_PRESENTATION_REPRESENTATION(' ',(#29),#16) ;
#19=SHAPE_REPRESENTATION(' ',(#18),#16) ;
#18=AXIS2_PLACEMENT_3D(' ',#17,$,$) ;
#35=AXIS2_PLACEMENT_3D('Plane Axis2P3D',#32,#33,#34) ;
#75=AXIS2_PLACEMENT_3D('Plane Axis2P3D',#72,#73,#74) ;
#106=AXIS2_PLACEMENT_3D('Plane Axis2P3D',#103,#104,#105) ;
#137=AXIS2_PLACEMENT_3D('Plane Axis2P3D',#134,#135,#136) ;
#159=AXIS2_PLACEMENT_3D('Plane Axis2P3D',#156,#157,#158) ;
#169=AXIS2_PLACEMENT_3D('Circle Axis2P3D',#167,#168,$) ;
#178=AXIS2_PLACEMENT_3D('Circle Axis2P3D',#176,#177,$) ;
#187=AXIS2_PLACEMENT_3D('Circle Axis2P3D',#185,#186,$) ;
#196=AXIS2_PLACEMENT_3D('Circle Axis2P3D',#194,#195,$) ;
#205=AXIS2_PLACEMENT_3D('Circle Axis2P3D',#203,#204,$) ;
#214=AXIS2_PLACEMENT_3D('Circle Axis2P3D',#212,#213,$) ;
#225=AXIS2_PLACEMENT_3D('Plane Axis2P3D',#222,#223,#224) ;
#235=AXIS2_PLACEMENT_3D('Circle Axis2P3D',#233,#234,$) ;
#244=AXIS2_PLACEMENT_3D('Circle Axis2P3D',#242,#243,$) ;
#253=AXIS2_PLACEMENT_3D('Circle Axis2P3D',#251,#252,$) ;
#262=AXIS2_PLACEMENT_3D('Circle Axis2P3D',#260,#261,$) ;
#271=AXIS2_PLACEMENT_3D('Circle Axis2P3D',#269,#270,$) ;
#280=AXIS2_PLACEMENT_3D('Circle Axis2P3D',#278,#279,$) ;
#291=AXIS2_PLACEMENT_3D('Cylinder Axis2P3D',#288,#289,#290) ;
#320=AXIS2_PLACEMENT_3D('Cylinder Axis2P3D',#317,#318,#319) ;
#349=AXIS2_PLACEMENT_3D('Cylinder Axis2P3D',#346,#347,#348) ;
#17=CARTESIAN_POINT(' ',(0.,0.,0.)) ;
#32=CARTESIAN_POINT('Axis2P3D Location',(0.,20.,0.)) ;
#37=CARTESIAN_POINT('Line Origine',(31.8,20.,4.)) ;
#41=CARTESIAN_POINT('Vertex',(0.,20.,4.)) ;
#43=CARTESIAN_POINT('Vertex',(63.6,20.,4.)) ;
#46=CARTESIAN_POINT('Line Origine',(63.6,20.,2.)) ;
#50=CARTESIAN_POINT('Vertex',(63.6,20.,-6.12323399574E-016)) ;
#53=CARTESIAN_POINT('Line Origine',(31.8,20.,0.)) ;
#57=CARTESIAN_POINT('Vertex',(0.,20.,-6.12323399574E-016)) ;
#60=CARTESIAN_POINT('Line Origine',(0.,20.,2.)) ;
#72=CARTESIAN_POINT('Axis2P3D Location',(63.6,20.,0.)) ;
#77=CARTESIAN_POINT('Line Origine',(63.6,10.,4.)) ;
#81=CARTESIAN_POINT('Vertex',(63.6,0.,4.)) ;
#84=CARTESIAN_POINT('Line Origine',(63.6,1.22464679915E-016,2.)) ;
#88=CARTESIAN_POINT('Vertex',(63.6,0.,6.12323399574E-016)) ;
#91=CARTESIAN_POINT('Line Origine',(63.6,10.,6.12323399574E-016)) ;
#103=CARTESIAN_POINT('Axis2P3D Location',(0.,6.74591387447E-016,0.)) ;
#108=CARTESIAN_POINT('Line Origine',(31.8,9.19520747276E-016,4.)) ;
#112=CARTESIAN_POINT('Vertex',(0.,0.,4.)) ;
#115=CARTESIAN_POINT('Line Origine',(0.,7.97056067362E-016,2.)) ;
#119=CARTESIAN_POINT('Vertex',(0.,0.,6.12323399574E-016)) ;
#122=CARTESIAN_POINT('Line Origine',(31.8,6.74591387447E-016,0.)) ;
#134=CARTESIAN_POINT('Axis2P3D Location',(0.,20.,0.)) ;
#139=CARTESIAN_POINT('Line Origine',(0.,10.,4.)) ;
#144=CARTESIAN_POINT('Line Origine',(0.,10.,6.12323399574E-016)) ;
#156=CARTESIAN_POINT('Axis2P3D Location',(31.8,10.,4.)) ;
#167=CARTESIAN_POINT('Axis2P3D Location',(31.8,10.,4.)) ;
#171=CARTESIAN_POINT('Vertex',(31.8,5.7,4.)) ;
#173=CARTESIAN_POINT('Vertex',(31.8,14.3,4.)) ;
#176=CARTESIAN_POINT('Axis2P3D Location',(31.8,10.,4.)) ;
#185=CARTESIAN_POINT('Axis2P3D Location',(9.,10.,4.)) ;
#189=CARTESIAN_POINT('Vertex',(9.,5.7,4.)) ;
#191=CARTESIAN_POINT('Vertex',(9.,14.3,4.)) ;
#194=CARTESIAN_POINT('Axis2P3D Location',(9.,10.,4.)) ;
#203=CARTESIAN_POINT('Axis2P3D Location',(54.6,10.,4.)) ;
#207=CARTESIAN_POINT('Vertex',(54.6,5.7,4.)) ;
#209=CARTESIAN_POINT('Vertex',(54.6,14.3,4.)) ;
#212=CARTESIAN_POINT('Axis2P3D Location',(54.6,10.,4.)) ;
#222=CARTESIAN_POINT('Axis2P3D Location',(31.8,10.,0.)) ;
#233=CARTESIAN_POINT('Axis2P3D Location',(31.8,10.,0.)) ;
#237=CARTESIAN_POINT('Vertex',(31.8,14.3,-2.63299061817E-016)) ;
#239=CARTESIAN_POINT('Vertex',(31.8,5.7,2.63299061817E-016)) ;
#242=CARTESIAN_POINT('Axis2P3D Location',(31.8,10.,0.)) ;
#251=CARTESIAN_POINT('Axis2P3D Location',(9.,10.,0.)) ;
#255=CARTESIAN_POINT('Vertex',(9.,14.3,-2.63299061817E-016)) ;
#257=CARTESIAN_POINT('Vertex',(9.,5.7,2.63299061817E-016)) ;
#260=CARTESIAN_POINT('Axis2P3D Location',(9.,10.,0.)) ;
#269=CARTESIAN_POINT('Axis2P3D Location',(54.6,10.,0.)) ;
#273=CARTESIAN_POINT('Vertex',(54.6,14.3,-2.63299061817E-016)) ;
#275=CARTESIAN_POINT('Vertex',(54.6,5.7,2.63299061817E-016)) ;
#278=CARTESIAN_POINT('Axis2P3D Location',(54.6,10.,0.)) ;
#288=CARTESIAN_POINT('Axis2P3D Location',(54.6,10.,2.)) ;
#293=CARTESIAN_POINT('Line Origine',(54.6,14.3,2.)) ;
#298=CARTESIAN_POINT('Line Origine',(54.6,5.7,2.)) ;
#317=CARTESIAN_POINT('Axis2P3D Location',(9.,10.,2.)) ;
#322=CARTESIAN_POINT('Line Origine',(9.,14.3,2.)) ;
#327=CARTESIAN_POINT('Line Origine',(9.,5.7,2.)) ;
#346=CARTESIAN_POINT('Axis2P3D Location',(31.8,10.,2.)) ;
#351=CARTESIAN_POINT('Line Origine',(31.8,14.3,2.)) ;
#356=CARTESIAN_POINT('Line Origine',(31.8,5.7,2.)) ;
#33=DIRECTION('Axis2P3D Direction',(0.,-1.,6.12323399574E-017)) ;
#34=DIRECTION('Axis2P3D XDirection',(1.,0.,0.)) ;
#38=DIRECTION('Vector Direction',(1.,0.,0.)) ;
#47=DIRECTION('Vector Direction',(0.,0.,1.)) ;
#54=DIRECTION('Vector Direction',(1.,0.,0.)) ;
#61=DIRECTION('Vector Direction',(0.,0.,1.)) ;
#73=DIRECTION('Axis2P3D Direction',(-1.,0.,0.)) ;
#74=DIRECTION('Axis2P3D XDirection',(0.,-1.,6.12323399574E-017)) ;
#78=DIRECTION('Vector Direction',(0.,-1.,4.4408920985E-017)) ;
#85=DIRECTION('Vector Direction',(0.,6.12323399574E-017,1.)) ;
#92=DIRECTION('Vector Direction',(0.,-1.,6.12323399574E-017)) ;
#104=DIRECTION('Axis2P3D Direction',(0.,-1.,6.12323399574E-017)) ;
#105=DIRECTION('Axis2P3D XDirection',(1.,0.,0.)) ;
#109=DIRECTION('Vector Direction',(1.,0.,0.)) ;
#116=DIRECTION('Vector Direction',(0.,6.12323399574E-017,1.)) ;
#123=DIRECTION('Vector Direction',(1.,0.,0.)) ;
#135=DIRECTION('Axis2P3D Direction',(-1.,0.,0.)) ;
#136=DIRECTION('Axis2P3D XDirection',(0.,-1.,6.12323399574E-017)) ;
#140=DIRECTION('Vector Direction',(0.,-1.,4.4408920985E-017)) ;
#145=DIRECTION('Vector Direction',(0.,-1.,6.12323399574E-017)) ;
#157=DIRECTION('Axis2P3D Direction',(-0.,-6.12323399574E-017,-1.)) ;
#158=DIRECTION('Axis2P3D XDirection',(-1.,0.,0.)) ;
#168=DIRECTION('Axis2P3D Direction',(-0.,-6.12323399574E-017,-1.)) ;
#177=DIRECTION('Axis2P3D Direction',(-0.,-6.12323399574E-017,-1.)) ;
#186=DIRECTION('Axis2P3D Direction',(-0.,-6.12323399574E-017,-1.)) ;
#195=DIRECTION('Axis2P3D Direction',(-0.,-6.12323399574E-017,-1.)) ;
#204=DIRECTION('Axis2P3D Direction',(-0.,-6.12323399574E-017,-1.)) ;
#213=DIRECTION('Axis2P3D Direction',(-0.,-6.12323399574E-017,-1.)) ;
#223=DIRECTION('Axis2P3D Direction',(-0.,-6.12323399574E-017,-1.)) ;
#224=DIRECTION('Axis2P3D XDirection',(-1.,0.,0.)) ;
#234=DIRECTION('Axis2P3D Direction',(-0.,-6.12323399574E-017,-1.)) ;
#243=DIRECTION('Axis2P3D Direction',(-0.,-6.12323399574E-017,-1.)) ;
#252=DIRECTION('Axis2P3D Direction',(-0.,-6.12323399574E-017,-1.)) ;
#261=DIRECTION('Axis2P3D Direction',(-0.,-6.12323399574E-017,-1.)) ;
#270=DIRECTION('Axis2P3D Direction',(-0.,-6.12323399574E-017,-1.)) ;
#279=DIRECTION('Axis2P3D Direction',(-0.,-6.12323399574E-017,-1.)) ;
#289=DIRECTION('Axis2P3D Direction',(0.,-6.12323399574E-017,-1.)) ;
#290=DIRECTION('Axis2P3D XDirection',(0.,1.,-6.12323399574E-017)) ;
#294=DIRECTION('Vector Direction',(0.,0.,-1.)) ;
#299=DIRECTION('Vector Direction',(0.,0.,-1.)) ;
#318=DIRECTION('Axis2P3D Direction',(0.,-6.12323399574E-017,-1.)) ;
#319=DIRECTION('Axis2P3D XDirection',(0.,1.,-6.12323399574E-017)) ;
#323=DIRECTION('Vector Direction',(0.,0.,-1.)) ;
#328=DIRECTION('Vector Direction',(0.,0.,-1.)) ;
#347=DIRECTION('Axis2P3D Direction',(0.,-6.12323399574E-017,-1.)) ;
#348=DIRECTION('Axis2P3D XDirection',(0.,1.,-6.12323399574E-017)) ;
#352=DIRECTION('Vector Direction',(0.,0.,-1.)) ;
#357=DIRECTION('Vector Direction',(0.,0.,-1.)) ;
#30=PRESENTATION_LAYER_ASSIGNMENT('100',' ',(#21)) ;
#8=PRODUCT_RELATED_PRODUCT_CATEGORY('part',$,(#5)) ;
#7=PRODUCT_CATEGORY('part','specification') ;
#29=STYLED_ITEM(' ',(#28),#21) ;
#28=PRESENTATION_STYLE_ASSIGNMENT((#27)) ;
#27=SURFACE_STYLE_USAGE(.BOTH.,#26) ;
#26=SURFACE_SIDE_STYLE(' ',(#25)) ;
#25=SURFACE_STYLE_FILL_AREA(#24) ;
#24=FILL_AREA_STYLE(' ',(#23)) ;
#23=FILL_AREA_STYLE_COLOUR(' ',#22) ;
#39=VECTOR('Line Direction',#38,1.) ;
#48=VECTOR('Line Direction',#47,1.) ;
#55=VECTOR('Line Direction',#54,1.) ;
#62=VECTOR('Line Direction',#61,1.) ;
#79=VECTOR('Line Direction',#78,1.) ;
#86=VECTOR('Line Direction',#85,1.) ;
#93=VECTOR('Line Direction',#92,1.) ;
#110=VECTOR('Line Direction',#109,1.) ;
#117=VECTOR('Line Direction',#116,1.) ;
#124=VECTOR('Line Direction',#123,1.) ;
#141=VECTOR('Line Direction',#140,1.) ;
#146=VECTOR('Line Direction',#145,1.) ;
#295=VECTOR('Line Direction',#294,1.) ;
#300=VECTOR('Line Direction',#299,1.) ;
#324=VECTOR('Line Direction',#323,1.) ;
#329=VECTOR('Line Direction',#328,1.) ;
#353=VECTOR('Line Direction',#352,1.) ;
#358=VECTOR('Line Direction',#357,1.) ;
#15=UNCERTAINTY_MEASURE_WITH_UNIT(LENGTH_MEASURE(0.005),#12,'distance_accuracy_value','CONFUSED CURVE UNCERTAINTY') ;
#376=SHAPE_REPRESENTATION_RELATIONSHIP(' ',' ',#19,#375) ;
#66=ORIENTED_EDGE('',*,*,#45,.T.) ;
#67=ORIENTED_EDGE('',*,*,#52,.F.) ;
#68=ORIENTED_EDGE('',*,*,#59,.F.) ;
#69=ORIENTED_EDGE('',*,*,#64,.T.) ;
#97=ORIENTED_EDGE('',*,*,#83,.T.) ;
#98=ORIENTED_EDGE('',*,*,#90,.F.) ;
#99=ORIENTED_EDGE('',*,*,#95,.F.) ;
#100=ORIENTED_EDGE('',*,*,#52,.T.) ;
#128=ORIENTED_EDGE('',*,*,#114,.T.) ;
#129=ORIENTED_EDGE('',*,*,#121,.F.) ;
#130=ORIENTED_EDGE('',*,*,#126,.F.) ;
#131=ORIENTED_EDGE('',*,*,#90,.T.) ;
#150=ORIENTED_EDGE('',*,*,#143,.T.) ;
#151=ORIENTED_EDGE('',*,*,#64,.F.) ;
#152=ORIENTED_EDGE('',*,*,#148,.F.) ;
#153=ORIENTED_EDGE('',*,*,#121,.T.) ;
#162=ORIENTED_EDGE('',*,*,#143,.F.) ;
#163=ORIENTED_EDGE('',*,*,#114,.F.) ;
#164=ORIENTED_EDGE('',*,*,#83,.F.) ;
#165=ORIENTED_EDGE('',*,*,#45,.F.) ;
#182=ORIENTED_EDGE('',*,*,#175,.T.) ;
#183=ORIENTED_EDGE('',*,*,#180,.T.) ;
#200=ORIENTED_EDGE('',*,*,#193,.T.) ;
#201=ORIENTED_EDGE('',*,*,#198,.T.) ;
#218=ORIENTED_EDGE('',*,*,#211,.T.) ;
#219=ORIENTED_EDGE('',*,*,#216,.T.) ;
#228=ORIENTED_EDGE('',*,*,#59,.T.) ;
#229=ORIENTED_EDGE('',*,*,#95,.T.) ;
#230=ORIENTED_EDGE('',*,*,#126,.T.) ;
#231=ORIENTED_EDGE('',*,*,#148,.T.) ;
#248=ORIENTED_EDGE('',*,*,#241,.F.) ;
#249=ORIENTED_EDGE('',*,*,#246,.F.) ;
#266=ORIENTED_EDGE('',*,*,#259,.F.) ;
#267=ORIENTED_EDGE('',*,*,#264,.F.) ;
#284=ORIENTED_EDGE('',*,*,#277,.F.) ;
#285=ORIENTED_EDGE('',*,*,#282,.F.) ;
#304=ORIENTED_EDGE('',*,*,#297,.F.) ;
#305=ORIENTED_EDGE('',*,*,#277,.T.) ;
#306=ORIENTED_EDGE('',*,*,#302,.T.) ;
#307=ORIENTED_EDGE('',*,*,#216,.F.) ;
#311=ORIENTED_EDGE('',*,*,#302,.F.) ;
#312=ORIENTED_EDGE('',*,*,#282,.T.) ;
#313=ORIENTED_EDGE('',*,*,#297,.T.) ;
#314=ORIENTED_EDGE('',*,*,#211,.F.) ;
#333=ORIENTED_EDGE('',*,*,#326,.F.) ;
#334=ORIENTED_EDGE('',*,*,#259,.T.) ;
#335=ORIENTED_EDGE('',*,*,#331,.T.) ;
#336=ORIENTED_EDGE('',*,*,#198,.F.) ;
#340=ORIENTED_EDGE('',*,*,#331,.F.) ;
#341=ORIENTED_EDGE('',*,*,#264,.T.) ;
#342=ORIENTED_EDGE('',*,*,#326,.T.) ;
#343=ORIENTED_EDGE('',*,*,#193,.F.) ;
#362=ORIENTED_EDGE('',*,*,#355,.F.) ;
#363=ORIENTED_EDGE('',*,*,#241,.T.) ;
#364=ORIENTED_EDGE('',*,*,#360,.T.) ;
#365=ORIENTED_EDGE('',*,*,#180,.F.) ;
#369=ORIENTED_EDGE('',*,*,#360,.F.) ;
#370=ORIENTED_EDGE('',*,*,#246,.T.) ;
#371=ORIENTED_EDGE('',*,*,#355,.T.) ;
#372=ORIENTED_EDGE('',*,*,#175,.F.) ;
#184=FACE_BOUND('',#181,.T.) ;
#202=FACE_BOUND('',#199,.T.) ;
#220=FACE_BOUND('',#217,.T.) ;
#250=FACE_BOUND('',#247,.T.) ;
#268=FACE_BOUND('',#265,.T.) ;
#286=FACE_BOUND('',#283,.T.) ;
#31=CLOSED_SHELL('Closed Shell',(#71,#102,#133,#155,#221,#287,#309,#316,#338,#345,#367,#374)) ;
#375=ADVANCED_BREP_SHAPE_REPRESENTATION('NONE',(#21),#16) ;
#71=ADVANCED_FACE('Hauptk\X2\00F6\X0\rper',(#70),#36,.F.) ;
#102=ADVANCED_FACE('Hauptk\X2\00F6\X0\rper',(#101),#76,.F.) ;
#133=ADVANCED_FACE('Hauptk\X2\00F6\X0\rper',(#132),#107,.T.) ;
#155=ADVANCED_FACE('Hauptk\X2\00F6\X0\rper',(#154),#138,.T.) ;
#221=ADVANCED_FACE('Hauptk\X2\00F6\X0\rper',(#166,#184,#202,#220),#160,.F.) ;
#287=ADVANCED_FACE('Hauptk\X2\00F6\X0\rper',(#232,#250,#268,#286),#226,.T.) ;
#309=ADVANCED_FACE('Hauptk\X2\00F6\X0\rper',(#308),#292,.F.) ;
#316=ADVANCED_FACE('Hauptk\X2\00F6\X0\rper',(#315),#292,.F.) ;
#338=ADVANCED_FACE('Hauptk\X2\00F6\X0\rper',(#337),#321,.F.) ;
#345=ADVANCED_FACE('Hauptk\X2\00F6\X0\rper',(#344),#321,.F.) ;
#367=ADVANCED_FACE('Hauptk\X2\00F6\X0\rper',(#366),#350,.F.) ;
#374=ADVANCED_FACE('Hauptk\X2\00F6\X0\rper',(#373),#350,.F.) ;
#4=APPLICATION_PROTOCOL_DEFINITION('international standard','automotive_design',2001,#1) ;
#21=MANIFOLD_SOLID_BREP('Hauptk\X2\00F6\X0\rper',#31) ;
#170=CIRCLE('generated circle',#169,4.3) ;
#179=CIRCLE('generated circle',#178,4.3) ;
#188=CIRCLE('generated circle',#187,4.3) ;
#197=CIRCLE('generated circle',#196,4.3) ;
#206=CIRCLE('generated circle',#205,4.3) ;
#215=CIRCLE('generated circle',#214,4.3) ;
#236=CIRCLE('generated circle',#235,4.3) ;
#245=CIRCLE('generated circle',#244,4.3) ;
#254=CIRCLE('generated circle',#253,4.3) ;
#263=CIRCLE('generated circle',#262,4.3) ;
#272=CIRCLE('generated circle',#271,4.3) ;
#281=CIRCLE('generated circle',#280,4.3) ;
#22=COLOUR_RGB('Colour',0.690196078431,0.690196078431,0.690196078431) ;
#292=CYLINDRICAL_SURFACE('generated cylinder',#291,4.3) ;
#321=CYLINDRICAL_SURFACE('generated cylinder',#320,4.3) ;
#350=CYLINDRICAL_SURFACE('generated cylinder',#349,4.3) ;
#45=EDGE_CURVE('',#42,#44,#40,.T.) ;
#52=EDGE_CURVE('',#51,#44,#49,.T.) ;
#59=EDGE_CURVE('',#58,#51,#56,.T.) ;
#64=EDGE_CURVE('',#58,#42,#63,.T.) ;
#83=EDGE_CURVE('',#44,#82,#80,.T.) ;
#90=EDGE_CURVE('',#89,#82,#87,.T.) ;
#95=EDGE_CURVE('',#51,#89,#94,.T.) ;
#114=EDGE_CURVE('',#82,#113,#111,.F.) ;
#121=EDGE_CURVE('',#120,#113,#118,.T.) ;
#126=EDGE_CURVE('',#89,#120,#125,.F.) ;
#143=EDGE_CURVE('',#113,#42,#142,.F.) ;
#148=EDGE_CURVE('',#120,#58,#147,.F.) ;
#175=EDGE_CURVE('',#172,#174,#170,.T.) ;
#180=EDGE_CURVE('',#174,#172,#179,.T.) ;
#193=EDGE_CURVE('',#190,#192,#188,.T.) ;
#198=EDGE_CURVE('',#192,#190,#197,.T.) ;
#211=EDGE_CURVE('',#208,#210,#206,.T.) ;
#216=EDGE_CURVE('',#210,#208,#215,.T.) ;
#241=EDGE_CURVE('',#238,#240,#236,.T.) ;
#246=EDGE_CURVE('',#240,#238,#245,.T.) ;
#259=EDGE_CURVE('',#256,#258,#254,.T.) ;
#264=EDGE_CURVE('',#258,#256,#263,.T.) ;
#277=EDGE_CURVE('',#274,#276,#272,.T.) ;
#282=EDGE_CURVE('',#276,#274,#281,.T.) ;
#297=EDGE_CURVE('',#274,#210,#296,.F.) ;
#302=EDGE_CURVE('',#276,#208,#301,.F.) ;
#326=EDGE_CURVE('',#256,#192,#325,.F.) ;
#331=EDGE_CURVE('',#258,#190,#330,.F.) ;
#355=EDGE_CURVE('',#238,#174,#354,.F.) ;
#360=EDGE_CURVE('',#240,#172,#359,.F.) ;
#65=EDGE_LOOP('',(#66,#67,#68,#69)) ;
#96=EDGE_LOOP('',(#97,#98,#99,#100)) ;
#127=EDGE_LOOP('',(#128,#129,#130,#131)) ;
#149=EDGE_LOOP('',(#150,#151,#152,#153)) ;
#161=EDGE_LOOP('',(#162,#163,#164,#165)) ;
#181=EDGE_LOOP('',(#182,#183)) ;
#199=EDGE_LOOP('',(#200,#201)) ;
#217=EDGE_LOOP('',(#218,#219)) ;
#227=EDGE_LOOP('',(#228,#229,#230,#231)) ;
#247=EDGE_LOOP('',(#248,#249)) ;
#265=EDGE_LOOP('',(#266,#267)) ;
#283=EDGE_LOOP('',(#284,#285)) ;
#303=EDGE_LOOP('',(#304,#305,#306,#307)) ;
#310=EDGE_LOOP('',(#311,#312,#313,#314)) ;
#332=EDGE_LOOP('',(#333,#334,#335,#336)) ;
#339=EDGE_LOOP('',(#340,#341,#342,#343)) ;
#361=EDGE_LOOP('',(#362,#363,#364,#365)) ;
#368=EDGE_LOOP('',(#369,#370,#371,#372)) ;
#70=FACE_OUTER_BOUND('',#65,.T.) ;
#101=FACE_OUTER_BOUND('',#96,.T.) ;
#132=FACE_OUTER_BOUND('',#127,.T.) ;
#154=FACE_OUTER_BOUND('',#149,.T.) ;
#166=FACE_OUTER_BOUND('',#161,.T.) ;
#232=FACE_OUTER_BOUND('',#227,.T.) ;
#308=FACE_OUTER_BOUND('',#303,.T.) ;
#315=FACE_OUTER_BOUND('',#310,.T.) ;
#337=FACE_OUTER_BOUND('',#332,.T.) ;
#344=FACE_OUTER_BOUND('',#339,.T.) ;
#366=FACE_OUTER_BOUND('',#361,.T.) ;
#373=FACE_OUTER_BOUND('',#368,.T.) ;
#40=LINE('Line',#37,#39) ;
#49=LINE('Line',#46,#48) ;
#56=LINE('Line',#53,#55) ;
#63=LINE('Line',#60,#62) ;
#80=LINE('Line',#77,#79) ;
#87=LINE('Line',#84,#86) ;
#94=LINE('Line',#91,#93) ;
#111=LINE('Line',#108,#110) ;
#118=LINE('Line',#115,#117) ;
#125=LINE('Line',#122,#124) ;
#142=LINE('Line',#139,#141) ;
#147=LINE('Line',#144,#146) ;
#296=LINE('Line',#293,#295) ;
#301=LINE('Line',#298,#300) ;
#325=LINE('Line',#322,#324) ;
#330=LINE('Line',#327,#329) ;
#354=LINE('Line',#351,#353) ;
#359=LINE('Line',#356,#358) ;
#36=PLANE('',#35) ;
#76=PLANE('',#75) ;
#107=PLANE('',#106) ;
#138=PLANE('',#137) ;
#160=PLANE('',#159) ;
#226=PLANE('',#225) ;
#9=PRODUCT_CATEGORY_RELATIONSHIP(' ',' ',#7,#8) ;
#6=PRODUCT_DEFINITION_FORMATION_WITH_SPECIFIED_SOURCE('',' ',#5,.NOT_KNOWN.) ;
#20=SHAPE_DEFINITION_REPRESENTATION(#11,#19) ;
#42=VERTEX_POINT('',#41) ;
#44=VERTEX_POINT('',#43) ;
#51=VERTEX_POINT('',#50) ;
#58=VERTEX_POINT('',#57) ;
#82=VERTEX_POINT('',#81) ;
#89=VERTEX_POINT('',#88) ;
#113=VERTEX_POINT('',#112) ;
#120=VERTEX_POINT('',#119) ;
#172=VERTEX_POINT('',#171) ;
#174=VERTEX_POINT('',#173) ;
#190=VERTEX_POINT('',#189) ;
#192=VERTEX_POINT('',#191) ;
#208=VERTEX_POINT('',#207) ;
#210=VERTEX_POINT('',#209) ;
#238=VERTEX_POINT('',#237) ;
#240=VERTEX_POINT('',#239) ;
#256=VERTEX_POINT('',#255) ;
#258=VERTEX_POINT('',#257) ;
#274=VERTEX_POINT('',#273) ;
#276=VERTEX_POINT('',#275) ;
#12=(LENGTH_UNIT()NAMED_UNIT(*)SI_UNIT(.MILLI.,.METRE.)) ;
#13=(NAMED_UNIT(*)PLANE_ANGLE_UNIT()SI_UNIT($,.RADIAN.)) ;
#14=(NAMED_UNIT(*)SI_UNIT($,.STERADIAN.)SOLID_ANGLE_UNIT()) ;
#16=(GEOMETRIC_REPRESENTATION_CONTEXT(3)GLOBAL_UNCERTAINTY_ASSIGNED_CONTEXT((#15))GLOBAL_UNIT_ASSIGNED_CONTEXT((#12,#13,#14))REPRESENTATION_CONTEXT(' ',' ')) ;
ENDSEC;
END-ISO-10303-21;
