ISO-10303-21;
HEADER;
FILE_DESCRIPTION(('CATIA V5 STEP Exchange','CAx-IF Rec.Pracs.--- Model Styling and Organization---1.4--- 2014-01-23'),'2;1');

FILE_NAME ('001769-2_2_0318000000_0318000000.stp','2021-12-06T08:53:57+00:00',('none'),('Weidmueller'),'CATIA Version 5-6 Release 2016 SP3 HF44','CATIA V5 STEP AP214','none');

FILE_SCHEMA(('AUTOMOTIVE_DESIGN { 1 0 10303 214 1 1 1 1 }'));

ENDSEC;
DATA;
#5=PRODUCT('VH 19/6/4.2 SAKT1','','',(#2)) ;
#2=PRODUCT_CONTEXT(' ',#1,'mechanical') ;
#1=APPLICATION_CONTEXT('automotive design') ;
#10=PRODUCT_DEFINITION('',' ',#6,#3) ;
#3=PRODUCT_DEFINITION_CONTEXT('part definition',#1,' ') ;
#11=PRODUCT_DEFINITION_SHAPE(' ',' ',#10) ;
#176=MECHANICAL_DESIGN_GEOMETRIC_PRESENTATION_REPRESENTATION(' ',(#29),#16) ;
#19=SHAPE_REPRESENTATION(' ',(#18),#16) ;
#18=AXIS2_PLACEMENT_3D(' ',#17,$,$) ;
#35=AXIS2_PLACEMENT_3D('Cylinder Axis2P3D',#32,#33,#34) ;
#39=AXIS2_PLACEMENT_3D('Circle Axis2P3D',#37,#38,$) ;
#55=AXIS2_PLACEMENT_3D('Circle Axis2P3D',#53,#54,$) ;
#74=AXIS2_PLACEMENT_3D('Circle Axis2P3D',#72,#73,$) ;
#79=AXIS2_PLACEMENT_3D('Circle Axis2P3D',#77,#78,$) ;
#92=AXIS2_PLACEMENT_3D('Plane Axis2P3D',#89,#90,#91) ;
#96=AXIS2_PLACEMENT_3D('Circle Axis2P3D',#94,#95,$) ;
#105=AXIS2_PLACEMENT_3D('Circle Axis2P3D',#103,#104,$) ;
#120=AXIS2_PLACEMENT_3D('Cylinder Axis2P3D',#117,#118,#119) ;
#131=AXIS2_PLACEMENT_3D('Circle Axis2P3D',#129,#130,$) ;
#150=AXIS2_PLACEMENT_3D('Circle Axis2P3D',#148,#149,$) ;
#163=AXIS2_PLACEMENT_3D('Plane Axis2P3D',#160,#161,#162) ;
#17=CARTESIAN_POINT(' ',(0.,0.,0.)) ;
#32=CARTESIAN_POINT('Axis2P3D Location',(3.,3.,18.9)) ;
#37=CARTESIAN_POINT('Axis2P3D Location',(3.,3.,19.)) ;
#41=CARTESIAN_POINT('Vertex',(1.15707662003,4.00679363107,19.)) ;
#43=CARTESIAN_POINT('Vertex',(4.84292337997,1.99320636893,19.)) ;
#46=CARTESIAN_POINT('Line Origine',(1.15707662003,4.00679363107,9.6550000001)) ;
#50=CARTESIAN_POINT('Vertex',(1.15707662003,4.00679363107,-4.23574283466E-016)) ;
#53=CARTESIAN_POINT('Axis2P3D Location',(3.,3.,0.)) ;
#57=CARTESIAN_POINT('Vertex',(4.84292337997,1.99320636893,8.28461466192E-016)) ;
#60=CARTESIAN_POINT('Line Origine',(4.84292337997,1.99320636893,9.6550000001)) ;
#72=CARTESIAN_POINT('Axis2P3D Location',(3.,3.,19.)) ;
#77=CARTESIAN_POINT('Axis2P3D Location',(3.,3.,0.)) ;
#89=CARTESIAN_POINT('Axis2P3D Location',(3.,3.,0.)) ;
#94=CARTESIAN_POINT('Axis2P3D Location',(3.,3.,-1.74677093891E-047)) ;
#98=CARTESIAN_POINT('Vertex',(4.43827661581,5.63274768567,6.68717517803E-016)) ;
#100=CARTESIAN_POINT('Vertex',(1.56172338419,0.367252314329,2.883996161E-015)) ;
#103=CARTESIAN_POINT('Axis2P3D Location',(3.,3.,-1.74677093891E-047)) ;
#117=CARTESIAN_POINT('Axis2P3D Location',(3.,3.,9.5)) ;
#122=CARTESIAN_POINT('Line Origine',(4.43827661581,5.63274768567,9.5)) ;
#126=CARTESIAN_POINT('Vertex',(4.43827661581,5.63274768567,19.)) ;
#129=CARTESIAN_POINT('Axis2P3D Location',(3.,3.,19.)) ;
#133=CARTESIAN_POINT('Vertex',(1.56172338419,0.367252314329,19.)) ;
#136=CARTESIAN_POINT('Line Origine',(1.56172338419,0.367252314329,9.5)) ;
#148=CARTESIAN_POINT('Axis2P3D Location',(3.,3.,19.)) ;
#160=CARTESIAN_POINT('Axis2P3D Location',(3.,6.,19.)) ;
#33=DIRECTION('Axis2P3D Direction',(0.,-8.22871182957E-016,-1.)) ;
#34=DIRECTION('Axis2P3D XDirection',(0.87758256189,-0.479425538604,3.94505460091E-016)) ;
#38=DIRECTION('Axis2P3D Direction',(0.,-8.22871182957E-016,-1.)) ;
#47=DIRECTION('Vector Direction',(0.,-8.2792395414E-016,-1.)) ;
#54=DIRECTION('Axis2P3D Direction',(0.,-8.22871182957E-016,-1.)) ;
#61=DIRECTION('Vector Direction',(0.,-8.2792395414E-016,-1.)) ;
#73=DIRECTION('Axis2P3D Direction',(0.,-8.22871182957E-016,-1.)) ;
#78=DIRECTION('Axis2P3D Direction',(0.,-8.22871182957E-016,-1.)) ;
#90=DIRECTION('Axis2P3D Direction',(0.,-4.20716093542E-016,-1.)) ;
#91=DIRECTION('Axis2P3D XDirection',(1.,0.,0.)) ;
#95=DIRECTION('Axis2P3D Direction',(0.,-4.20716093542E-016,-1.)) ;
#104=DIRECTION('Axis2P3D Direction',(0.,-4.20716093542E-016,-1.)) ;
#118=DIRECTION('Axis2P3D Direction',(0.,-4.20716093542E-016,-1.)) ;
#119=DIRECTION('Axis2P3D XDirection',(0.479425538604,0.87758256189,-3.69213107199E-016)) ;
#123=DIRECTION('Vector Direction',(0.,-4.20716093542E-016,-1.)) ;
#130=DIRECTION('Axis2P3D Direction',(0.,-4.20716093542E-016,-1.)) ;
#137=DIRECTION('Vector Direction',(0.,-4.20716093542E-016,-1.)) ;
#149=DIRECTION('Axis2P3D Direction',(0.,-4.20716093542E-016,-1.)) ;
#161=DIRECTION('Axis2P3D Direction',(0.,-4.20716093542E-016,-1.)) ;
#162=DIRECTION('Axis2P3D XDirection',(1.,0.,0.)) ;
#30=PRESENTATION_LAYER_ASSIGNMENT('1',' ',(#21)) ;
#8=PRODUCT_RELATED_PRODUCT_CATEGORY('part',$,(#5)) ;
#7=PRODUCT_CATEGORY('part','specification') ;
#29=STYLED_ITEM(' ',(#28),#21) ;
#28=PRESENTATION_STYLE_ASSIGNMENT((#27)) ;
#27=SURFACE_STYLE_USAGE(.BOTH.,#26) ;
#26=SURFACE_SIDE_STYLE(' ',(#25)) ;
#25=SURFACE_STYLE_FILL_AREA(#24) ;
#24=FILL_AREA_STYLE(' ',(#23)) ;
#23=FILL_AREA_STYLE_COLOUR(' ',#22) ;
#48=VECTOR('Line Direction',#47,1.) ;
#62=VECTOR('Line Direction',#61,1.) ;
#124=VECTOR('Line Direction',#123,1.) ;
#138=VECTOR('Line Direction',#137,1.) ;
#15=UNCERTAINTY_MEASURE_WITH_UNIT(LENGTH_MEASURE(0.005),#12,'distance_accuracy_value','CONFUSED CURVE UNCERTAINTY') ;
#175=SHAPE_REPRESENTATION_RELATIONSHIP(' ',' ',#19,#174) ;
#66=ORIENTED_EDGE('',*,*,#45,.F.) ;
#67=ORIENTED_EDGE('',*,*,#52,.F.) ;
#68=ORIENTED_EDGE('',*,*,#59,.T.) ;
#69=ORIENTED_EDGE('',*,*,#64,.T.) ;
#83=ORIENTED_EDGE('',*,*,#76,.F.) ;
#84=ORIENTED_EDGE('',*,*,#64,.F.) ;
#85=ORIENTED_EDGE('',*,*,#81,.T.) ;
#86=ORIENTED_EDGE('',*,*,#52,.T.) ;
#109=ORIENTED_EDGE('',*,*,#102,.T.) ;
#110=ORIENTED_EDGE('',*,*,#107,.T.) ;
#113=ORIENTED_EDGE('',*,*,#81,.F.) ;
#114=ORIENTED_EDGE('',*,*,#59,.F.) ;
#142=ORIENTED_EDGE('',*,*,#102,.F.) ;
#143=ORIENTED_EDGE('',*,*,#128,.T.) ;
#144=ORIENTED_EDGE('',*,*,#135,.T.) ;
#145=ORIENTED_EDGE('',*,*,#140,.F.) ;
#154=ORIENTED_EDGE('',*,*,#107,.F.) ;
#155=ORIENTED_EDGE('',*,*,#140,.T.) ;
#156=ORIENTED_EDGE('',*,*,#152,.T.) ;
#157=ORIENTED_EDGE('',*,*,#128,.F.) ;
#166=ORIENTED_EDGE('',*,*,#135,.F.) ;
#167=ORIENTED_EDGE('',*,*,#152,.F.) ;
#170=ORIENTED_EDGE('',*,*,#45,.T.) ;
#171=ORIENTED_EDGE('',*,*,#76,.T.) ;
#115=FACE_BOUND('',#112,.T.) ;
#172=FACE_BOUND('',#169,.T.) ;
#31=CLOSED_SHELL('Closed Shell',(#71,#88,#116,#147,#159,#173)) ;
#174=ADVANCED_BREP_SHAPE_REPRESENTATION('NONE',(#21),#16) ;
#71=ADVANCED_FACE('K\X2\00F6\X0\rper.3',(#70),#36,.F.) ;
#88=ADVANCED_FACE('K\X2\00F6\X0\rper.3',(#87),#36,.F.) ;
#116=ADVANCED_FACE('K\X2\00F6\X0\rper.3',(#111,#115),#93,.T.) ;
#147=ADVANCED_FACE('K\X2\00F6\X0\rper.3',(#146),#121,.T.) ;
#159=ADVANCED_FACE('K\X2\00F6\X0\rper.3',(#158),#121,.T.) ;
#173=ADVANCED_FACE('K\X2\00F6\X0\rper.3',(#168,#172),#164,.F.) ;
#4=APPLICATION_PROTOCOL_DEFINITION('international standard','automotive_design',2001,#1) ;
#21=MANIFOLD_SOLID_BREP('K\X2\00F6\X0\rper.3',#31) ;
#40=CIRCLE('generated circle',#39,2.1) ;
#56=CIRCLE('generated circle',#55,2.1) ;
#75=CIRCLE('generated circle',#74,2.1) ;
#80=CIRCLE('generated circle',#79,2.1) ;
#97=CIRCLE('generated circle',#96,3.) ;
#106=CIRCLE('generated circle',#105,3.) ;
#132=CIRCLE('generated circle',#131,3.) ;
#151=CIRCLE('generated circle',#150,3.) ;
#22=COLOUR_RGB('Colour',0.823529411765,0.823529411765,1.) ;
#36=CYLINDRICAL_SURFACE('generated cylinder',#35,2.1) ;
#121=CYLINDRICAL_SURFACE('generated cylinder',#120,3.) ;
#45=EDGE_CURVE('',#42,#44,#40,.T.) ;
#52=EDGE_CURVE('',#51,#42,#49,.F.) ;
#59=EDGE_CURVE('',#51,#58,#56,.T.) ;
#64=EDGE_CURVE('',#58,#44,#63,.F.) ;
#76=EDGE_CURVE('',#44,#42,#75,.T.) ;
#81=EDGE_CURVE('',#58,#51,#80,.T.) ;
#102=EDGE_CURVE('',#99,#101,#97,.T.) ;
#107=EDGE_CURVE('',#101,#99,#106,.T.) ;
#128=EDGE_CURVE('',#99,#127,#125,.F.) ;
#135=EDGE_CURVE('',#127,#134,#132,.T.) ;
#140=EDGE_CURVE('',#101,#134,#139,.F.) ;
#152=EDGE_CURVE('',#134,#127,#151,.T.) ;
#65=EDGE_LOOP('',(#66,#67,#68,#69)) ;
#82=EDGE_LOOP('',(#83,#84,#85,#86)) ;
#108=EDGE_LOOP('',(#109,#110)) ;
#112=EDGE_LOOP('',(#113,#114)) ;
#141=EDGE_LOOP('',(#142,#143,#144,#145)) ;
#153=EDGE_LOOP('',(#154,#155,#156,#157)) ;
#165=EDGE_LOOP('',(#166,#167)) ;
#169=EDGE_LOOP('',(#170,#171)) ;
#70=FACE_OUTER_BOUND('',#65,.T.) ;
#87=FACE_OUTER_BOUND('',#82,.T.) ;
#111=FACE_OUTER_BOUND('',#108,.T.) ;
#146=FACE_OUTER_BOUND('',#141,.T.) ;
#158=FACE_OUTER_BOUND('',#153,.T.) ;
#168=FACE_OUTER_BOUND('',#165,.T.) ;
#49=LINE('Line',#46,#48) ;
#63=LINE('Line',#60,#62) ;
#125=LINE('Line',#122,#124) ;
#139=LINE('Line',#136,#138) ;
#93=PLANE('',#92) ;
#164=PLANE('',#163) ;
#9=PRODUCT_CATEGORY_RELATIONSHIP(' ',' ',#7,#8) ;
#6=PRODUCT_DEFINITION_FORMATION_WITH_SPECIFIED_SOURCE('',' ',#5,.NOT_KNOWN.) ;
#20=SHAPE_DEFINITION_REPRESENTATION(#11,#19) ;
#42=VERTEX_POINT('',#41) ;
#44=VERTEX_POINT('',#43) ;
#51=VERTEX_POINT('',#50) ;
#58=VERTEX_POINT('',#57) ;
#99=VERTEX_POINT('',#98) ;
#101=VERTEX_POINT('',#100) ;
#127=VERTEX_POINT('',#126) ;
#134=VERTEX_POINT('',#133) ;
#12=(LENGTH_UNIT()NAMED_UNIT(*)SI_UNIT(.MILLI.,.METRE.)) ;
#13=(NAMED_UNIT(*)PLANE_ANGLE_UNIT()SI_UNIT($,.RADIAN.)) ;
#14=(NAMED_UNIT(*)SI_UNIT($,.STERADIAN.)SOLID_ANGLE_UNIT()) ;
#16=(GEOMETRIC_REPRESENTATION_CONTEXT(3)GLOBAL_UNCERTAINTY_ASSIGNED_CONTEXT((#15))GLOBAL_UNIT_ASSIGNED_CONTEXT((#12,#13,#14))REPRESENTATION_CONTEXT(' ',' ')) ;
ENDSEC;
END-ISO-10303-21;
