ISO-10303-21;
HEADER;
FILE_DESCRIPTION(('CATIA V5 STEP Exchange','CAx-IF Rec.Pracs.--- Model Styling and Organization---1.4--- 2014-01-23'),'2;1');

FILE_NAME ('193401-1_0_2557200000_2557200000.stp','2023-03-20T17:39:21+00:00',('none'),('Weidmueller'),'CATIA Version 5-6 Release 2016 SP3 HF44','CATIA V5 STEP AP214','none');

FILE_SCHEMA(('AUTOMOTIVE_DESIGN { 1 0 10303 214 1 1 1 1 }'));

ENDSEC;
DATA;
#5=PRODUCT('Simple-3D FilterFan','','',(#2)) ;
#2=PRODUCT_CONTEXT(' ',#1,'mechanical') ;
#1=APPLICATION_CONTEXT('automotive design') ;
#10=PRODUCT_DEFINITION('',' ',#6,#3) ;
#3=PRODUCT_DEFINITION_CONTEXT('part definition',#1,' ') ;
#11=PRODUCT_DEFINITION_SHAPE(' ',' ',#10) ;
#455=MECHANICAL_DESIGN_GEOMETRIC_PRESENTATION_REPRESENTATION(' ',(#29),#16) ;
#19=SHAPE_REPRESENTATION(' ',(#18),#16) ;
#18=AXIS2_PLACEMENT_3D(' ',#17,$,$) ;
#34=AXIS2_PLACEMENT_3D('Plane Axis2P3D',#31,#32,#33) ;
#74=AXIS2_PLACEMENT_3D('Plane Axis2P3D',#71,#72,#73) ;
#105=AXIS2_PLACEMENT_3D('Plane Axis2P3D',#102,#103,#104) ;
#129=AXIS2_PLACEMENT_3D('Plane Axis2P3D',#126,#127,#128) ;
#153=AXIS2_PLACEMENT_3D('Plane Axis2P3D',#150,#151,#152) ;
#193=AXIS2_PLACEMENT_3D('Plane Axis2P3D',#190,#191,#192) ;
#224=AXIS2_PLACEMENT_3D('Plane Axis2P3D',#221,#222,#223) ;
#282=AXIS2_PLACEMENT_3D('Plane Axis2P3D',#279,#280,#281) ;
#306=AXIS2_PLACEMENT_3D('Plane Axis2P3D',#303,#304,#305) ;
#323=AXIS2_PLACEMENT_3D('Plane Axis2P3D',#320,#321,#322) ;
#335=AXIS2_PLACEMENT_3D('Plane Axis2P3D',#332,#333,#334) ;
#366=AXIS2_PLACEMENT_3D('Plane Axis2P3D',#363,#364,#365) ;
#390=AXIS2_PLACEMENT_3D('Plane Axis2P3D',#387,#388,#389) ;
#414=AXIS2_PLACEMENT_3D('Plane Axis2P3D',#411,#412,#413) ;
#440=AXIS2_PLACEMENT_3D('Plane Axis2P3D',#437,#438,#439) ;
#17=CARTESIAN_POINT(' ',(0.,0.,0.)) ;
#31=CARTESIAN_POINT('Axis2P3D Location',(106.,252.,36.7)) ;
#36=CARTESIAN_POINT('Line Origine',(106.,252.,37.35)) ;
#40=CARTESIAN_POINT('Vertex',(106.,252.,36.7)) ;
#42=CARTESIAN_POINT('Vertex',(106.,252.,38.)) ;
#45=CARTESIAN_POINT('Line Origine',(106.,245.875,36.7)) ;
#49=CARTESIAN_POINT('Vertex',(106.,239.75,36.7)) ;
#52=CARTESIAN_POINT('Line Origine',(106.,239.75,37.35)) ;
#56=CARTESIAN_POINT('Vertex',(106.,239.75,38.)) ;
#59=CARTESIAN_POINT('Line Origine',(106.,245.875,38.)) ;
#71=CARTESIAN_POINT('Axis2P3D Location',(146.,239.75,36.7)) ;
#76=CARTESIAN_POINT('Line Origine',(126.,239.75,36.7)) ;
#80=CARTESIAN_POINT('Vertex',(146.,239.75,36.7)) ;
#83=CARTESIAN_POINT('Line Origine',(146.,239.75,37.35)) ;
#87=CARTESIAN_POINT('Vertex',(146.,239.75,38.)) ;
#90=CARTESIAN_POINT('Line Origine',(126.,239.75,38.)) ;
#102=CARTESIAN_POINT('Axis2P3D Location',(126.,126.,38.)) ;
#107=CARTESIAN_POINT('Line Origine',(146.,245.875,38.)) ;
#111=CARTESIAN_POINT('Vertex',(146.,252.,38.)) ;
#114=CARTESIAN_POINT('Line Origine',(126.,252.,38.)) ;
#126=CARTESIAN_POINT('Axis2P3D Location',(146.,239.75,36.7)) ;
#131=CARTESIAN_POINT('Line Origine',(146.,245.875,36.7)) ;
#135=CARTESIAN_POINT('Vertex',(146.,252.,36.7)) ;
#138=CARTESIAN_POINT('Line Origine',(146.,252.,37.35)) ;
#150=CARTESIAN_POINT('Axis2P3D Location',(15.5,236.5,30.5)) ;
#155=CARTESIAN_POINT('Line Origine',(15.5,126.,0.)) ;
#159=CARTESIAN_POINT('Vertex',(15.5,236.5,0.)) ;
#161=CARTESIAN_POINT('Vertex',(15.5,15.5,0.)) ;
#164=CARTESIAN_POINT('Line Origine',(15.5,15.5,15.25)) ;
#168=CARTESIAN_POINT('Vertex',(15.5,15.5,30.5)) ;
#171=CARTESIAN_POINT('Line Origine',(15.5,126.,30.5)) ;
#175=CARTESIAN_POINT('Vertex',(15.5,236.5,30.5)) ;
#178=CARTESIAN_POINT('Line Origine',(15.5,236.5,15.25)) ;
#190=CARTESIAN_POINT('Axis2P3D Location',(15.5,236.5,30.5)) ;
#195=CARTESIAN_POINT('Line Origine',(126.,236.5,0.)) ;
#199=CARTESIAN_POINT('Vertex',(236.5,236.5,0.)) ;
#202=CARTESIAN_POINT('Line Origine',(126.,236.5,30.5)) ;
#206=CARTESIAN_POINT('Vertex',(236.5,236.5,30.5)) ;
#209=CARTESIAN_POINT('Line Origine',(236.5,236.5,15.25)) ;
#221=CARTESIAN_POINT('Axis2P3D Location',(126.,126.,30.5)) ;
#226=CARTESIAN_POINT('Line Origine',(126.,252.,30.5)) ;
#230=CARTESIAN_POINT('Vertex',(252.,252.,30.5)) ;
#232=CARTESIAN_POINT('Vertex',(0.,252.,30.5)) ;
#235=CARTESIAN_POINT('Line Origine',(252.,126.,30.5)) ;
#239=CARTESIAN_POINT('Vertex',(252.,0.,30.5)) ;
#242=CARTESIAN_POINT('Line Origine',(126.,0.,30.5)) ;
#246=CARTESIAN_POINT('Vertex',(0.,0.,30.5)) ;
#249=CARTESIAN_POINT('Line Origine',(0.,126.,30.5)) ;
#260=CARTESIAN_POINT('Line Origine',(126.,15.5,30.5)) ;
#264=CARTESIAN_POINT('Vertex',(236.5,15.5,30.5)) ;
#267=CARTESIAN_POINT('Line Origine',(236.5,126.,30.5)) ;
#279=CARTESIAN_POINT('Axis2P3D Location',(236.5,15.5,30.5)) ;
#284=CARTESIAN_POINT('Line Origine',(126.,15.5,0.)) ;
#288=CARTESIAN_POINT('Vertex',(236.5,15.5,0.)) ;
#291=CARTESIAN_POINT('Line Origine',(236.5,15.5,15.25)) ;
#303=CARTESIAN_POINT('Axis2P3D Location',(126.,126.,0.)) ;
#308=CARTESIAN_POINT('Line Origine',(236.5,126.,0.)) ;
#320=CARTESIAN_POINT('Axis2P3D Location',(236.5,15.5,30.5)) ;
#332=CARTESIAN_POINT('Axis2P3D Location',(0.,252.,30.5)) ;
#337=CARTESIAN_POINT('Line Origine',(0.,252.,33.6)) ;
#341=CARTESIAN_POINT('Vertex',(0.,252.,36.7)) ;
#344=CARTESIAN_POINT('Line Origine',(0.,0.,33.6)) ;
#348=CARTESIAN_POINT('Vertex',(0.,0.,36.7)) ;
#351=CARTESIAN_POINT('Line Origine',(0.,126.,36.7)) ;
#363=CARTESIAN_POINT('Axis2P3D Location',(252.,0.,30.5)) ;
#368=CARTESIAN_POINT('Line Origine',(252.,0.,33.6)) ;
#372=CARTESIAN_POINT('Vertex',(252.,0.,36.7)) ;
#375=CARTESIAN_POINT('Line Origine',(126.,0.,36.7)) ;
#387=CARTESIAN_POINT('Axis2P3D Location',(252.,0.,30.5)) ;
#392=CARTESIAN_POINT('Line Origine',(252.,252.,33.6)) ;
#396=CARTESIAN_POINT('Vertex',(252.,252.,36.7)) ;
#399=CARTESIAN_POINT('Line Origine',(252.,126.,36.7)) ;
#411=CARTESIAN_POINT('Axis2P3D Location',(126.,126.,36.7)) ;
#416=CARTESIAN_POINT('Line Origine',(53.,252.,36.7)) ;
#421=CARTESIAN_POINT('Line Origine',(199.,252.,36.7)) ;
#437=CARTESIAN_POINT('Axis2P3D Location',(0.,252.,30.5)) ;
#32=DIRECTION('Axis2P3D Direction',(-1.,0.,0.)) ;
#33=DIRECTION('Axis2P3D XDirection',(0.,-1.,0.)) ;
#37=DIRECTION('Vector Direction',(0.,0.,1.)) ;
#46=DIRECTION('Vector Direction',(0.,-1.,0.)) ;
#53=DIRECTION('Vector Direction',(0.,0.,1.)) ;
#60=DIRECTION('Vector Direction',(0.,-1.,0.)) ;
#72=DIRECTION('Axis2P3D Direction',(0.,1.,-0.)) ;
#73=DIRECTION('Axis2P3D XDirection',(-1.,0.,0.)) ;
#77=DIRECTION('Vector Direction',(-1.,0.,0.)) ;
#84=DIRECTION('Vector Direction',(0.,0.,1.)) ;
#91=DIRECTION('Vector Direction',(-1.,0.,0.)) ;
#103=DIRECTION('Axis2P3D Direction',(0.,0.,1.)) ;
#104=DIRECTION('Axis2P3D XDirection',(1.,0.,0.)) ;
#108=DIRECTION('Vector Direction',(0.,1.,0.)) ;
#115=DIRECTION('Vector Direction',(1.,0.,0.)) ;
#127=DIRECTION('Axis2P3D Direction',(1.,0.,0.)) ;
#128=DIRECTION('Axis2P3D XDirection',(0.,1.,0.)) ;
#132=DIRECTION('Vector Direction',(0.,1.,0.)) ;
#139=DIRECTION('Vector Direction',(0.,0.,1.)) ;
#151=DIRECTION('Axis2P3D Direction',(1.,0.,0.)) ;
#152=DIRECTION('Axis2P3D XDirection',(0.,-1.,0.)) ;
#156=DIRECTION('Vector Direction',(0.,-1.,0.)) ;
#165=DIRECTION('Vector Direction',(0.,0.,-1.)) ;
#172=DIRECTION('Vector Direction',(0.,-1.,0.)) ;
#179=DIRECTION('Vector Direction',(0.,0.,-1.)) ;
#191=DIRECTION('Axis2P3D Direction',(-0.,1.,0.)) ;
#192=DIRECTION('Axis2P3D XDirection',(1.,0.,0.)) ;
#196=DIRECTION('Vector Direction',(1.,0.,0.)) ;
#203=DIRECTION('Vector Direction',(1.,0.,0.)) ;
#210=DIRECTION('Vector Direction',(0.,0.,-1.)) ;
#222=DIRECTION('Axis2P3D Direction',(0.,0.,1.)) ;
#223=DIRECTION('Axis2P3D XDirection',(1.,0.,0.)) ;
#227=DIRECTION('Vector Direction',(1.,0.,0.)) ;
#236=DIRECTION('Vector Direction',(0.,1.,0.)) ;
#243=DIRECTION('Vector Direction',(-1.,0.,0.)) ;
#250=DIRECTION('Vector Direction',(0.,-1.,0.)) ;
#261=DIRECTION('Vector Direction',(-1.,0.,0.)) ;
#268=DIRECTION('Vector Direction',(0.,1.,0.)) ;
#280=DIRECTION('Axis2P3D Direction',(-0.,-1.,-0.)) ;
#281=DIRECTION('Axis2P3D XDirection',(-1.,0.,0.)) ;
#285=DIRECTION('Vector Direction',(-1.,0.,0.)) ;
#292=DIRECTION('Vector Direction',(0.,0.,-1.)) ;
#304=DIRECTION('Axis2P3D Direction',(0.,0.,1.)) ;
#305=DIRECTION('Axis2P3D XDirection',(1.,0.,0.)) ;
#309=DIRECTION('Vector Direction',(0.,1.,0.)) ;
#321=DIRECTION('Axis2P3D Direction',(-1.,0.,0.)) ;
#322=DIRECTION('Axis2P3D XDirection',(0.,1.,0.)) ;
#333=DIRECTION('Axis2P3D Direction',(-1.,0.,0.)) ;
#334=DIRECTION('Axis2P3D XDirection',(0.,-1.,0.)) ;
#338=DIRECTION('Vector Direction',(0.,0.,1.)) ;
#345=DIRECTION('Vector Direction',(0.,0.,1.)) ;
#352=DIRECTION('Vector Direction',(0.,-1.,0.)) ;
#364=DIRECTION('Axis2P3D Direction',(0.,1.,-0.)) ;
#365=DIRECTION('Axis2P3D XDirection',(-1.,0.,0.)) ;
#369=DIRECTION('Vector Direction',(0.,0.,1.)) ;
#376=DIRECTION('Vector Direction',(-1.,0.,0.)) ;
#388=DIRECTION('Axis2P3D Direction',(1.,0.,0.)) ;
#389=DIRECTION('Axis2P3D XDirection',(0.,1.,0.)) ;
#393=DIRECTION('Vector Direction',(0.,0.,1.)) ;
#400=DIRECTION('Vector Direction',(0.,1.,0.)) ;
#412=DIRECTION('Axis2P3D Direction',(0.,0.,1.)) ;
#413=DIRECTION('Axis2P3D XDirection',(1.,0.,0.)) ;
#417=DIRECTION('Vector Direction',(1.,0.,0.)) ;
#422=DIRECTION('Vector Direction',(1.,0.,0.)) ;
#438=DIRECTION('Axis2P3D Direction',(0.,-1.,0.)) ;
#439=DIRECTION('Axis2P3D XDirection',(1.,0.,0.)) ;
#8=PRODUCT_RELATED_PRODUCT_CATEGORY('part',$,(#5)) ;
#7=PRODUCT_CATEGORY('part','specification') ;
#29=STYLED_ITEM(' ',(#28),#21) ;
#28=PRESENTATION_STYLE_ASSIGNMENT((#27)) ;
#27=SURFACE_STYLE_USAGE(.BOTH.,#26) ;
#26=SURFACE_SIDE_STYLE(' ',(#25)) ;
#25=SURFACE_STYLE_FILL_AREA(#24) ;
#24=FILL_AREA_STYLE(' ',(#23)) ;
#23=FILL_AREA_STYLE_COLOUR(' ',#22) ;
#38=VECTOR('Line Direction',#37,1.) ;
#47=VECTOR('Line Direction',#46,1.) ;
#54=VECTOR('Line Direction',#53,1.) ;
#61=VECTOR('Line Direction',#60,1.) ;
#78=VECTOR('Line Direction',#77,1.) ;
#85=VECTOR('Line Direction',#84,1.) ;
#92=VECTOR('Line Direction',#91,1.) ;
#109=VECTOR('Line Direction',#108,1.) ;
#116=VECTOR('Line Direction',#115,1.) ;
#133=VECTOR('Line Direction',#132,1.) ;
#140=VECTOR('Line Direction',#139,1.) ;
#157=VECTOR('Line Direction',#156,1.) ;
#166=VECTOR('Line Direction',#165,1.) ;
#173=VECTOR('Line Direction',#172,1.) ;
#180=VECTOR('Line Direction',#179,1.) ;
#197=VECTOR('Line Direction',#196,1.) ;
#204=VECTOR('Line Direction',#203,1.) ;
#211=VECTOR('Line Direction',#210,1.) ;
#228=VECTOR('Line Direction',#227,1.) ;
#237=VECTOR('Line Direction',#236,1.) ;
#244=VECTOR('Line Direction',#243,1.) ;
#251=VECTOR('Line Direction',#250,1.) ;
#262=VECTOR('Line Direction',#261,1.) ;
#269=VECTOR('Line Direction',#268,1.) ;
#286=VECTOR('Line Direction',#285,1.) ;
#293=VECTOR('Line Direction',#292,1.) ;
#310=VECTOR('Line Direction',#309,1.) ;
#339=VECTOR('Line Direction',#338,1.) ;
#346=VECTOR('Line Direction',#345,1.) ;
#353=VECTOR('Line Direction',#352,1.) ;
#370=VECTOR('Line Direction',#369,1.) ;
#377=VECTOR('Line Direction',#376,1.) ;
#394=VECTOR('Line Direction',#393,1.) ;
#401=VECTOR('Line Direction',#400,1.) ;
#418=VECTOR('Line Direction',#417,1.) ;
#423=VECTOR('Line Direction',#422,1.) ;
#15=UNCERTAINTY_MEASURE_WITH_UNIT(LENGTH_MEASURE(0.005),#12,'distance_accuracy_value','CONFUSED CURVE UNCERTAINTY') ;
#454=SHAPE_REPRESENTATION_RELATIONSHIP(' ',' ',#19,#453) ;
#65=ORIENTED_EDGE('',*,*,#44,.F.) ;
#66=ORIENTED_EDGE('',*,*,#51,.T.) ;
#67=ORIENTED_EDGE('',*,*,#58,.T.) ;
#68=ORIENTED_EDGE('',*,*,#63,.F.) ;
#96=ORIENTED_EDGE('',*,*,#58,.F.) ;
#97=ORIENTED_EDGE('',*,*,#82,.T.) ;
#98=ORIENTED_EDGE('',*,*,#89,.T.) ;
#99=ORIENTED_EDGE('',*,*,#94,.F.) ;
#120=ORIENTED_EDGE('',*,*,#63,.T.) ;
#121=ORIENTED_EDGE('',*,*,#94,.T.) ;
#122=ORIENTED_EDGE('',*,*,#113,.T.) ;
#123=ORIENTED_EDGE('',*,*,#118,.T.) ;
#144=ORIENTED_EDGE('',*,*,#89,.F.) ;
#145=ORIENTED_EDGE('',*,*,#137,.T.) ;
#146=ORIENTED_EDGE('',*,*,#142,.T.) ;
#147=ORIENTED_EDGE('',*,*,#113,.F.) ;
#184=ORIENTED_EDGE('',*,*,#163,.T.) ;
#185=ORIENTED_EDGE('',*,*,#170,.F.) ;
#186=ORIENTED_EDGE('',*,*,#177,.F.) ;
#187=ORIENTED_EDGE('',*,*,#182,.T.) ;
#215=ORIENTED_EDGE('',*,*,#201,.T.) ;
#216=ORIENTED_EDGE('',*,*,#182,.F.) ;
#217=ORIENTED_EDGE('',*,*,#208,.F.) ;
#218=ORIENTED_EDGE('',*,*,#213,.T.) ;
#255=ORIENTED_EDGE('',*,*,#234,.F.) ;
#256=ORIENTED_EDGE('',*,*,#241,.F.) ;
#257=ORIENTED_EDGE('',*,*,#248,.F.) ;
#258=ORIENTED_EDGE('',*,*,#253,.F.) ;
#273=ORIENTED_EDGE('',*,*,#208,.T.) ;
#274=ORIENTED_EDGE('',*,*,#177,.T.) ;
#275=ORIENTED_EDGE('',*,*,#266,.T.) ;
#276=ORIENTED_EDGE('',*,*,#271,.T.) ;
#297=ORIENTED_EDGE('',*,*,#290,.T.) ;
#298=ORIENTED_EDGE('',*,*,#295,.F.) ;
#299=ORIENTED_EDGE('',*,*,#266,.F.) ;
#300=ORIENTED_EDGE('',*,*,#170,.T.) ;
#314=ORIENTED_EDGE('',*,*,#201,.F.) ;
#315=ORIENTED_EDGE('',*,*,#312,.F.) ;
#316=ORIENTED_EDGE('',*,*,#290,.F.) ;
#317=ORIENTED_EDGE('',*,*,#163,.F.) ;
#326=ORIENTED_EDGE('',*,*,#312,.T.) ;
#327=ORIENTED_EDGE('',*,*,#213,.F.) ;
#328=ORIENTED_EDGE('',*,*,#271,.F.) ;
#329=ORIENTED_EDGE('',*,*,#295,.T.) ;
#357=ORIENTED_EDGE('',*,*,#343,.F.) ;
#358=ORIENTED_EDGE('',*,*,#253,.T.) ;
#359=ORIENTED_EDGE('',*,*,#350,.T.) ;
#360=ORIENTED_EDGE('',*,*,#355,.F.) ;
#381=ORIENTED_EDGE('',*,*,#350,.F.) ;
#382=ORIENTED_EDGE('',*,*,#248,.T.) ;
#383=ORIENTED_EDGE('',*,*,#374,.T.) ;
#384=ORIENTED_EDGE('',*,*,#379,.F.) ;
#405=ORIENTED_EDGE('',*,*,#374,.F.) ;
#406=ORIENTED_EDGE('',*,*,#241,.T.) ;
#407=ORIENTED_EDGE('',*,*,#398,.T.) ;
#408=ORIENTED_EDGE('',*,*,#403,.F.) ;
#427=ORIENTED_EDGE('',*,*,#420,.T.) ;
#428=ORIENTED_EDGE('',*,*,#355,.T.) ;
#429=ORIENTED_EDGE('',*,*,#379,.T.) ;
#430=ORIENTED_EDGE('',*,*,#403,.T.) ;
#431=ORIENTED_EDGE('',*,*,#425,.T.) ;
#432=ORIENTED_EDGE('',*,*,#137,.F.) ;
#433=ORIENTED_EDGE('',*,*,#82,.F.) ;
#434=ORIENTED_EDGE('',*,*,#51,.F.) ;
#443=ORIENTED_EDGE('',*,*,#142,.F.) ;
#444=ORIENTED_EDGE('',*,*,#425,.F.) ;
#445=ORIENTED_EDGE('',*,*,#398,.F.) ;
#446=ORIENTED_EDGE('',*,*,#234,.T.) ;
#447=ORIENTED_EDGE('',*,*,#343,.T.) ;
#448=ORIENTED_EDGE('',*,*,#420,.F.) ;
#449=ORIENTED_EDGE('',*,*,#44,.T.) ;
#450=ORIENTED_EDGE('',*,*,#118,.F.) ;
#277=FACE_BOUND('',#272,.T.) ;
#30=CLOSED_SHELL('Closed Shell',(#70,#101,#125,#149,#189,#220,#278,#302,#319,#331,#362,#386,#410,#436,#452)) ;
#453=ADVANCED_BREP_SHAPE_REPRESENTATION('NONE',(#21),#16) ;
#70=ADVANCED_FACE('S3D-gedreht',(#69),#35,.T.) ;
#101=ADVANCED_FACE('S3D-gedreht',(#100),#75,.F.) ;
#125=ADVANCED_FACE('S3D-gedreht',(#124),#106,.T.) ;
#149=ADVANCED_FACE('S3D-gedreht',(#148),#130,.T.) ;
#189=ADVANCED_FACE('S3D-gedreht',(#188),#154,.F.) ;
#220=ADVANCED_FACE('S3D-gedreht',(#219),#194,.T.) ;
#278=ADVANCED_FACE('S3D-gedreht',(#259,#277),#225,.F.) ;
#302=ADVANCED_FACE('S3D-gedreht',(#301),#283,.T.) ;
#319=ADVANCED_FACE('S3D-gedreht',(#318),#307,.F.) ;
#331=ADVANCED_FACE('S3D-gedreht',(#330),#324,.F.) ;
#362=ADVANCED_FACE('S3D-gedreht',(#361),#336,.T.) ;
#386=ADVANCED_FACE('S3D-gedreht',(#385),#367,.F.) ;
#410=ADVANCED_FACE('S3D-gedreht',(#409),#391,.T.) ;
#436=ADVANCED_FACE('S3D-gedreht',(#435),#415,.T.) ;
#452=ADVANCED_FACE('S3D-gedreht',(#451),#441,.F.) ;
#4=APPLICATION_PROTOCOL_DEFINITION('international standard','automotive_design',2001,#1) ;
#21=MANIFOLD_SOLID_BREP('S3D-gedreht',#30) ;
#22=COLOUR_RGB('Colour',0.823529411765,0.823529411765,1.) ;
#44=EDGE_CURVE('',#41,#43,#39,.T.) ;
#51=EDGE_CURVE('',#41,#50,#48,.T.) ;
#58=EDGE_CURVE('',#50,#57,#55,.T.) ;
#63=EDGE_CURVE('',#43,#57,#62,.T.) ;
#82=EDGE_CURVE('',#50,#81,#79,.F.) ;
#89=EDGE_CURVE('',#81,#88,#86,.T.) ;
#94=EDGE_CURVE('',#57,#88,#93,.F.) ;
#113=EDGE_CURVE('',#88,#112,#110,.T.) ;
#118=EDGE_CURVE('',#112,#43,#117,.F.) ;
#137=EDGE_CURVE('',#81,#136,#134,.T.) ;
#142=EDGE_CURVE('',#136,#112,#141,.T.) ;
#163=EDGE_CURVE('',#160,#162,#158,.T.) ;
#170=EDGE_CURVE('',#169,#162,#167,.T.) ;
#177=EDGE_CURVE('',#176,#169,#174,.T.) ;
#182=EDGE_CURVE('',#176,#160,#181,.T.) ;
#201=EDGE_CURVE('',#200,#160,#198,.F.) ;
#208=EDGE_CURVE('',#207,#176,#205,.F.) ;
#213=EDGE_CURVE('',#207,#200,#212,.T.) ;
#234=EDGE_CURVE('',#231,#233,#229,.F.) ;
#241=EDGE_CURVE('',#240,#231,#238,.T.) ;
#248=EDGE_CURVE('',#247,#240,#245,.F.) ;
#253=EDGE_CURVE('',#233,#247,#252,.T.) ;
#266=EDGE_CURVE('',#169,#265,#263,.F.) ;
#271=EDGE_CURVE('',#265,#207,#270,.T.) ;
#290=EDGE_CURVE('',#162,#289,#287,.F.) ;
#295=EDGE_CURVE('',#265,#289,#294,.T.) ;
#312=EDGE_CURVE('',#289,#200,#311,.T.) ;
#343=EDGE_CURVE('',#233,#342,#340,.T.) ;
#350=EDGE_CURVE('',#247,#349,#347,.T.) ;
#355=EDGE_CURVE('',#342,#349,#354,.T.) ;
#374=EDGE_CURVE('',#240,#373,#371,.T.) ;
#379=EDGE_CURVE('',#349,#373,#378,.F.) ;
#398=EDGE_CURVE('',#231,#397,#395,.T.) ;
#403=EDGE_CURVE('',#373,#397,#402,.T.) ;
#420=EDGE_CURVE('',#41,#342,#419,.F.) ;
#425=EDGE_CURVE('',#397,#136,#424,.F.) ;
#64=EDGE_LOOP('',(#65,#66,#67,#68)) ;
#95=EDGE_LOOP('',(#96,#97,#98,#99)) ;
#119=EDGE_LOOP('',(#120,#121,#122,#123)) ;
#143=EDGE_LOOP('',(#144,#145,#146,#147)) ;
#183=EDGE_LOOP('',(#184,#185,#186,#187)) ;
#214=EDGE_LOOP('',(#215,#216,#217,#218)) ;
#254=EDGE_LOOP('',(#255,#256,#257,#258)) ;
#272=EDGE_LOOP('',(#273,#274,#275,#276)) ;
#296=EDGE_LOOP('',(#297,#298,#299,#300)) ;
#313=EDGE_LOOP('',(#314,#315,#316,#317)) ;
#325=EDGE_LOOP('',(#326,#327,#328,#329)) ;
#356=EDGE_LOOP('',(#357,#358,#359,#360)) ;
#380=EDGE_LOOP('',(#381,#382,#383,#384)) ;
#404=EDGE_LOOP('',(#405,#406,#407,#408)) ;
#426=EDGE_LOOP('',(#427,#428,#429,#430,#431,#432,#433,#434)) ;
#442=EDGE_LOOP('',(#443,#444,#445,#446,#447,#448,#449,#450)) ;
#69=FACE_OUTER_BOUND('',#64,.T.) ;
#100=FACE_OUTER_BOUND('',#95,.T.) ;
#124=FACE_OUTER_BOUND('',#119,.T.) ;
#148=FACE_OUTER_BOUND('',#143,.T.) ;
#188=FACE_OUTER_BOUND('',#183,.T.) ;
#219=FACE_OUTER_BOUND('',#214,.T.) ;
#259=FACE_OUTER_BOUND('',#254,.T.) ;
#301=FACE_OUTER_BOUND('',#296,.T.) ;
#318=FACE_OUTER_BOUND('',#313,.T.) ;
#330=FACE_OUTER_BOUND('',#325,.T.) ;
#361=FACE_OUTER_BOUND('',#356,.T.) ;
#385=FACE_OUTER_BOUND('',#380,.T.) ;
#409=FACE_OUTER_BOUND('',#404,.T.) ;
#435=FACE_OUTER_BOUND('',#426,.T.) ;
#451=FACE_OUTER_BOUND('',#442,.T.) ;
#39=LINE('Line',#36,#38) ;
#48=LINE('Line',#45,#47) ;
#55=LINE('Line',#52,#54) ;
#62=LINE('Line',#59,#61) ;
#79=LINE('Line',#76,#78) ;
#86=LINE('Line',#83,#85) ;
#93=LINE('Line',#90,#92) ;
#110=LINE('Line',#107,#109) ;
#117=LINE('Line',#114,#116) ;
#134=LINE('Line',#131,#133) ;
#141=LINE('Line',#138,#140) ;
#158=LINE('Line',#155,#157) ;
#167=LINE('Line',#164,#166) ;
#174=LINE('Line',#171,#173) ;
#181=LINE('Line',#178,#180) ;
#198=LINE('Line',#195,#197) ;
#205=LINE('Line',#202,#204) ;
#212=LINE('Line',#209,#211) ;
#229=LINE('Line',#226,#228) ;
#238=LINE('Line',#235,#237) ;
#245=LINE('Line',#242,#244) ;
#252=LINE('Line',#249,#251) ;
#263=LINE('Line',#260,#262) ;
#270=LINE('Line',#267,#269) ;
#287=LINE('Line',#284,#286) ;
#294=LINE('Line',#291,#293) ;
#311=LINE('Line',#308,#310) ;
#340=LINE('Line',#337,#339) ;
#347=LINE('Line',#344,#346) ;
#354=LINE('Line',#351,#353) ;
#371=LINE('Line',#368,#370) ;
#378=LINE('Line',#375,#377) ;
#395=LINE('Line',#392,#394) ;
#402=LINE('Line',#399,#401) ;
#419=LINE('Line',#416,#418) ;
#424=LINE('Line',#421,#423) ;
#35=PLANE('',#34) ;
#75=PLANE('',#74) ;
#106=PLANE('',#105) ;
#130=PLANE('',#129) ;
#154=PLANE('',#153) ;
#194=PLANE('',#193) ;
#225=PLANE('',#224) ;
#283=PLANE('',#282) ;
#307=PLANE('',#306) ;
#324=PLANE('',#323) ;
#336=PLANE('',#335) ;
#367=PLANE('',#366) ;
#391=PLANE('',#390) ;
#415=PLANE('',#414) ;
#441=PLANE('',#440) ;
#9=PRODUCT_CATEGORY_RELATIONSHIP(' ',' ',#7,#8) ;
#6=PRODUCT_DEFINITION_FORMATION_WITH_SPECIFIED_SOURCE('',' ',#5,.BOUGHT.) ;
#20=SHAPE_DEFINITION_REPRESENTATION(#11,#19) ;
#41=VERTEX_POINT('',#40) ;
#43=VERTEX_POINT('',#42) ;
#50=VERTEX_POINT('',#49) ;
#57=VERTEX_POINT('',#56) ;
#81=VERTEX_POINT('',#80) ;
#88=VERTEX_POINT('',#87) ;
#112=VERTEX_POINT('',#111) ;
#136=VERTEX_POINT('',#135) ;
#160=VERTEX_POINT('',#159) ;
#162=VERTEX_POINT('',#161) ;
#169=VERTEX_POINT('',#168) ;
#176=VERTEX_POINT('',#175) ;
#200=VERTEX_POINT('',#199) ;
#207=VERTEX_POINT('',#206) ;
#231=VERTEX_POINT('',#230) ;
#233=VERTEX_POINT('',#232) ;
#240=VERTEX_POINT('',#239) ;
#247=VERTEX_POINT('',#246) ;
#265=VERTEX_POINT('',#264) ;
#289=VERTEX_POINT('',#288) ;
#342=VERTEX_POINT('',#341) ;
#349=VERTEX_POINT('',#348) ;
#373=VERTEX_POINT('',#372) ;
#397=VERTEX_POINT('',#396) ;
#12=(LENGTH_UNIT()NAMED_UNIT(*)SI_UNIT(.MILLI.,.METRE.)) ;
#13=(NAMED_UNIT(*)PLANE_ANGLE_UNIT()SI_UNIT($,.RADIAN.)) ;
#14=(NAMED_UNIT(*)SI_UNIT($,.STERADIAN.)SOLID_ANGLE_UNIT()) ;
#16=(GEOMETRIC_REPRESENTATION_CONTEXT(3)GLOBAL_UNCERTAINTY_ASSIGNED_CONTEXT((#15))GLOBAL_UNIT_ASSIGNED_CONTEXT((#12,#13,#14))REPRESENTATION_CONTEXT(' ',' ')) ;
ENDSEC;
END-ISO-10303-21;
