ISO-10303-21;
HEADER;
FILE_DESCRIPTION(('CATIA V5R19 STEP'),'2;1');

FILE_NAME ('D1451259_0', '2014-11-26T07:45:19+00:00', ('Weidmueller Interface'), ('Weidmueller'), 'CATIA Version 5 Release 20 SP 5 (IN-10)', 'CATIA V5 STEP AP214', 'none');

FILE_SCHEMA(('AUTOMOTIVE_DESIGN { 1 0 10303 214 1 1 1 1 }'));

ENDSEC;
/* file written by CATIA V5R20 */
DATA;
#5=PRODUCT('DEK 5/8-11.5','','<Q-CHECKER_SEAL> Q-Checker Version 2.14.8  \X2\000A\X0\CATIA-Version         : Catia V5 R20 SP5 Build Date 01-14-2011.22.00\X2\000A\X0\Model size (in KByte) : 0\X2\000A\X0\Checking date         : 2012-01-18 09:45:49\X2\000A\X0\Checking profile      : ADMIN / Release_2D-3D [CATPart]\X2\000A\X0\Model assessment      : In Ordnung (IO)\X2\000A\X0\Total weight sum      : 0\X2\000A\X0\<CROSS_CHECK_SUM>\X2\000A\X0\  <CHKSUM_DATE> -43883565 </CHKSUM_DATE>\X2\000A\X0\  <CHKSUM_ENTITIES> 253686289 </CHKSUM_ENTITIES>\X2\000A\X0\  <CHKSUM_PROFILE> 1594213346 </CHKSUM_PROFILE>\X2\000A\X0\  <CHKSUM_DIMENSION> -186917087 </CHKSUM_DIMENSION>\X2\000A\X0\  <CHKSUM_PROJINTERSEC> -896974048 </CHKSUM_PROJINTERSEC>\X2\000A\X0\  <CHKSUM_IDENTCRV> -896974048 </CHKSUM_IDENTCRV>\X2\000A\X0\  <CHKSUM_INFINITY> 138018827 </CHKSUM_INFINITY>\X2\000A\X0\</CROSS_CHECK_SUM>\X2\000A\X0\</Q-CHECKER_SEAL> \X2\000A\X0\ \X2\000A\X0\ \X2\000A\X0\ \X2\000D\X0\\X2\000A\X0\ \X2\000D\X0\\X2\000A\X0\',(#2)) ;
#2=PRODUCT_CONTEXT(' ',#1,'mechanical') ;
#1=APPLICATION_CONTEXT('automotive design') ;
#10=PRODUCT_DEFINITION('',' ',#6,#3) ;
#3=PRODUCT_DEFINITION_CONTEXT('part definition',#1,' ') ;
#11=PRODUCT_DEFINITION_SHAPE(' ',' ',#10) ;
#451=MECHANICAL_DESIGN_GEOMETRIC_PRESENTATION_REPRESENTATION(' ',(#30),#17) ;
#20=SHAPE_REPRESENTATION(' ',(#19),#17) ;
#19=AXIS2_PLACEMENT_3D(' ',#18,$,$) ;
#35=AXIS2_PLACEMENT_3D('Plane Axis2P3D',#32,#33,#34) ;
#75=AXIS2_PLACEMENT_3D('Plane Axis2P3D',#72,#73,#74) ;
#106=AXIS2_PLACEMENT_3D('Plane Axis2P3D',#103,#104,#105) ;
#130=AXIS2_PLACEMENT_3D('Plane Axis2P3D',#127,#128,#129) ;
#154=AXIS2_PLACEMENT_3D('Plane Axis2P3D',#151,#152,#153) ;
#171=AXIS2_PLACEMENT_3D('Plane Axis2P3D',#168,#169,#170) ;
#275=AXIS2_PLACEMENT_3D('Plane Axis2P3D',#272,#273,#274) ;
#292=AXIS2_PLACEMENT_3D('Plane Axis2P3D',#289,#290,#291) ;
#344=AXIS2_PLACEMENT_3D('Plane Axis2P3D',#341,#342,#343) ;
#384=AXIS2_PLACEMENT_3D('Plane Axis2P3D',#381,#382,#383) ;
#406=AXIS2_PLACEMENT_3D('Plane Axis2P3D',#403,#404,#405) ;
#423=AXIS2_PLACEMENT_3D('Plane Axis2P3D',#420,#421,#422) ;
#440=AXIS2_PLACEMENT_3D('Plane Axis2P3D',#437,#438,#439) ;
#18=CARTESIAN_POINT(' ',(0.,0.,0.)) ;
#32=CARTESIAN_POINT('Axis2P3D Location',(3.85,1.01989478546,3.86421405985E-009)) ;
#37=CARTESIAN_POINT('Line Origine',(3.85,1.01989478546,3.86421405985E-009)) ;
#41=CARTESIAN_POINT('Vertex',(1.925,1.01989478546,3.8642138378E-009)) ;
#43=CARTESIAN_POINT('Vertex',(5.775,1.01989478546,3.86421428189E-009)) ;
#46=CARTESIAN_POINT('Line Origine',(1.925,1.23060898621,0.786396106932)) ;
#50=CARTESIAN_POINT('Vertex',(1.925,1.44132318696,1.57279221)) ;
#53=CARTESIAN_POINT('Line Origine',(3.85,1.44132318696,1.57279221)) ;
#57=CARTESIAN_POINT('Vertex',(5.775,1.44132318696,1.57279221)) ;
#60=CARTESIAN_POINT('Line Origine',(5.775,1.23060898621,0.786396106932)) ;
#72=CARTESIAN_POINT('Axis2P3D Location',(3.85,1.01989478546,3.86421450393E-009)) ;
#77=CARTESIAN_POINT('Line Origine',(3.85,0.6,3.86421450393E-009)) ;
#81=CARTESIAN_POINT('Vertex',(1.925,0.6,3.86421450393E-009)) ;
#83=CARTESIAN_POINT('Vertex',(5.775,0.6,3.86421494802E-009)) ;
#86=CARTESIAN_POINT('Line Origine',(1.925,0.80994739273,3.86421438606E-009)) ;
#91=CARTESIAN_POINT('Line Origine',(5.775,0.80994739273,3.86421462181E-009)) ;
#103=CARTESIAN_POINT('Axis2P3D Location',(1.925,2.6,1.57279221)) ;
#108=CARTESIAN_POINT('Line Origine',(1.925,0.6,0.786396106932)) ;
#112=CARTESIAN_POINT('Vertex',(1.925,0.6,1.57279221)) ;
#115=CARTESIAN_POINT('Line Origine',(1.925,1.02066159348,1.57279221)) ;
#127=CARTESIAN_POINT('Axis2P3D Location',(5.775,2.6,1.57279221)) ;
#132=CARTESIAN_POINT('Line Origine',(5.775,1.02066159348,1.57279221)) ;
#136=CARTESIAN_POINT('Vertex',(5.775,0.6,1.57279221)) ;
#139=CARTESIAN_POINT('Line Origine',(5.775,0.6,0.786396106932)) ;
#151=CARTESIAN_POINT('Axis2P3D Location',(3.85,0.6,1.57279221)) ;
#156=CARTESIAN_POINT('Line Origine',(3.85,0.6,1.57279221)) ;
#168=CARTESIAN_POINT('Axis2P3D Location',(3.85,4.18010521454,3.86421450393E-009)) ;
#173=CARTESIAN_POINT('Line Origine',(5.775,3.96939101379,0.786396106932)) ;
#177=CARTESIAN_POINT('Vertex',(5.775,4.18010521454,3.86421472598E-009)) ;
#179=CARTESIAN_POINT('Vertex',(5.775,3.75867681304,1.57279221)) ;
#182=CARTESIAN_POINT('Line Origine',(3.85,3.75867681304,1.57279221)) ;
#186=CARTESIAN_POINT('Vertex',(1.925,3.75867681304,1.57279221)) ;
#189=CARTESIAN_POINT('Line Origine',(1.925,3.96939101379,0.786396106932)) ;
#193=CARTESIAN_POINT('Vertex',(1.925,4.18010521454,3.86421428189E-009)) ;
#196=CARTESIAN_POINT('Line Origine',(3.85,4.18010521454,3.86421450393E-009)) ;
#208=CARTESIAN_POINT('Line Origine',(5.775,4.39005260727,3.86421462181E-009)) ;
#212=CARTESIAN_POINT('Vertex',(5.775,4.6,3.86421494802E-009)) ;
#215=CARTESIAN_POINT('Line Origine',(1.925,4.39005260727,3.86421438606E-009)) ;
#219=CARTESIAN_POINT('Vertex',(1.925,4.6,3.86421450393E-009)) ;
#222=CARTESIAN_POINT('Line Origine',(3.85,4.6,3.86421450393E-009)) ;
#234=CARTESIAN_POINT('Line Origine',(1.925,4.17933840652,1.57279221)) ;
#238=CARTESIAN_POINT('Vertex',(1.925,4.6,1.57279221)) ;
#241=CARTESIAN_POINT('Line Origine',(1.925,4.6,0.786396106932)) ;
#253=CARTESIAN_POINT('Line Origine',(5.775,4.6,0.786396106932)) ;
#257=CARTESIAN_POINT('Vertex',(5.775,4.6,1.57279221)) ;
#260=CARTESIAN_POINT('Line Origine',(5.775,4.17933840652,1.57279221)) ;
#272=CARTESIAN_POINT('Axis2P3D Location',(3.85,4.6,3.86421472598E-009)) ;
#277=CARTESIAN_POINT('Line Origine',(3.85,4.6,1.57279221)) ;
#289=CARTESIAN_POINT('Axis2P3D Location',(3.85,2.6,1.57279221)) ;
#294=CARTESIAN_POINT('Line Origine',(7.7,2.6,1.57279221)) ;
#298=CARTESIAN_POINT('Vertex',(7.7,-2.35744508836E-016,1.57279221)) ;
#300=CARTESIAN_POINT('Vertex',(7.7,5.2,1.57279221)) ;
#303=CARTESIAN_POINT('Line Origine',(3.85,0.,1.57279221)) ;
#307=CARTESIAN_POINT('Vertex',(-4.4408920985E-016,6.79833718686E-016,1.57279221)) ;
#310=CARTESIAN_POINT('Line Origine',(-4.4408920985E-016,2.6,1.57279221)) ;
#314=CARTESIAN_POINT('Vertex',(-1.33226762955E-015,5.2,1.57279221)) ;
#317=CARTESIAN_POINT('Line Origine',(3.85,5.2,1.57279221)) ;
#341=CARTESIAN_POINT('Axis2P3D Location',(3.85,2.6,2.37279221)) ;
#346=CARTESIAN_POINT('Line Origine',(3.85,5.2,2.37279221)) ;
#350=CARTESIAN_POINT('Vertex',(7.7,5.2,2.37279221)) ;
#352=CARTESIAN_POINT('Vertex',(-1.33226762955E-015,5.2,2.37279221)) ;
#355=CARTESIAN_POINT('Line Origine',(-4.4408920985E-016,2.6,2.37279221)) ;
#359=CARTESIAN_POINT('Vertex',(-4.4408920985E-016,6.79833718686E-016,2.37279221)) ;
#362=CARTESIAN_POINT('Line Origine',(3.85,0.,2.37279221)) ;
#366=CARTESIAN_POINT('Vertex',(7.7,-2.35744508836E-016,2.37279221)) ;
#369=CARTESIAN_POINT('Line Origine',(7.7,2.6,2.37279221)) ;
#381=CARTESIAN_POINT('Axis2P3D Location',(7.7,5.2,1.57279221)) ;
#386=CARTESIAN_POINT('Line Origine',(7.7,1.49975978266E-033,1.97279221)) ;
#391=CARTESIAN_POINT('Line Origine',(7.7,5.2,1.97279221)) ;
#403=CARTESIAN_POINT('Axis2P3D Location',(-1.33226762955E-015,4.4408920985E-016,1.57279221)) ;
#408=CARTESIAN_POINT('Line Origine',(-1.35676056553E-015,4.4408920985E-016,1.97279221)) ;
#420=CARTESIAN_POINT('Axis2P3D Location',(-4.4408920985E-016,8.881784197E-016,1.57279221)) ;
#425=CARTESIAN_POINT('Line Origine',(-1.50173978055E-016,5.2,1.97279221)) ;
#437=CARTESIAN_POINT('Axis2P3D Location',(7.7,5.2,1.57279221)) ;
#33=DIRECTION('Axis2P3D Direction',(7.49939943261E-017,0.965925826289,-0.258819045103)) ;
#34=DIRECTION('Axis2P3D XDirection',(-4.32978028118E-017,0.258819045103,0.965925826289)) ;
#38=DIRECTION('Vector Direction',(1.,-1.15347846714E-016,6.1232340051E-017)) ;
#47=DIRECTION('Vector Direction',(0.,0.258819045103,0.965925826289)) ;
#54=DIRECTION('Vector Direction',(1.,-1.15347846714E-016,1.15347846714E-016)) ;
#61=DIRECTION('Vector Direction',(0.,0.258819045103,0.965925826289)) ;
#73=DIRECTION('Axis2P3D Direction',(-6.12323399574E-017,3.74939945665E-033,1.)) ;
#74=DIRECTION('Axis2P3D XDirection',(-6.12323399574E-017,-1.,0.)) ;
#78=DIRECTION('Vector Direction',(1.,-5.76739233572E-017,6.1232340051E-017)) ;
#87=DIRECTION('Vector Direction',(0.,-1.,0.)) ;
#92=DIRECTION('Vector Direction',(0.,-1.,0.)) ;
#104=DIRECTION('Axis2P3D Direction',(1.,-6.12323399574E-017,6.12323399574E-017)) ;
#105=DIRECTION('Axis2P3D XDirection',(6.12323399574E-017,1.,0.)) ;
#109=DIRECTION('Vector Direction',(0.,0.,-1.)) ;
#116=DIRECTION('Vector Direction',(-2.63923077799E-016,-1.,-2.63923077799E-016)) ;
#128=DIRECTION('Axis2P3D Direction',(1.,-6.12323399574E-017,6.12323399574E-017)) ;
#129=DIRECTION('Axis2P3D XDirection',(6.12323399574E-017,1.,0.)) ;
#133=DIRECTION('Vector Direction',(0.,-1.,-2.63923077799E-016)) ;
#140=DIRECTION('Vector Direction',(0.,0.,-1.)) ;
#152=DIRECTION('Axis2P3D Direction',(-6.12323399574E-017,-1.,0.)) ;
#153=DIRECTION('Axis2P3D XDirection',(6.12323399574E-017,-3.74939945665E-033,-1.)) ;
#157=DIRECTION('Vector Direction',(1.,-5.76739233572E-017,1.15347846714E-016)) ;
#169=DIRECTION('Axis2P3D Direction',(4.32978028118E-017,0.965925826289,0.258819045103)) ;
#170=DIRECTION('Axis2P3D XDirection',(-7.49939943261E-017,-0.258819045103,0.965925826289)) ;
#174=DIRECTION('Vector Direction',(0.,-0.258819045103,0.965925826289)) ;
#183=DIRECTION('Vector Direction',(1.,0.,1.15347846714E-016)) ;
#190=DIRECTION('Vector Direction',(0.,-0.258819045103,0.965925826289)) ;
#197=DIRECTION('Vector Direction',(1.,0.,6.1232340051E-017)) ;
#209=DIRECTION('Vector Direction',(0.,-1.,0.)) ;
#216=DIRECTION('Vector Direction',(0.,-1.,0.)) ;
#223=DIRECTION('Vector Direction',(1.,0.,6.1232340051E-017)) ;
#235=DIRECTION('Vector Direction',(2.63923077799E-016,1.,0.)) ;
#242=DIRECTION('Vector Direction',(0.,0.,1.)) ;
#254=DIRECTION('Vector Direction',(0.,0.,1.)) ;
#261=DIRECTION('Vector Direction',(0.,1.,0.)) ;
#273=DIRECTION('Axis2P3D Direction',(6.12323399574E-017,1.,0.)) ;
#274=DIRECTION('Axis2P3D XDirection',(-6.12323399574E-017,3.74939945665E-033,1.)) ;
#278=DIRECTION('Vector Direction',(1.,0.,1.15347846714E-016)) ;
#290=DIRECTION('Axis2P3D Direction',(-6.12323399574E-017,3.74939945665E-033,1.)) ;
#291=DIRECTION('Axis2P3D XDirection',(-6.12323399574E-017,-1.,0.)) ;
#295=DIRECTION('Vector Direction',(0.,-1.,0.)) ;
#304=DIRECTION('Vector Direction',(1.,-6.12323399574E-017,5.76739233572E-017)) ;
#311=DIRECTION('Vector Direction',(0.,1.,0.)) ;
#318=DIRECTION('Vector Direction',(-1.,0.,-5.76739233572E-017)) ;
#342=DIRECTION('Axis2P3D Direction',(-6.12323399574E-017,3.74939945665E-033,1.)) ;
#343=DIRECTION('Axis2P3D XDirection',(-6.12323399574E-017,-1.,0.)) ;
#347=DIRECTION('Vector Direction',(-1.,0.,-1.15347846714E-016)) ;
#356=DIRECTION('Vector Direction',(0.,1.,0.)) ;
#363=DIRECTION('Vector Direction',(1.,-6.12323399574E-017,1.15347846714E-016)) ;
#370=DIRECTION('Vector Direction',(0.,-1.,0.)) ;
#382=DIRECTION('Axis2P3D Direction',(-1.,6.12323399574E-017,-6.12323399574E-017)) ;
#383=DIRECTION('Axis2P3D XDirection',(-6.12323399574E-017,-1.,0.)) ;
#387=DIRECTION('Vector Direction',(0.,3.74939945665E-033,1.)) ;
#392=DIRECTION('Vector Direction',(0.,0.,1.)) ;
#404=DIRECTION('Axis2P3D Direction',(-6.12323399574E-017,-1.,0.)) ;
#405=DIRECTION('Axis2P3D XDirection',(1.,-6.12323399574E-017,6.12323399574E-017)) ;
#409=DIRECTION('Vector Direction',(-6.12323399574E-017,0.,1.)) ;
#421=DIRECTION('Axis2P3D Direction',(1.,-6.12323399574E-017,6.12323399574E-017)) ;
#422=DIRECTION('Axis2P3D XDirection',(6.12323399574E-017,1.,0.)) ;
#426=DIRECTION('Vector Direction',(-6.12323399574E-017,0.,1.)) ;
#438=DIRECTION('Axis2P3D Direction',(6.12323399574E-017,1.,0.)) ;
#439=DIRECTION('Axis2P3D XDirection',(-1.,6.12323399574E-017,-6.12323399574E-017)) ;
#8=PRODUCT_RELATED_PRODUCT_CATEGORY('part',$,(#5)) ;
#7=PRODUCT_CATEGORY('part','specification') ;
#30=STYLED_ITEM(' ',(#29),#22) ;
#29=PRESENTATION_STYLE_ASSIGNMENT((#28)) ;
#28=SURFACE_STYLE_USAGE(.BOTH.,#27) ;
#27=SURFACE_SIDE_STYLE(' ',(#26)) ;
#26=SURFACE_STYLE_FILL_AREA(#25) ;
#25=FILL_AREA_STYLE(' ',(#24)) ;
#24=FILL_AREA_STYLE_COLOUR(' ',#23) ;
#39=VECTOR('Line Direction',#38,1.) ;
#48=VECTOR('Line Direction',#47,1.) ;
#55=VECTOR('Line Direction',#54,1.) ;
#62=VECTOR('Line Direction',#61,1.) ;
#79=VECTOR('Line Direction',#78,1.) ;
#88=VECTOR('Line Direction',#87,1.) ;
#93=VECTOR('Line Direction',#92,1.) ;
#110=VECTOR('Line Direction',#109,1.) ;
#117=VECTOR('Line Direction',#116,1.) ;
#134=VECTOR('Line Direction',#133,1.) ;
#141=VECTOR('Line Direction',#140,1.) ;
#158=VECTOR('Line Direction',#157,1.) ;
#175=VECTOR('Line Direction',#174,1.) ;
#184=VECTOR('Line Direction',#183,1.) ;
#191=VECTOR('Line Direction',#190,1.) ;
#198=VECTOR('Line Direction',#197,1.) ;
#210=VECTOR('Line Direction',#209,1.) ;
#217=VECTOR('Line Direction',#216,1.) ;
#224=VECTOR('Line Direction',#223,1.) ;
#236=VECTOR('Line Direction',#235,1.) ;
#243=VECTOR('Line Direction',#242,1.) ;
#255=VECTOR('Line Direction',#254,1.) ;
#262=VECTOR('Line Direction',#261,1.) ;
#279=VECTOR('Line Direction',#278,1.) ;
#296=VECTOR('Line Direction',#295,1.) ;
#305=VECTOR('Line Direction',#304,1.) ;
#312=VECTOR('Line Direction',#311,1.) ;
#319=VECTOR('Line Direction',#318,1.) ;
#348=VECTOR('Line Direction',#347,1.) ;
#357=VECTOR('Line Direction',#356,1.) ;
#364=VECTOR('Line Direction',#363,1.) ;
#371=VECTOR('Line Direction',#370,1.) ;
#388=VECTOR('Line Direction',#387,1.) ;
#393=VECTOR('Line Direction',#392,1.) ;
#410=VECTOR('Line Direction',#409,1.) ;
#427=VECTOR('Line Direction',#426,1.) ;
#16=UNCERTAINTY_MEASURE_WITH_UNIT(LENGTH_MEASURE(0.005),#12,'distance_accuracy_value','CONFUSED CURVE UNCERTAINTY') ;
#450=SHAPE_REPRESENTATION_RELATIONSHIP(' ',' ',#20,#449) ;
#66=ORIENTED_EDGE('',*,*,#45,.F.) ;
#67=ORIENTED_EDGE('',*,*,#52,.T.) ;
#68=ORIENTED_EDGE('',*,*,#59,.T.) ;
#69=ORIENTED_EDGE('',*,*,#64,.F.) ;
#97=ORIENTED_EDGE('',*,*,#85,.F.) ;
#98=ORIENTED_EDGE('',*,*,#90,.T.) ;
#99=ORIENTED_EDGE('',*,*,#45,.T.) ;
#100=ORIENTED_EDGE('',*,*,#95,.F.) ;
#121=ORIENTED_EDGE('',*,*,#90,.F.) ;
#122=ORIENTED_EDGE('',*,*,#114,.F.) ;
#123=ORIENTED_EDGE('',*,*,#119,.F.) ;
#124=ORIENTED_EDGE('',*,*,#52,.F.) ;
#145=ORIENTED_EDGE('',*,*,#64,.T.) ;
#146=ORIENTED_EDGE('',*,*,#138,.T.) ;
#147=ORIENTED_EDGE('',*,*,#143,.T.) ;
#148=ORIENTED_EDGE('',*,*,#95,.T.) ;
#162=ORIENTED_EDGE('',*,*,#160,.F.) ;
#163=ORIENTED_EDGE('',*,*,#114,.T.) ;
#164=ORIENTED_EDGE('',*,*,#85,.T.) ;
#165=ORIENTED_EDGE('',*,*,#143,.F.) ;
#202=ORIENTED_EDGE('',*,*,#181,.T.) ;
#203=ORIENTED_EDGE('',*,*,#188,.F.) ;
#204=ORIENTED_EDGE('',*,*,#195,.F.) ;
#205=ORIENTED_EDGE('',*,*,#200,.T.) ;
#228=ORIENTED_EDGE('',*,*,#214,.T.) ;
#229=ORIENTED_EDGE('',*,*,#200,.F.) ;
#230=ORIENTED_EDGE('',*,*,#221,.F.) ;
#231=ORIENTED_EDGE('',*,*,#226,.T.) ;
#247=ORIENTED_EDGE('',*,*,#240,.T.) ;
#248=ORIENTED_EDGE('',*,*,#245,.T.) ;
#249=ORIENTED_EDGE('',*,*,#221,.T.) ;
#250=ORIENTED_EDGE('',*,*,#195,.T.) ;
#266=ORIENTED_EDGE('',*,*,#181,.F.) ;
#267=ORIENTED_EDGE('',*,*,#214,.F.) ;
#268=ORIENTED_EDGE('',*,*,#259,.F.) ;
#269=ORIENTED_EDGE('',*,*,#264,.F.) ;
#283=ORIENTED_EDGE('',*,*,#259,.T.) ;
#284=ORIENTED_EDGE('',*,*,#226,.F.) ;
#285=ORIENTED_EDGE('',*,*,#245,.F.) ;
#286=ORIENTED_EDGE('',*,*,#281,.T.) ;
#323=ORIENTED_EDGE('',*,*,#302,.F.) ;
#324=ORIENTED_EDGE('',*,*,#309,.F.) ;
#325=ORIENTED_EDGE('',*,*,#316,.F.) ;
#326=ORIENTED_EDGE('',*,*,#321,.F.) ;
#329=ORIENTED_EDGE('',*,*,#138,.F.) ;
#330=ORIENTED_EDGE('',*,*,#59,.F.) ;
#331=ORIENTED_EDGE('',*,*,#119,.T.) ;
#332=ORIENTED_EDGE('',*,*,#160,.T.) ;
#335=ORIENTED_EDGE('',*,*,#281,.F.) ;
#336=ORIENTED_EDGE('',*,*,#240,.F.) ;
#337=ORIENTED_EDGE('',*,*,#188,.T.) ;
#338=ORIENTED_EDGE('',*,*,#264,.T.) ;
#375=ORIENTED_EDGE('',*,*,#354,.T.) ;
#376=ORIENTED_EDGE('',*,*,#361,.T.) ;
#377=ORIENTED_EDGE('',*,*,#368,.T.) ;
#378=ORIENTED_EDGE('',*,*,#373,.T.) ;
#397=ORIENTED_EDGE('',*,*,#390,.F.) ;
#398=ORIENTED_EDGE('',*,*,#302,.T.) ;
#399=ORIENTED_EDGE('',*,*,#395,.T.) ;
#400=ORIENTED_EDGE('',*,*,#373,.F.) ;
#414=ORIENTED_EDGE('',*,*,#412,.F.) ;
#415=ORIENTED_EDGE('',*,*,#309,.T.) ;
#416=ORIENTED_EDGE('',*,*,#390,.T.) ;
#417=ORIENTED_EDGE('',*,*,#368,.F.) ;
#431=ORIENTED_EDGE('',*,*,#429,.F.) ;
#432=ORIENTED_EDGE('',*,*,#316,.T.) ;
#433=ORIENTED_EDGE('',*,*,#412,.T.) ;
#434=ORIENTED_EDGE('',*,*,#361,.F.) ;
#443=ORIENTED_EDGE('',*,*,#395,.F.) ;
#444=ORIENTED_EDGE('',*,*,#321,.T.) ;
#445=ORIENTED_EDGE('',*,*,#429,.T.) ;
#446=ORIENTED_EDGE('',*,*,#354,.F.) ;
#333=FACE_BOUND('',#328,.T.) ;
#339=FACE_BOUND('',#334,.T.) ;
#31=CLOSED_SHELL('Closed Shell',(#71,#102,#126,#150,#167,#207,#233,#252,#271,#288,#340,#380,#402,#419,#436,#448)) ;
#449=ADVANCED_BREP_SHAPE_REPRESENTATION('NONE',(#22),#17) ;
#71=ADVANCED_FACE('S3D - gedreht',(#70),#36,.T.) ;
#102=ADVANCED_FACE('S3D - gedreht',(#101),#76,.F.) ;
#126=ADVANCED_FACE('S3D - gedreht',(#125),#107,.F.) ;
#150=ADVANCED_FACE('S3D - gedreht',(#149),#131,.T.) ;
#167=ADVANCED_FACE('S3D - gedreht',(#166),#155,.T.) ;
#207=ADVANCED_FACE('S3D - gedreht',(#206),#172,.F.) ;
#233=ADVANCED_FACE('S3D - gedreht',(#232),#76,.F.) ;
#252=ADVANCED_FACE('S3D - gedreht',(#251),#107,.F.) ;
#271=ADVANCED_FACE('S3D - gedreht',(#270),#131,.T.) ;
#288=ADVANCED_FACE('S3D - gedreht',(#287),#276,.T.) ;
#340=ADVANCED_FACE('S3D - gedreht',(#327,#333,#339),#293,.F.) ;
#380=ADVANCED_FACE('S3D - gedreht',(#379),#345,.T.) ;
#402=ADVANCED_FACE('S3D - gedreht',(#401),#385,.F.) ;
#419=ADVANCED_FACE('S3D - gedreht',(#418),#407,.T.) ;
#436=ADVANCED_FACE('S3D - gedreht',(#435),#424,.F.) ;
#448=ADVANCED_FACE('S3D - gedreht',(#447),#441,.T.) ;
#4=APPLICATION_PROTOCOL_DEFINITION('international standard','automotive_design',2001,#1) ;
#22=MANIFOLD_SOLID_BREP('S3D - gedreht',#31) ;
#23=DRAUGHTING_PRE_DEFINED_COLOUR('white') ;
#45=EDGE_CURVE('',#42,#44,#40,.T.) ;
#52=EDGE_CURVE('',#42,#51,#49,.T.) ;
#59=EDGE_CURVE('',#51,#58,#56,.T.) ;
#64=EDGE_CURVE('',#44,#58,#63,.T.) ;
#85=EDGE_CURVE('',#82,#84,#80,.T.) ;
#90=EDGE_CURVE('',#82,#42,#89,.F.) ;
#95=EDGE_CURVE('',#84,#44,#94,.F.) ;
#114=EDGE_CURVE('',#113,#82,#111,.T.) ;
#119=EDGE_CURVE('',#51,#113,#118,.T.) ;
#138=EDGE_CURVE('',#58,#137,#135,.T.) ;
#143=EDGE_CURVE('',#137,#84,#142,.T.) ;
#160=EDGE_CURVE('',#113,#137,#159,.T.) ;
#181=EDGE_CURVE('',#178,#180,#176,.T.) ;
#188=EDGE_CURVE('',#187,#180,#185,.T.) ;
#195=EDGE_CURVE('',#194,#187,#192,.T.) ;
#200=EDGE_CURVE('',#194,#178,#199,.T.) ;
#214=EDGE_CURVE('',#213,#178,#211,.T.) ;
#221=EDGE_CURVE('',#220,#194,#218,.T.) ;
#226=EDGE_CURVE('',#220,#213,#225,.T.) ;
#240=EDGE_CURVE('',#187,#239,#237,.T.) ;
#245=EDGE_CURVE('',#239,#220,#244,.F.) ;
#259=EDGE_CURVE('',#258,#213,#256,.F.) ;
#264=EDGE_CURVE('',#180,#258,#263,.T.) ;
#281=EDGE_CURVE('',#239,#258,#280,.T.) ;
#302=EDGE_CURVE('',#299,#301,#297,.F.) ;
#309=EDGE_CURVE('',#308,#299,#306,.T.) ;
#316=EDGE_CURVE('',#315,#308,#313,.F.) ;
#321=EDGE_CURVE('',#301,#315,#320,.T.) ;
#354=EDGE_CURVE('',#351,#353,#349,.T.) ;
#361=EDGE_CURVE('',#353,#360,#358,.F.) ;
#368=EDGE_CURVE('',#360,#367,#365,.T.) ;
#373=EDGE_CURVE('',#367,#351,#372,.F.) ;
#390=EDGE_CURVE('',#299,#367,#389,.T.) ;
#395=EDGE_CURVE('',#301,#351,#394,.T.) ;
#412=EDGE_CURVE('',#308,#360,#411,.T.) ;
#429=EDGE_CURVE('',#315,#353,#428,.T.) ;
#65=EDGE_LOOP('',(#66,#67,#68,#69)) ;
#96=EDGE_LOOP('',(#97,#98,#99,#100)) ;
#120=EDGE_LOOP('',(#121,#122,#123,#124)) ;
#144=EDGE_LOOP('',(#145,#146,#147,#148)) ;
#161=EDGE_LOOP('',(#162,#163,#164,#165)) ;
#201=EDGE_LOOP('',(#202,#203,#204,#205)) ;
#227=EDGE_LOOP('',(#228,#229,#230,#231)) ;
#246=EDGE_LOOP('',(#247,#248,#249,#250)) ;
#265=EDGE_LOOP('',(#266,#267,#268,#269)) ;
#282=EDGE_LOOP('',(#283,#284,#285,#286)) ;
#322=EDGE_LOOP('',(#323,#324,#325,#326)) ;
#328=EDGE_LOOP('',(#329,#330,#331,#332)) ;
#334=EDGE_LOOP('',(#335,#336,#337,#338)) ;
#374=EDGE_LOOP('',(#375,#376,#377,#378)) ;
#396=EDGE_LOOP('',(#397,#398,#399,#400)) ;
#413=EDGE_LOOP('',(#414,#415,#416,#417)) ;
#430=EDGE_LOOP('',(#431,#432,#433,#434)) ;
#442=EDGE_LOOP('',(#443,#444,#445,#446)) ;
#70=FACE_OUTER_BOUND('',#65,.T.) ;
#101=FACE_OUTER_BOUND('',#96,.T.) ;
#125=FACE_OUTER_BOUND('',#120,.T.) ;
#149=FACE_OUTER_BOUND('',#144,.T.) ;
#166=FACE_OUTER_BOUND('',#161,.T.) ;
#206=FACE_OUTER_BOUND('',#201,.T.) ;
#232=FACE_OUTER_BOUND('',#227,.T.) ;
#251=FACE_OUTER_BOUND('',#246,.T.) ;
#270=FACE_OUTER_BOUND('',#265,.T.) ;
#287=FACE_OUTER_BOUND('',#282,.T.) ;
#327=FACE_OUTER_BOUND('',#322,.T.) ;
#379=FACE_OUTER_BOUND('',#374,.T.) ;
#401=FACE_OUTER_BOUND('',#396,.T.) ;
#418=FACE_OUTER_BOUND('',#413,.T.) ;
#435=FACE_OUTER_BOUND('',#430,.T.) ;
#447=FACE_OUTER_BOUND('',#442,.T.) ;
#40=LINE('Line',#37,#39) ;
#49=LINE('Line',#46,#48) ;
#56=LINE('Line',#53,#55) ;
#63=LINE('Line',#60,#62) ;
#80=LINE('Line',#77,#79) ;
#89=LINE('Line',#86,#88) ;
#94=LINE('Line',#91,#93) ;
#111=LINE('Line',#108,#110) ;
#118=LINE('Line',#115,#117) ;
#135=LINE('Line',#132,#134) ;
#142=LINE('Line',#139,#141) ;
#159=LINE('Line',#156,#158) ;
#176=LINE('Line',#173,#175) ;
#185=LINE('Line',#182,#184) ;
#192=LINE('Line',#189,#191) ;
#199=LINE('Line',#196,#198) ;
#211=LINE('Line',#208,#210) ;
#218=LINE('Line',#215,#217) ;
#225=LINE('Line',#222,#224) ;
#237=LINE('Line',#234,#236) ;
#244=LINE('Line',#241,#243) ;
#256=LINE('Line',#253,#255) ;
#263=LINE('Line',#260,#262) ;
#280=LINE('Line',#277,#279) ;
#297=LINE('Line',#294,#296) ;
#306=LINE('Line',#303,#305) ;
#313=LINE('Line',#310,#312) ;
#320=LINE('Line',#317,#319) ;
#349=LINE('Line',#346,#348) ;
#358=LINE('Line',#355,#357) ;
#365=LINE('Line',#362,#364) ;
#372=LINE('Line',#369,#371) ;
#389=LINE('Line',#386,#388) ;
#394=LINE('Line',#391,#393) ;
#411=LINE('Line',#408,#410) ;
#428=LINE('Line',#425,#427) ;
#36=PLANE('',#35) ;
#76=PLANE('',#75) ;
#107=PLANE('',#106) ;
#131=PLANE('',#130) ;
#155=PLANE('',#154) ;
#172=PLANE('',#171) ;
#276=PLANE('',#275) ;
#293=PLANE('',#292) ;
#345=PLANE('',#344) ;
#385=PLANE('',#384) ;
#407=PLANE('',#406) ;
#424=PLANE('',#423) ;
#441=PLANE('',#440) ;
#14=PLANE_ANGLE_MEASURE_WITH_UNIT(PLANE_ANGLE_MEASURE(0.0174532925199),#13) ;
#9=PRODUCT_CATEGORY_RELATIONSHIP(' ',' ',#7,#8) ;
#6=PRODUCT_DEFINITION_FORMATION_WITH_SPECIFIED_SOURCE('',' ',#5,.NOT_KNOWN.) ;
#21=SHAPE_DEFINITION_REPRESENTATION(#11,#20) ;
#42=VERTEX_POINT('',#41) ;
#44=VERTEX_POINT('',#43) ;
#51=VERTEX_POINT('',#50) ;
#58=VERTEX_POINT('',#57) ;
#82=VERTEX_POINT('',#81) ;
#84=VERTEX_POINT('',#83) ;
#113=VERTEX_POINT('',#112) ;
#137=VERTEX_POINT('',#136) ;
#178=VERTEX_POINT('',#177) ;
#180=VERTEX_POINT('',#179) ;
#187=VERTEX_POINT('',#186) ;
#194=VERTEX_POINT('',#193) ;
#213=VERTEX_POINT('',#212) ;
#220=VERTEX_POINT('',#219) ;
#239=VERTEX_POINT('',#238) ;
#258=VERTEX_POINT('',#257) ;
#299=VERTEX_POINT('',#298) ;
#301=VERTEX_POINT('',#300) ;
#308=VERTEX_POINT('',#307) ;
#315=VERTEX_POINT('',#314) ;
#351=VERTEX_POINT('',#350) ;
#353=VERTEX_POINT('',#352) ;
#360=VERTEX_POINT('',#359) ;
#367=VERTEX_POINT('',#366) ;
#12=(LENGTH_UNIT()NAMED_UNIT(*)SI_UNIT(.MILLI.,.METRE.)) ;
#13=(NAMED_UNIT(*)PLANE_ANGLE_UNIT()SI_UNIT($,.RADIAN.)) ;
#15=(NAMED_UNIT(*)SI_UNIT($,.STERADIAN.)SOLID_ANGLE_UNIT()) ;
#17=(GEOMETRIC_REPRESENTATION_CONTEXT(3)GLOBAL_UNCERTAINTY_ASSIGNED_CONTEXT((#16))GLOBAL_UNIT_ASSIGNED_CONTEXT((#12,#13,#15))REPRESENTATION_CONTEXT(' ',' ')) ;
ENDSEC;
END-ISO-10303-21;
