ISO-10303-21;
HEADER;
FILE_DESCRIPTION(('CATIA V5R19 STEP'),'2;1');

FILE_NAME ('D1454644_0_1692270000_1692270000.stp','2015-03-03T09:21:10+00:00',('none'),('Weidmueller'),'CATIA Version 5 Release 20 SP 5 (IN-10)','CATIA V5 STEP AP214','none');

FILE_SCHEMA(('AUTOMOTIVE_DESIGN { 1 0 10303 214 1 1 1 1 }'));

ENDSEC;
/* file written by CATIA V5R20 */
DATA;
#5=PRODUCT('MF-WO 12/5','','',(#2)) ;
#2=PRODUCT_CONTEXT(' ',#1,'mechanical') ;
#1=APPLICATION_CONTEXT('automotive design') ;
#10=PRODUCT_DEFINITION('',' ',#6,#3) ;
#3=PRODUCT_DEFINITION_CONTEXT('part definition',#1,' ') ;
#11=PRODUCT_DEFINITION_SHAPE(' ',' ',#10) ;
#452=MECHANICAL_DESIGN_GEOMETRIC_PRESENTATION_REPRESENTATION(' ',(#30),#17) ;
#20=SHAPE_REPRESENTATION(' ',(#19),#17) ;
#19=AXIS2_PLACEMENT_3D(' ',#18,$,$) ;
#36=AXIS2_PLACEMENT_3D('Plane Axis2P3D',#33,#34,#35) ;
#76=AXIS2_PLACEMENT_3D('Plane Axis2P3D',#73,#74,#75) ;
#107=AXIS2_PLACEMENT_3D('Plane Axis2P3D',#104,#105,#106) ;
#131=AXIS2_PLACEMENT_3D('Plane Axis2P3D',#128,#129,#130) ;
#155=AXIS2_PLACEMENT_3D('Plane Axis2P3D',#152,#153,#154) ;
#172=AXIS2_PLACEMENT_3D('Plane Axis2P3D',#169,#170,#171) ;
#276=AXIS2_PLACEMENT_3D('Plane Axis2P3D',#273,#274,#275) ;
#293=AXIS2_PLACEMENT_3D('Plane Axis2P3D',#290,#291,#292) ;
#345=AXIS2_PLACEMENT_3D('Plane Axis2P3D',#342,#343,#344) ;
#376=AXIS2_PLACEMENT_3D('Plane Axis2P3D',#373,#374,#375) ;
#407=AXIS2_PLACEMENT_3D('Plane Axis2P3D',#404,#405,#406) ;
#429=AXIS2_PLACEMENT_3D('Plane Axis2P3D',#426,#427,#428) ;
#441=AXIS2_PLACEMENT_3D('Plane Axis2P3D',#438,#439,#440) ;
#18=CARTESIAN_POINT(' ',(0.,0.,0.)) ;
#33=CARTESIAN_POINT('Axis2P3D Location',(2.375,3.68,1.551)) ;
#38=CARTESIAN_POINT('Line Origine',(2.375,3.68,1.551)) ;
#42=CARTESIAN_POINT('Vertex',(1.375,3.68,1.551)) ;
#44=CARTESIAN_POINT('Vertex',(3.375,3.68,1.551)) ;
#47=CARTESIAN_POINT('Line Origine',(1.375,3.68,0.7755)) ;
#51=CARTESIAN_POINT('Vertex',(1.375,3.68,4.4408920985E-016)) ;
#54=CARTESIAN_POINT('Line Origine',(2.375,3.68,4.4408920985E-016)) ;
#58=CARTESIAN_POINT('Vertex',(3.375,3.68,4.4408920985E-016)) ;
#61=CARTESIAN_POINT('Line Origine',(3.375,3.68,0.7755)) ;
#73=CARTESIAN_POINT('Axis2P3D Location',(1.375,5.7,2.351)) ;
#78=CARTESIAN_POINT('Line Origine',(1.375,4.1524547225,1.551)) ;
#82=CARTESIAN_POINT('Vertex',(1.375,4.624909445,1.551)) ;
#85=CARTESIAN_POINT('Line Origine',(1.375,4.46416995549,0.7755)) ;
#89=CARTESIAN_POINT('Vertex',(1.375,4.30343046598,4.4408920985E-016)) ;
#92=CARTESIAN_POINT('Line Origine',(1.375,3.99171523299,4.4408920985E-016)) ;
#104=CARTESIAN_POINT('Axis2P3D Location',(2.375,4.30343046598,4.4408920985E-016)) ;
#109=CARTESIAN_POINT('Line Origine',(2.375,4.30343046598,4.4408920985E-016)) ;
#113=CARTESIAN_POINT('Vertex',(3.375,4.30343046598,4.4408920985E-016)) ;
#116=CARTESIAN_POINT('Line Origine',(3.375,3.99171523299,5.05321549807E-016)) ;
#128=CARTESIAN_POINT('Axis2P3D Location',(3.375,5.7,2.351)) ;
#133=CARTESIAN_POINT('Line Origine',(3.375,4.46416995549,0.7755)) ;
#137=CARTESIAN_POINT('Vertex',(3.375,4.624909445,1.551)) ;
#140=CARTESIAN_POINT('Line Origine',(3.375,4.1524547225,1.551)) ;
#152=CARTESIAN_POINT('Axis2P3D Location',(2.375,4.30343046598,4.4408920985E-016)) ;
#157=CARTESIAN_POINT('Line Origine',(2.375,4.624909445,1.551)) ;
#169=CARTESIAN_POINT('Axis2P3D Location',(2.375,7.09656953402,0.)) ;
#174=CARTESIAN_POINT('Line Origine',(3.375,6.93583004451,0.7755)) ;
#178=CARTESIAN_POINT('Vertex',(3.375,7.09656953402,4.4408920985E-016)) ;
#180=CARTESIAN_POINT('Vertex',(3.375,6.775090555,1.551)) ;
#183=CARTESIAN_POINT('Line Origine',(2.375,6.775090555,1.551)) ;
#187=CARTESIAN_POINT('Vertex',(1.375,6.775090555,1.551)) ;
#190=CARTESIAN_POINT('Line Origine',(1.375,6.93583004451,0.7755)) ;
#194=CARTESIAN_POINT('Vertex',(1.375,7.09656953402,4.4408920985E-016)) ;
#197=CARTESIAN_POINT('Line Origine',(2.375,7.09656953402,0.)) ;
#209=CARTESIAN_POINT('Line Origine',(3.375,7.40828476701,5.05321549807E-016)) ;
#213=CARTESIAN_POINT('Vertex',(3.375,7.72,4.4408920985E-016)) ;
#216=CARTESIAN_POINT('Line Origine',(1.375,7.40828476701,3.82856869893E-016)) ;
#220=CARTESIAN_POINT('Vertex',(1.375,7.72,4.4408920985E-016)) ;
#223=CARTESIAN_POINT('Line Origine',(2.375,7.72,4.4408920985E-016)) ;
#235=CARTESIAN_POINT('Line Origine',(1.375,7.2475452775,1.551)) ;
#239=CARTESIAN_POINT('Vertex',(1.375,7.72,1.551)) ;
#242=CARTESIAN_POINT('Line Origine',(1.375,7.72,0.7755)) ;
#254=CARTESIAN_POINT('Line Origine',(3.375,7.72,0.7755)) ;
#258=CARTESIAN_POINT('Vertex',(3.375,7.72,1.551)) ;
#261=CARTESIAN_POINT('Line Origine',(3.375,7.2475452775,1.551)) ;
#273=CARTESIAN_POINT('Axis2P3D Location',(2.375,7.72,1.551)) ;
#278=CARTESIAN_POINT('Line Origine',(2.375,7.72,1.551)) ;
#290=CARTESIAN_POINT('Axis2P3D Location',(2.375,0.,1.551)) ;
#295=CARTESIAN_POINT('Line Origine',(4.75,5.7,1.551)) ;
#299=CARTESIAN_POINT('Vertex',(4.75,11.4,1.551)) ;
#301=CARTESIAN_POINT('Vertex',(4.75,-2.99951956532E-033,1.551)) ;
#304=CARTESIAN_POINT('Line Origine',(2.375,0.,1.551)) ;
#308=CARTESIAN_POINT('Vertex',(-3.00038465791E-016,-2.99951956532E-033,1.551)) ;
#311=CARTESIAN_POINT('Line Origine',(0.,5.7,1.551)) ;
#315=CARTESIAN_POINT('Vertex',(3.98010209723E-016,11.4,1.551)) ;
#318=CARTESIAN_POINT('Line Origine',(2.375,11.4,1.551)) ;
#342=CARTESIAN_POINT('Axis2P3D Location',(4.75,5.7,2.351)) ;
#347=CARTESIAN_POINT('Line Origine',(4.75,-1.49975978266E-033,1.951)) ;
#351=CARTESIAN_POINT('Vertex',(4.75,0.,2.351)) ;
#354=CARTESIAN_POINT('Line Origine',(4.75,11.4,1.951)) ;
#358=CARTESIAN_POINT('Vertex',(4.75,11.4,2.351)) ;
#361=CARTESIAN_POINT('Line Origine',(4.75,5.7,2.351)) ;
#373=CARTESIAN_POINT('Axis2P3D Location',(0.,5.7,2.351)) ;
#378=CARTESIAN_POINT('Line Origine',(4.93038065763E-032,5.7,2.351)) ;
#382=CARTESIAN_POINT('Vertex',(-3.49024337757E-016,0.,2.351)) ;
#384=CARTESIAN_POINT('Vertex',(3.49024337757E-016,11.4,2.351)) ;
#387=CARTESIAN_POINT('Line Origine',(3.7351727374E-016,11.4,1.951)) ;
#392=CARTESIAN_POINT('Line Origine',(-3.24531401774E-016,-1.49975978266E-033,1.951)) ;
#404=CARTESIAN_POINT('Axis2P3D Location',(2.375,0.,2.351)) ;
#409=CARTESIAN_POINT('Line Origine',(2.375,11.4,2.351)) ;
#414=CARTESIAN_POINT('Line Origine',(2.375,0.,2.351)) ;
#426=CARTESIAN_POINT('Axis2P3D Location',(2.375,11.4,1.551)) ;
#438=CARTESIAN_POINT('Axis2P3D Location',(2.375,0.,2.351)) ;
#34=DIRECTION('Axis2P3D Direction',(-6.12323399574E-017,-1.,0.)) ;
#35=DIRECTION('Axis2P3D XDirection',(6.12323399574E-017,-3.74939945665E-033,-1.)) ;
#39=DIRECTION('Vector Direction',(1.,0.,0.)) ;
#48=DIRECTION('Vector Direction',(0.,0.,-1.)) ;
#55=DIRECTION('Vector Direction',(1.,0.,6.12323399574E-017)) ;
#62=DIRECTION('Vector Direction',(0.,0.,-1.)) ;
#74=DIRECTION('Axis2P3D Direction',(1.,-6.12323399574E-017,6.12323399574E-017)) ;
#75=DIRECTION('Axis2P3D XDirection',(6.12323399574E-017,1.,0.)) ;
#79=DIRECTION('Vector Direction',(-2.34990353943E-016,-1.,0.)) ;
#86=DIRECTION('Vector Direction',(-1.40182643436E-016,0.202958198889,0.979187402648)) ;
#93=DIRECTION('Vector Direction',(-3.56165790803E-016,-1.,0.)) ;
#105=DIRECTION('Axis2P3D Direction',(-6.12323399574E-017,3.74939945665E-033,1.)) ;
#106=DIRECTION('Axis2P3D XDirection',(-6.12323399574E-017,-1.,0.)) ;
#110=DIRECTION('Vector Direction',(1.,0.,6.12323399574E-017)) ;
#117=DIRECTION('Vector Direction',(0.,-1.,0.)) ;
#129=DIRECTION('Axis2P3D Direction',(1.,-6.12323399574E-017,6.12323399574E-017)) ;
#130=DIRECTION('Axis2P3D XDirection',(6.12323399574E-017,1.,0.)) ;
#134=DIRECTION('Vector Direction',(0.,0.202958198889,0.979187402648)) ;
#141=DIRECTION('Vector Direction',(0.,-1.,0.)) ;
#153=DIRECTION('Axis2P3D Direction',(7.23855413524E-017,0.979187402648,-0.202958198889)) ;
#154=DIRECTION('Axis2P3D XDirection',(-4.75303304894E-017,0.202958198889,0.979187402648)) ;
#158=DIRECTION('Vector Direction',(1.,0.,0.)) ;
#170=DIRECTION('Axis2P3D Direction',(4.75303304894E-017,0.979187402648,0.202958198889)) ;
#171=DIRECTION('Axis2P3D XDirection',(-7.23855413524E-017,-0.202958198889,0.979187402648)) ;
#175=DIRECTION('Vector Direction',(0.,-0.202958198889,0.979187402648)) ;
#184=DIRECTION('Vector Direction',(1.,0.,0.)) ;
#191=DIRECTION('Vector Direction',(0.,-0.202958198889,0.979187402648)) ;
#198=DIRECTION('Vector Direction',(1.,0.,6.12323399574E-017)) ;
#210=DIRECTION('Vector Direction',(0.,1.,0.)) ;
#217=DIRECTION('Vector Direction',(0.,1.,0.)) ;
#224=DIRECTION('Vector Direction',(1.,0.,6.12323399574E-017)) ;
#236=DIRECTION('Vector Direction',(2.34990353943E-016,1.,0.)) ;
#243=DIRECTION('Vector Direction',(1.43162221099E-016,0.,-1.)) ;
#255=DIRECTION('Vector Direction',(0.,0.,-1.)) ;
#262=DIRECTION('Vector Direction',(0.,1.,0.)) ;
#274=DIRECTION('Axis2P3D Direction',(-6.12323399574E-017,-1.,0.)) ;
#275=DIRECTION('Axis2P3D XDirection',(6.12323399574E-017,-3.74939945665E-033,-1.)) ;
#279=DIRECTION('Vector Direction',(1.,0.,0.)) ;
#291=DIRECTION('Axis2P3D Direction',(6.12323399574E-017,-3.74939945665E-033,-1.)) ;
#292=DIRECTION('Axis2P3D XDirection',(6.12323399574E-017,1.,0.)) ;
#296=DIRECTION('Vector Direction',(0.,1.,0.)) ;
#305=DIRECTION('Vector Direction',(1.,-6.12323399574E-017,9.34924652316E-017)) ;
#312=DIRECTION('Vector Direction',(7.7910387693E-017,1.,0.)) ;
#319=DIRECTION('Vector Direction',(1.,0.,9.34924652316E-017)) ;
#343=DIRECTION('Axis2P3D Direction',(1.,-6.12323399574E-017,6.12323399574E-017)) ;
#344=DIRECTION('Axis2P3D XDirection',(6.12323399574E-017,1.,0.)) ;
#348=DIRECTION('Vector Direction',(0.,-3.74939945665E-033,-1.)) ;
#355=DIRECTION('Vector Direction',(0.,0.,1.)) ;
#362=DIRECTION('Vector Direction',(0.,1.,0.)) ;
#374=DIRECTION('Axis2P3D Direction',(1.,-6.12323399574E-017,6.12323399574E-017)) ;
#375=DIRECTION('Axis2P3D XDirection',(6.12323399574E-017,1.,0.)) ;
#379=DIRECTION('Vector Direction',(6.12323399574E-017,1.,0.)) ;
#388=DIRECTION('Vector Direction',(-6.12323399574E-017,0.,1.)) ;
#393=DIRECTION('Vector Direction',(6.12323399574E-017,-3.74939945665E-033,-1.)) ;
#405=DIRECTION('Axis2P3D Direction',(6.12323399574E-017,-3.74939945665E-033,-1.)) ;
#406=DIRECTION('Axis2P3D XDirection',(6.12323399574E-017,1.,0.)) ;
#410=DIRECTION('Vector Direction',(1.,0.,0.)) ;
#415=DIRECTION('Vector Direction',(1.,-6.12323399574E-017,0.)) ;
#427=DIRECTION('Axis2P3D Direction',(6.12323399574E-017,1.,0.)) ;
#428=DIRECTION('Axis2P3D XDirection',(-6.12323399574E-017,3.74939945665E-033,1.)) ;
#439=DIRECTION('Axis2P3D Direction',(-6.12323399574E-017,-1.,0.)) ;
#440=DIRECTION('Axis2P3D XDirection',(6.12323399574E-017,-3.74939945665E-033,-1.)) ;
#31=PRESENTATION_LAYER_ASSIGNMENT('100',' ',(#22)) ;
#8=PRODUCT_RELATED_PRODUCT_CATEGORY('part',$,(#5)) ;
#7=PRODUCT_CATEGORY('part','specification') ;
#30=STYLED_ITEM(' ',(#29),#22) ;
#29=PRESENTATION_STYLE_ASSIGNMENT((#28)) ;
#28=SURFACE_STYLE_USAGE(.BOTH.,#27) ;
#27=SURFACE_SIDE_STYLE(' ',(#26)) ;
#26=SURFACE_STYLE_FILL_AREA(#25) ;
#25=FILL_AREA_STYLE(' ',(#24)) ;
#24=FILL_AREA_STYLE_COLOUR(' ',#23) ;
#40=VECTOR('Line Direction',#39,1.) ;
#49=VECTOR('Line Direction',#48,1.) ;
#56=VECTOR('Line Direction',#55,1.) ;
#63=VECTOR('Line Direction',#62,1.) ;
#80=VECTOR('Line Direction',#79,1.) ;
#87=VECTOR('Line Direction',#86,1.) ;
#94=VECTOR('Line Direction',#93,1.) ;
#111=VECTOR('Line Direction',#110,1.) ;
#118=VECTOR('Line Direction',#117,1.) ;
#135=VECTOR('Line Direction',#134,1.) ;
#142=VECTOR('Line Direction',#141,1.) ;
#159=VECTOR('Line Direction',#158,1.) ;
#176=VECTOR('Line Direction',#175,1.) ;
#185=VECTOR('Line Direction',#184,1.) ;
#192=VECTOR('Line Direction',#191,1.) ;
#199=VECTOR('Line Direction',#198,1.) ;
#211=VECTOR('Line Direction',#210,1.) ;
#218=VECTOR('Line Direction',#217,1.) ;
#225=VECTOR('Line Direction',#224,1.) ;
#237=VECTOR('Line Direction',#236,1.) ;
#244=VECTOR('Line Direction',#243,1.) ;
#256=VECTOR('Line Direction',#255,1.) ;
#263=VECTOR('Line Direction',#262,1.) ;
#280=VECTOR('Line Direction',#279,1.) ;
#297=VECTOR('Line Direction',#296,1.) ;
#306=VECTOR('Line Direction',#305,1.) ;
#313=VECTOR('Line Direction',#312,1.) ;
#320=VECTOR('Line Direction',#319,1.) ;
#349=VECTOR('Line Direction',#348,1.) ;
#356=VECTOR('Line Direction',#355,1.) ;
#363=VECTOR('Line Direction',#362,1.) ;
#380=VECTOR('Line Direction',#379,1.) ;
#389=VECTOR('Line Direction',#388,1.) ;
#394=VECTOR('Line Direction',#393,1.) ;
#411=VECTOR('Line Direction',#410,1.) ;
#416=VECTOR('Line Direction',#415,1.) ;
#16=UNCERTAINTY_MEASURE_WITH_UNIT(LENGTH_MEASURE(0.005),#12,'distance_accuracy_value','CONFUSED CURVE UNCERTAINTY') ;
#451=SHAPE_REPRESENTATION_RELATIONSHIP(' ',' ',#20,#450) ;
#67=ORIENTED_EDGE('',*,*,#46,.F.) ;
#68=ORIENTED_EDGE('',*,*,#53,.T.) ;
#69=ORIENTED_EDGE('',*,*,#60,.T.) ;
#70=ORIENTED_EDGE('',*,*,#65,.F.) ;
#98=ORIENTED_EDGE('',*,*,#84,.F.) ;
#99=ORIENTED_EDGE('',*,*,#91,.F.) ;
#100=ORIENTED_EDGE('',*,*,#96,.F.) ;
#101=ORIENTED_EDGE('',*,*,#53,.F.) ;
#122=ORIENTED_EDGE('',*,*,#60,.F.) ;
#123=ORIENTED_EDGE('',*,*,#96,.T.) ;
#124=ORIENTED_EDGE('',*,*,#115,.T.) ;
#125=ORIENTED_EDGE('',*,*,#120,.F.) ;
#146=ORIENTED_EDGE('',*,*,#65,.T.) ;
#147=ORIENTED_EDGE('',*,*,#120,.T.) ;
#148=ORIENTED_EDGE('',*,*,#139,.T.) ;
#149=ORIENTED_EDGE('',*,*,#144,.T.) ;
#163=ORIENTED_EDGE('',*,*,#115,.F.) ;
#164=ORIENTED_EDGE('',*,*,#91,.T.) ;
#165=ORIENTED_EDGE('',*,*,#161,.T.) ;
#166=ORIENTED_EDGE('',*,*,#139,.F.) ;
#203=ORIENTED_EDGE('',*,*,#182,.T.) ;
#204=ORIENTED_EDGE('',*,*,#189,.F.) ;
#205=ORIENTED_EDGE('',*,*,#196,.F.) ;
#206=ORIENTED_EDGE('',*,*,#201,.T.) ;
#229=ORIENTED_EDGE('',*,*,#215,.T.) ;
#230=ORIENTED_EDGE('',*,*,#201,.F.) ;
#231=ORIENTED_EDGE('',*,*,#222,.F.) ;
#232=ORIENTED_EDGE('',*,*,#227,.T.) ;
#248=ORIENTED_EDGE('',*,*,#241,.T.) ;
#249=ORIENTED_EDGE('',*,*,#246,.T.) ;
#250=ORIENTED_EDGE('',*,*,#222,.T.) ;
#251=ORIENTED_EDGE('',*,*,#196,.T.) ;
#267=ORIENTED_EDGE('',*,*,#182,.F.) ;
#268=ORIENTED_EDGE('',*,*,#215,.F.) ;
#269=ORIENTED_EDGE('',*,*,#260,.F.) ;
#270=ORIENTED_EDGE('',*,*,#265,.F.) ;
#284=ORIENTED_EDGE('',*,*,#260,.T.) ;
#285=ORIENTED_EDGE('',*,*,#227,.F.) ;
#286=ORIENTED_EDGE('',*,*,#246,.F.) ;
#287=ORIENTED_EDGE('',*,*,#282,.T.) ;
#324=ORIENTED_EDGE('',*,*,#303,.T.) ;
#325=ORIENTED_EDGE('',*,*,#310,.F.) ;
#326=ORIENTED_EDGE('',*,*,#317,.F.) ;
#327=ORIENTED_EDGE('',*,*,#322,.T.) ;
#330=ORIENTED_EDGE('',*,*,#144,.F.) ;
#331=ORIENTED_EDGE('',*,*,#161,.F.) ;
#332=ORIENTED_EDGE('',*,*,#84,.T.) ;
#333=ORIENTED_EDGE('',*,*,#46,.T.) ;
#336=ORIENTED_EDGE('',*,*,#282,.F.) ;
#337=ORIENTED_EDGE('',*,*,#241,.F.) ;
#338=ORIENTED_EDGE('',*,*,#189,.T.) ;
#339=ORIENTED_EDGE('',*,*,#265,.T.) ;
#367=ORIENTED_EDGE('',*,*,#353,.F.) ;
#368=ORIENTED_EDGE('',*,*,#303,.F.) ;
#369=ORIENTED_EDGE('',*,*,#360,.F.) ;
#370=ORIENTED_EDGE('',*,*,#365,.F.) ;
#398=ORIENTED_EDGE('',*,*,#386,.T.) ;
#399=ORIENTED_EDGE('',*,*,#391,.T.) ;
#400=ORIENTED_EDGE('',*,*,#317,.T.) ;
#401=ORIENTED_EDGE('',*,*,#396,.T.) ;
#420=ORIENTED_EDGE('',*,*,#365,.T.) ;
#421=ORIENTED_EDGE('',*,*,#413,.F.) ;
#422=ORIENTED_EDGE('',*,*,#386,.F.) ;
#423=ORIENTED_EDGE('',*,*,#418,.T.) ;
#432=ORIENTED_EDGE('',*,*,#360,.T.) ;
#433=ORIENTED_EDGE('',*,*,#322,.F.) ;
#434=ORIENTED_EDGE('',*,*,#391,.F.) ;
#435=ORIENTED_EDGE('',*,*,#413,.T.) ;
#444=ORIENTED_EDGE('',*,*,#353,.T.) ;
#445=ORIENTED_EDGE('',*,*,#418,.F.) ;
#446=ORIENTED_EDGE('',*,*,#396,.F.) ;
#447=ORIENTED_EDGE('',*,*,#310,.T.) ;
#334=FACE_BOUND('',#329,.T.) ;
#340=FACE_BOUND('',#335,.T.) ;
#32=CLOSED_SHELL('Closed Shell',(#72,#103,#127,#151,#168,#208,#234,#253,#272,#289,#341,#372,#403,#425,#437,#449)) ;
#450=ADVANCED_BREP_SHAPE_REPRESENTATION('NONE',(#22),#17) ;
#72=ADVANCED_FACE('S3D gedreht',(#71),#37,.T.) ;
#103=ADVANCED_FACE('S3D gedreht',(#102),#77,.F.) ;
#127=ADVANCED_FACE('S3D gedreht',(#126),#108,.F.) ;
#151=ADVANCED_FACE('S3D gedreht',(#150),#132,.T.) ;
#168=ADVANCED_FACE('S3D gedreht',(#167),#156,.T.) ;
#208=ADVANCED_FACE('S3D gedreht',(#207),#173,.F.) ;
#234=ADVANCED_FACE('S3D gedreht',(#233),#108,.F.) ;
#253=ADVANCED_FACE('S3D gedreht',(#252),#77,.F.) ;
#272=ADVANCED_FACE('S3D gedreht',(#271),#132,.T.) ;
#289=ADVANCED_FACE('S3D gedreht',(#288),#277,.F.) ;
#341=ADVANCED_FACE('S3D gedreht',(#328,#334,#340),#294,.T.) ;
#372=ADVANCED_FACE('S3D gedreht',(#371),#346,.T.) ;
#403=ADVANCED_FACE('S3D gedreht',(#402),#377,.F.) ;
#425=ADVANCED_FACE('S3D gedreht',(#424),#408,.F.) ;
#437=ADVANCED_FACE('S3D gedreht',(#436),#430,.T.) ;
#449=ADVANCED_FACE('S3D gedreht',(#448),#442,.T.) ;
#4=APPLICATION_PROTOCOL_DEFINITION('international standard','automotive_design',2001,#1) ;
#22=MANIFOLD_SOLID_BREP('S3D gedreht',#32) ;
#23=DRAUGHTING_PRE_DEFINED_COLOUR('white') ;
#46=EDGE_CURVE('',#43,#45,#41,.T.) ;
#53=EDGE_CURVE('',#43,#52,#50,.T.) ;
#60=EDGE_CURVE('',#52,#59,#57,.T.) ;
#65=EDGE_CURVE('',#45,#59,#64,.T.) ;
#84=EDGE_CURVE('',#83,#43,#81,.T.) ;
#91=EDGE_CURVE('',#90,#83,#88,.T.) ;
#96=EDGE_CURVE('',#52,#90,#95,.F.) ;
#115=EDGE_CURVE('',#90,#114,#112,.T.) ;
#120=EDGE_CURVE('',#59,#114,#119,.F.) ;
#139=EDGE_CURVE('',#114,#138,#136,.T.) ;
#144=EDGE_CURVE('',#138,#45,#143,.T.) ;
#161=EDGE_CURVE('',#83,#138,#160,.T.) ;
#182=EDGE_CURVE('',#179,#181,#177,.T.) ;
#189=EDGE_CURVE('',#188,#181,#186,.T.) ;
#196=EDGE_CURVE('',#195,#188,#193,.T.) ;
#201=EDGE_CURVE('',#195,#179,#200,.T.) ;
#215=EDGE_CURVE('',#214,#179,#212,.F.) ;
#222=EDGE_CURVE('',#221,#195,#219,.F.) ;
#227=EDGE_CURVE('',#221,#214,#226,.T.) ;
#241=EDGE_CURVE('',#188,#240,#238,.T.) ;
#246=EDGE_CURVE('',#240,#221,#245,.T.) ;
#260=EDGE_CURVE('',#259,#214,#257,.T.) ;
#265=EDGE_CURVE('',#181,#259,#264,.T.) ;
#282=EDGE_CURVE('',#240,#259,#281,.T.) ;
#303=EDGE_CURVE('',#300,#302,#298,.F.) ;
#310=EDGE_CURVE('',#309,#302,#307,.T.) ;
#317=EDGE_CURVE('',#316,#309,#314,.F.) ;
#322=EDGE_CURVE('',#316,#300,#321,.T.) ;
#353=EDGE_CURVE('',#302,#352,#350,.F.) ;
#360=EDGE_CURVE('',#359,#300,#357,.F.) ;
#365=EDGE_CURVE('',#352,#359,#364,.T.) ;
#386=EDGE_CURVE('',#383,#385,#381,.T.) ;
#391=EDGE_CURVE('',#385,#316,#390,.F.) ;
#396=EDGE_CURVE('',#309,#383,#395,.F.) ;
#413=EDGE_CURVE('',#385,#359,#412,.T.) ;
#418=EDGE_CURVE('',#383,#352,#417,.T.) ;
#66=EDGE_LOOP('',(#67,#68,#69,#70)) ;
#97=EDGE_LOOP('',(#98,#99,#100,#101)) ;
#121=EDGE_LOOP('',(#122,#123,#124,#125)) ;
#145=EDGE_LOOP('',(#146,#147,#148,#149)) ;
#162=EDGE_LOOP('',(#163,#164,#165,#166)) ;
#202=EDGE_LOOP('',(#203,#204,#205,#206)) ;
#228=EDGE_LOOP('',(#229,#230,#231,#232)) ;
#247=EDGE_LOOP('',(#248,#249,#250,#251)) ;
#266=EDGE_LOOP('',(#267,#268,#269,#270)) ;
#283=EDGE_LOOP('',(#284,#285,#286,#287)) ;
#323=EDGE_LOOP('',(#324,#325,#326,#327)) ;
#329=EDGE_LOOP('',(#330,#331,#332,#333)) ;
#335=EDGE_LOOP('',(#336,#337,#338,#339)) ;
#366=EDGE_LOOP('',(#367,#368,#369,#370)) ;
#397=EDGE_LOOP('',(#398,#399,#400,#401)) ;
#419=EDGE_LOOP('',(#420,#421,#422,#423)) ;
#431=EDGE_LOOP('',(#432,#433,#434,#435)) ;
#443=EDGE_LOOP('',(#444,#445,#446,#447)) ;
#71=FACE_OUTER_BOUND('',#66,.T.) ;
#102=FACE_OUTER_BOUND('',#97,.T.) ;
#126=FACE_OUTER_BOUND('',#121,.T.) ;
#150=FACE_OUTER_BOUND('',#145,.T.) ;
#167=FACE_OUTER_BOUND('',#162,.T.) ;
#207=FACE_OUTER_BOUND('',#202,.T.) ;
#233=FACE_OUTER_BOUND('',#228,.T.) ;
#252=FACE_OUTER_BOUND('',#247,.T.) ;
#271=FACE_OUTER_BOUND('',#266,.T.) ;
#288=FACE_OUTER_BOUND('',#283,.T.) ;
#328=FACE_OUTER_BOUND('',#323,.T.) ;
#371=FACE_OUTER_BOUND('',#366,.T.) ;
#402=FACE_OUTER_BOUND('',#397,.T.) ;
#424=FACE_OUTER_BOUND('',#419,.T.) ;
#436=FACE_OUTER_BOUND('',#431,.T.) ;
#448=FACE_OUTER_BOUND('',#443,.T.) ;
#41=LINE('Line',#38,#40) ;
#50=LINE('Line',#47,#49) ;
#57=LINE('Line',#54,#56) ;
#64=LINE('Line',#61,#63) ;
#81=LINE('Line',#78,#80) ;
#88=LINE('Line',#85,#87) ;
#95=LINE('Line',#92,#94) ;
#112=LINE('Line',#109,#111) ;
#119=LINE('Line',#116,#118) ;
#136=LINE('Line',#133,#135) ;
#143=LINE('Line',#140,#142) ;
#160=LINE('Line',#157,#159) ;
#177=LINE('Line',#174,#176) ;
#186=LINE('Line',#183,#185) ;
#193=LINE('Line',#190,#192) ;
#200=LINE('Line',#197,#199) ;
#212=LINE('Line',#209,#211) ;
#219=LINE('Line',#216,#218) ;
#226=LINE('Line',#223,#225) ;
#238=LINE('Line',#235,#237) ;
#245=LINE('Line',#242,#244) ;
#257=LINE('Line',#254,#256) ;
#264=LINE('Line',#261,#263) ;
#281=LINE('Line',#278,#280) ;
#298=LINE('Line',#295,#297) ;
#307=LINE('Line',#304,#306) ;
#314=LINE('Line',#311,#313) ;
#321=LINE('Line',#318,#320) ;
#350=LINE('Line',#347,#349) ;
#357=LINE('Line',#354,#356) ;
#364=LINE('Line',#361,#363) ;
#381=LINE('Line',#378,#380) ;
#390=LINE('Line',#387,#389) ;
#395=LINE('Line',#392,#394) ;
#412=LINE('Line',#409,#411) ;
#417=LINE('Line',#414,#416) ;
#37=PLANE('',#36) ;
#77=PLANE('',#76) ;
#108=PLANE('',#107) ;
#132=PLANE('',#131) ;
#156=PLANE('',#155) ;
#173=PLANE('',#172) ;
#277=PLANE('',#276) ;
#294=PLANE('',#293) ;
#346=PLANE('',#345) ;
#377=PLANE('',#376) ;
#408=PLANE('',#407) ;
#430=PLANE('',#429) ;
#442=PLANE('',#441) ;
#14=PLANE_ANGLE_MEASURE_WITH_UNIT(PLANE_ANGLE_MEASURE(0.0174532925199),#13) ;
#9=PRODUCT_CATEGORY_RELATIONSHIP(' ',' ',#7,#8) ;
#6=PRODUCT_DEFINITION_FORMATION_WITH_SPECIFIED_SOURCE('',' ',#5,.NOT_KNOWN.) ;
#21=SHAPE_DEFINITION_REPRESENTATION(#11,#20) ;
#43=VERTEX_POINT('',#42) ;
#45=VERTEX_POINT('',#44) ;
#52=VERTEX_POINT('',#51) ;
#59=VERTEX_POINT('',#58) ;
#83=VERTEX_POINT('',#82) ;
#90=VERTEX_POINT('',#89) ;
#114=VERTEX_POINT('',#113) ;
#138=VERTEX_POINT('',#137) ;
#179=VERTEX_POINT('',#178) ;
#181=VERTEX_POINT('',#180) ;
#188=VERTEX_POINT('',#187) ;
#195=VERTEX_POINT('',#194) ;
#214=VERTEX_POINT('',#213) ;
#221=VERTEX_POINT('',#220) ;
#240=VERTEX_POINT('',#239) ;
#259=VERTEX_POINT('',#258) ;
#300=VERTEX_POINT('',#299) ;
#302=VERTEX_POINT('',#301) ;
#309=VERTEX_POINT('',#308) ;
#316=VERTEX_POINT('',#315) ;
#352=VERTEX_POINT('',#351) ;
#359=VERTEX_POINT('',#358) ;
#383=VERTEX_POINT('',#382) ;
#385=VERTEX_POINT('',#384) ;
#12=(LENGTH_UNIT()NAMED_UNIT(*)SI_UNIT(.MILLI.,.METRE.)) ;
#13=(NAMED_UNIT(*)PLANE_ANGLE_UNIT()SI_UNIT($,.RADIAN.)) ;
#15=(NAMED_UNIT(*)SI_UNIT($,.STERADIAN.)SOLID_ANGLE_UNIT()) ;
#17=(GEOMETRIC_REPRESENTATION_CONTEXT(3)GLOBAL_UNCERTAINTY_ASSIGNED_CONTEXT((#16))GLOBAL_UNIT_ASSIGNED_CONTEXT((#12,#13,#15))REPRESENTATION_CONTEXT(' ',' ')) ;
ENDSEC;
END-ISO-10303-21;
