ISO-10303-21;
HEADER;
FILE_DESCRIPTION(('CATIA V5R19 STEP'),'2;1');

FILE_NAME ('D1448716_0', '2015-02-18T11:44:26+00:00', ('Weidmueller Interface'), ('Weidmueller'), 'CATIA Version 5 Release 20 SP 5 (IN-10)', 'CATIA V5 STEP AP214', 'none');

FILE_SCHEMA(('AUTOMOTIVE_DESIGN { 1 0 10303 214 1 1 1 1 }'));

ENDSEC;
/* file written by CATIA V5R20 */
DATA;
#5=PRODUCT('CC-15/60 O4MM','','CLIPCARD 15/60 EINZELSCHILD \X2\000A\X0\MIT 4MM BOHRUNG\X2\000A\X0\<Q-CHECKER_SEAL> Q-Checker Version 2.14.8  \X2\000A\X0\CATIA-Version         : Catia V5 R20 SP5 Build Date 01-06-2014.17.15\X2\000A\X0\Model size (in KByte) : 0\X2\000A\X0\Checking date         : 2014-11-10 06:58:15\X2\000A\X0\Checking profile      : ADMIN / Release_2D-3D [CATPart]\X2\000A\X0\Model assessment      : In Ordnung (IO)\X2\000A\X0\Total weight sum      : 0\X2\000A\X0\<CROSS_CHECK_SUM>\X2\000A\X0\  <CHKSUM_DATE> -195693226 </CHKSUM_DATE>\X2\000A\X0\  <CHKSUM_ENTITIES> -378417597 </CHKSUM_ENTITIES>\X2\000A\X0\  <CHKSUM_PROFILE> 1594213346 </CHKSUM_PROFILE>\X2\000A\X0\  <CHKSUM_DIMENSION> -186917087 </CHKSUM_DIMENSION>\X2\000A\X0\  <CHKSUM_PROJINTERSEC> -896974048 </CHKSUM_PROJINTERSEC>\X2\000A\X0\  <CHKSUM_IDENTCRV> -896974048 </CHKSUM_IDENTCRV>\X2\000A\X0\  <CHKSUM_INFINITY> 138018827 </CHKSUM_INFINITY>\X2\000A\X0\</CROSS_CHECK_SUM>\X2\000A\X0\</Q-CHECKER_SEAL> \X2\000A\X0\ \X2\000A\X0\ \X2\000A\X0\ \X2\000A\X0\ \X2\000A\X0\ \X2\000A\X0\',(#2)) ;
#2=PRODUCT_CONTEXT(' ',#1,'mechanical') ;
#1=APPLICATION_CONTEXT('automotive design') ;
#10=PRODUCT_DEFINITION('',' ',#6,#3) ;
#3=PRODUCT_DEFINITION_CONTEXT('part definition',#1,' ') ;
#11=PRODUCT_DEFINITION_SHAPE(' ',' ',#10) ;
#313=MECHANICAL_DESIGN_GEOMETRIC_PRESENTATION_REPRESENTATION(' ',(#30),#17) ;
#20=SHAPE_REPRESENTATION(' ',(#19),#17) ;
#19=AXIS2_PLACEMENT_3D(' ',#18,$,$) ;
#36=AXIS2_PLACEMENT_3D('Cylinder Axis2P3D',#33,#34,#35) ;
#40=AXIS2_PLACEMENT_3D('Circle Axis2P3D',#38,#39,$) ;
#56=AXIS2_PLACEMENT_3D('Circle Axis2P3D',#54,#55,$) ;
#75=AXIS2_PLACEMENT_3D('Circle Axis2P3D',#73,#74,$) ;
#80=AXIS2_PLACEMENT_3D('Circle Axis2P3D',#78,#79,$) ;
#93=AXIS2_PLACEMENT_3D('Plane Axis2P3D',#90,#91,#92) ;
#135=AXIS2_PLACEMENT_3D('Circle Axis2P3D',#133,#134,$) ;
#144=AXIS2_PLACEMENT_3D('Circle Axis2P3D',#142,#143,$) ;
#155=AXIS2_PLACEMENT_3D('Plane Axis2P3D',#152,#153,#154) ;
#186=AXIS2_PLACEMENT_3D('Plane Axis2P3D',#183,#184,#185) ;
#210=AXIS2_PLACEMENT_3D('Plane Axis2P3D',#207,#208,#209) ;
#234=AXIS2_PLACEMENT_3D('Plane Axis2P3D',#231,#232,#233) ;
#251=AXIS2_PLACEMENT_3D('Cylinder Axis2P3D',#248,#249,#250) ;
#255=AXIS2_PLACEMENT_3D('Circle Axis2P3D',#253,#254,$) ;
#281=AXIS2_PLACEMENT_3D('Circle Axis2P3D',#279,#280,$) ;
#294=AXIS2_PLACEMENT_3D('Plane Axis2P3D',#291,#292,#293) ;
#18=CARTESIAN_POINT(' ',(0.,0.,0.)) ;
#33=CARTESIAN_POINT('Axis2P3D Location',(5.,7.5,-0.060000000021)) ;
#38=CARTESIAN_POINT('Axis2P3D Location',(5.,7.5,0.)) ;
#42=CARTESIAN_POINT('Vertex',(2.9,7.5,8.27140547336E-032)) ;
#44=CARTESIAN_POINT('Vertex',(7.1,7.5,1.57474777179E-032)) ;
#47=CARTESIAN_POINT('Line Origine',(2.9,7.5,-0.060000000021)) ;
#51=CARTESIAN_POINT('Vertex',(2.9,7.5,1.2)) ;
#54=CARTESIAN_POINT('Axis2P3D Location',(5.,7.5,1.2)) ;
#58=CARTESIAN_POINT('Vertex',(7.1,7.5,1.2)) ;
#61=CARTESIAN_POINT('Line Origine',(7.1,7.5,-0.060000000021)) ;
#73=CARTESIAN_POINT('Axis2P3D Location',(5.,7.5,0.)) ;
#78=CARTESIAN_POINT('Axis2P3D Location',(5.,7.5,1.2)) ;
#90=CARTESIAN_POINT('Axis2P3D Location',(30.,7.5,1.2)) ;
#95=CARTESIAN_POINT('Line Origine',(60.,7.5,1.2)) ;
#99=CARTESIAN_POINT('Vertex',(60.,0.,1.2)) ;
#101=CARTESIAN_POINT('Vertex',(60.,15.,1.2)) ;
#104=CARTESIAN_POINT('Line Origine',(30.,15.,1.2)) ;
#108=CARTESIAN_POINT('Vertex',(0.,15.,1.2)) ;
#111=CARTESIAN_POINT('Line Origine',(0.,7.5,1.2)) ;
#115=CARTESIAN_POINT('Vertex',(0.,0.,1.2)) ;
#118=CARTESIAN_POINT('Line Origine',(30.,0.,1.2)) ;
#133=CARTESIAN_POINT('Axis2P3D Location',(55.,7.5,1.2)) ;
#137=CARTESIAN_POINT('Vertex',(52.9,7.5,1.2)) ;
#139=CARTESIAN_POINT('Vertex',(57.1,7.5,1.2)) ;
#142=CARTESIAN_POINT('Axis2P3D Location',(55.,7.5,1.2)) ;
#152=CARTESIAN_POINT('Axis2P3D Location',(60.,0.,1.2)) ;
#157=CARTESIAN_POINT('Line Origine',(60.,7.5,0.)) ;
#161=CARTESIAN_POINT('Vertex',(60.,0.,4.5924254968E-016)) ;
#163=CARTESIAN_POINT('Vertex',(60.,15.,-4.5924254968E-016)) ;
#166=CARTESIAN_POINT('Line Origine',(60.,15.,0.6)) ;
#171=CARTESIAN_POINT('Line Origine',(60.,-3.67394039744E-017,0.6)) ;
#183=CARTESIAN_POINT('Axis2P3D Location',(0.,15.,1.2)) ;
#188=CARTESIAN_POINT('Line Origine',(30.,15.,-4.4408920985E-016)) ;
#192=CARTESIAN_POINT('Vertex',(0.,15.,-4.5924254968E-016)) ;
#195=CARTESIAN_POINT('Line Origine',(0.,15.,0.6)) ;
#207=CARTESIAN_POINT('Axis2P3D Location',(0.,15.,1.2)) ;
#212=CARTESIAN_POINT('Line Origine',(0.,7.5,0.)) ;
#216=CARTESIAN_POINT('Vertex',(0.,0.,4.5924254968E-016)) ;
#219=CARTESIAN_POINT('Line Origine',(0.,-3.67394039744E-017,0.6)) ;
#231=CARTESIAN_POINT('Axis2P3D Location',(60.,0.,1.2)) ;
#236=CARTESIAN_POINT('Line Origine',(30.,-7.34788079488E-017,4.4408920985E-016)) ;
#248=CARTESIAN_POINT('Axis2P3D Location',(55.,7.5,-0.060000000021)) ;
#253=CARTESIAN_POINT('Axis2P3D Location',(55.,7.5,0.)) ;
#257=CARTESIAN_POINT('Vertex',(57.1,7.5,1.57474777179E-032)) ;
#259=CARTESIAN_POINT('Vertex',(52.9,7.5,0.)) ;
#262=CARTESIAN_POINT('Line Origine',(57.1,7.5,-0.060000000021)) ;
#267=CARTESIAN_POINT('Line Origine',(52.9,7.5,-0.060000000021)) ;
#279=CARTESIAN_POINT('Axis2P3D Location',(55.,7.5,0.)) ;
#291=CARTESIAN_POINT('Axis2P3D Location',(30.,7.5,0.)) ;
#34=DIRECTION('Axis2P3D Direction',(0.,6.12323399574E-017,1.)) ;
#35=DIRECTION('Axis2P3D XDirection',(1.,-1.22464679915E-016,7.49879891331E-033)) ;
#39=DIRECTION('Axis2P3D Direction',(0.,6.12323399574E-017,1.)) ;
#48=DIRECTION('Vector Direction',(0.,0.,1.)) ;
#55=DIRECTION('Axis2P3D Direction',(0.,6.12323399574E-017,1.)) ;
#62=DIRECTION('Vector Direction',(0.,0.,1.)) ;
#74=DIRECTION('Axis2P3D Direction',(0.,6.12323399574E-017,1.)) ;
#79=DIRECTION('Axis2P3D Direction',(0.,6.12323399574E-017,1.)) ;
#91=DIRECTION('Axis2P3D Direction',(0.,6.12323399574E-017,1.)) ;
#92=DIRECTION('Axis2P3D XDirection',(-1.,0.,0.)) ;
#96=DIRECTION('Vector Direction',(0.,1.,-5.92118946467E-017)) ;
#105=DIRECTION('Vector Direction',(1.,0.,0.)) ;
#112=DIRECTION('Vector Direction',(0.,-1.,5.92118946467E-017)) ;
#119=DIRECTION('Vector Direction',(-1.,0.,0.)) ;
#134=DIRECTION('Axis2P3D Direction',(0.,6.12323399574E-017,1.)) ;
#143=DIRECTION('Axis2P3D Direction',(0.,6.12323399574E-017,1.)) ;
#153=DIRECTION('Axis2P3D Direction',(-1.,0.,-0.)) ;
#154=DIRECTION('Axis2P3D XDirection',(0.,1.,-6.12323399574E-017)) ;
#158=DIRECTION('Vector Direction',(0.,1.,-5.92118946467E-017)) ;
#167=DIRECTION('Vector Direction',(0.,0.,-1.)) ;
#172=DIRECTION('Vector Direction',(0.,-6.12323399574E-017,-1.)) ;
#184=DIRECTION('Axis2P3D Direction',(0.,1.,-6.12323399574E-017)) ;
#185=DIRECTION('Axis2P3D XDirection',(1.,0.,0.)) ;
#189=DIRECTION('Vector Direction',(1.,0.,0.)) ;
#196=DIRECTION('Vector Direction',(0.,0.,-1.)) ;
#208=DIRECTION('Axis2P3D Direction',(1.,0.,0.)) ;
#209=DIRECTION('Axis2P3D XDirection',(0.,-1.,6.12323399574E-017)) ;
#213=DIRECTION('Vector Direction',(0.,-1.,5.92118946467E-017)) ;
#220=DIRECTION('Vector Direction',(0.,-6.12323399574E-017,-1.)) ;
#232=DIRECTION('Axis2P3D Direction',(0.,-1.,6.12323399574E-017)) ;
#233=DIRECTION('Axis2P3D XDirection',(-1.,0.,0.)) ;
#237=DIRECTION('Vector Direction',(-1.,0.,0.)) ;
#249=DIRECTION('Axis2P3D Direction',(0.,6.12323399574E-017,1.)) ;
#250=DIRECTION('Axis2P3D XDirection',(-1.,0.,0.)) ;
#254=DIRECTION('Axis2P3D Direction',(0.,6.12323399574E-017,1.)) ;
#263=DIRECTION('Vector Direction',(0.,0.,1.)) ;
#268=DIRECTION('Vector Direction',(0.,0.,1.)) ;
#280=DIRECTION('Axis2P3D Direction',(0.,6.12323399574E-017,1.)) ;
#292=DIRECTION('Axis2P3D Direction',(0.,6.12323399574E-017,1.)) ;
#293=DIRECTION('Axis2P3D XDirection',(-1.,0.,0.)) ;
#31=PRESENTATION_LAYER_ASSIGNMENT('1',' ',(#22)) ;
#8=PRODUCT_RELATED_PRODUCT_CATEGORY('part',$,(#5)) ;
#7=PRODUCT_CATEGORY('part','specification') ;
#30=STYLED_ITEM(' ',(#29),#22) ;
#29=PRESENTATION_STYLE_ASSIGNMENT((#28)) ;
#28=SURFACE_STYLE_USAGE(.BOTH.,#27) ;
#27=SURFACE_SIDE_STYLE(' ',(#26)) ;
#26=SURFACE_STYLE_FILL_AREA(#25) ;
#25=FILL_AREA_STYLE(' ',(#24)) ;
#24=FILL_AREA_STYLE_COLOUR(' ',#23) ;
#49=VECTOR('Line Direction',#48,1.) ;
#63=VECTOR('Line Direction',#62,1.) ;
#97=VECTOR('Line Direction',#96,1.) ;
#106=VECTOR('Line Direction',#105,1.) ;
#113=VECTOR('Line Direction',#112,1.) ;
#120=VECTOR('Line Direction',#119,1.) ;
#159=VECTOR('Line Direction',#158,1.) ;
#168=VECTOR('Line Direction',#167,1.) ;
#173=VECTOR('Line Direction',#172,1.) ;
#190=VECTOR('Line Direction',#189,1.) ;
#197=VECTOR('Line Direction',#196,1.) ;
#214=VECTOR('Line Direction',#213,1.) ;
#221=VECTOR('Line Direction',#220,1.) ;
#238=VECTOR('Line Direction',#237,1.) ;
#264=VECTOR('Line Direction',#263,1.) ;
#269=VECTOR('Line Direction',#268,1.) ;
#16=UNCERTAINTY_MEASURE_WITH_UNIT(LENGTH_MEASURE(0.005),#12,'distance_accuracy_value','CONFUSED CURVE UNCERTAINTY') ;
#312=SHAPE_REPRESENTATION_RELATIONSHIP(' ',' ',#20,#311) ;
#67=ORIENTED_EDGE('',*,*,#46,.F.) ;
#68=ORIENTED_EDGE('',*,*,#53,.F.) ;
#69=ORIENTED_EDGE('',*,*,#60,.T.) ;
#70=ORIENTED_EDGE('',*,*,#65,.T.) ;
#84=ORIENTED_EDGE('',*,*,#77,.F.) ;
#85=ORIENTED_EDGE('',*,*,#65,.F.) ;
#86=ORIENTED_EDGE('',*,*,#82,.T.) ;
#87=ORIENTED_EDGE('',*,*,#53,.T.) ;
#124=ORIENTED_EDGE('',*,*,#103,.T.) ;
#125=ORIENTED_EDGE('',*,*,#110,.T.) ;
#126=ORIENTED_EDGE('',*,*,#117,.T.) ;
#127=ORIENTED_EDGE('',*,*,#122,.T.) ;
#130=ORIENTED_EDGE('',*,*,#82,.F.) ;
#131=ORIENTED_EDGE('',*,*,#60,.F.) ;
#148=ORIENTED_EDGE('',*,*,#141,.F.) ;
#149=ORIENTED_EDGE('',*,*,#146,.F.) ;
#177=ORIENTED_EDGE('',*,*,#165,.T.) ;
#178=ORIENTED_EDGE('',*,*,#170,.F.) ;
#179=ORIENTED_EDGE('',*,*,#103,.F.) ;
#180=ORIENTED_EDGE('',*,*,#175,.T.) ;
#201=ORIENTED_EDGE('',*,*,#194,.T.) ;
#202=ORIENTED_EDGE('',*,*,#199,.F.) ;
#203=ORIENTED_EDGE('',*,*,#110,.F.) ;
#204=ORIENTED_EDGE('',*,*,#170,.T.) ;
#225=ORIENTED_EDGE('',*,*,#218,.T.) ;
#226=ORIENTED_EDGE('',*,*,#223,.F.) ;
#227=ORIENTED_EDGE('',*,*,#117,.F.) ;
#228=ORIENTED_EDGE('',*,*,#199,.T.) ;
#242=ORIENTED_EDGE('',*,*,#240,.T.) ;
#243=ORIENTED_EDGE('',*,*,#175,.F.) ;
#244=ORIENTED_EDGE('',*,*,#122,.F.) ;
#245=ORIENTED_EDGE('',*,*,#223,.T.) ;
#273=ORIENTED_EDGE('',*,*,#261,.F.) ;
#274=ORIENTED_EDGE('',*,*,#266,.F.) ;
#275=ORIENTED_EDGE('',*,*,#146,.T.) ;
#276=ORIENTED_EDGE('',*,*,#271,.T.) ;
#285=ORIENTED_EDGE('',*,*,#283,.F.) ;
#286=ORIENTED_EDGE('',*,*,#271,.F.) ;
#287=ORIENTED_EDGE('',*,*,#141,.T.) ;
#288=ORIENTED_EDGE('',*,*,#266,.T.) ;
#297=ORIENTED_EDGE('',*,*,#240,.F.) ;
#298=ORIENTED_EDGE('',*,*,#218,.F.) ;
#299=ORIENTED_EDGE('',*,*,#194,.F.) ;
#300=ORIENTED_EDGE('',*,*,#165,.F.) ;
#303=ORIENTED_EDGE('',*,*,#46,.T.) ;
#304=ORIENTED_EDGE('',*,*,#77,.T.) ;
#307=ORIENTED_EDGE('',*,*,#261,.T.) ;
#308=ORIENTED_EDGE('',*,*,#283,.T.) ;
#132=FACE_BOUND('',#129,.T.) ;
#150=FACE_BOUND('',#147,.T.) ;
#305=FACE_BOUND('',#302,.T.) ;
#309=FACE_BOUND('',#306,.T.) ;
#32=CLOSED_SHELL('Closed Shell',(#72,#89,#151,#182,#206,#230,#247,#278,#290,#310)) ;
#311=ADVANCED_BREP_SHAPE_REPRESENTATION('NONE',(#22),#17) ;
#72=ADVANCED_FACE('S3D-gedreht',(#71),#37,.F.) ;
#89=ADVANCED_FACE('S3D-gedreht',(#88),#37,.F.) ;
#151=ADVANCED_FACE('S3D-gedreht',(#128,#132,#150),#94,.T.) ;
#182=ADVANCED_FACE('S3D-gedreht',(#181),#156,.F.) ;
#206=ADVANCED_FACE('S3D-gedreht',(#205),#187,.T.) ;
#230=ADVANCED_FACE('S3D-gedreht',(#229),#211,.F.) ;
#247=ADVANCED_FACE('S3D-gedreht',(#246),#235,.T.) ;
#278=ADVANCED_FACE('S3D-gedreht',(#277),#252,.F.) ;
#290=ADVANCED_FACE('S3D-gedreht',(#289),#252,.F.) ;
#310=ADVANCED_FACE('S3D-gedreht',(#301,#305,#309),#295,.F.) ;
#4=APPLICATION_PROTOCOL_DEFINITION('international standard','automotive_design',2001,#1) ;
#22=MANIFOLD_SOLID_BREP('S3D-gedreht',#32) ;
#41=CIRCLE('generated circle',#40,2.1) ;
#57=CIRCLE('generated circle',#56,2.1) ;
#76=CIRCLE('generated circle',#75,2.1) ;
#81=CIRCLE('generated circle',#80,2.1) ;
#136=CIRCLE('generated circle',#135,2.1) ;
#145=CIRCLE('generated circle',#144,2.1) ;
#256=CIRCLE('generated circle',#255,2.1) ;
#282=CIRCLE('generated circle',#281,2.1) ;
#37=CYLINDRICAL_SURFACE('generated cylinder',#36,2.1) ;
#252=CYLINDRICAL_SURFACE('generated cylinder',#251,2.1) ;
#23=DRAUGHTING_PRE_DEFINED_COLOUR('yellow') ;
#46=EDGE_CURVE('',#43,#45,#41,.T.) ;
#53=EDGE_CURVE('',#52,#43,#50,.F.) ;
#60=EDGE_CURVE('',#52,#59,#57,.T.) ;
#65=EDGE_CURVE('',#59,#45,#64,.F.) ;
#77=EDGE_CURVE('',#45,#43,#76,.T.) ;
#82=EDGE_CURVE('',#59,#52,#81,.T.) ;
#103=EDGE_CURVE('',#100,#102,#98,.T.) ;
#110=EDGE_CURVE('',#102,#109,#107,.F.) ;
#117=EDGE_CURVE('',#109,#116,#114,.T.) ;
#122=EDGE_CURVE('',#116,#100,#121,.F.) ;
#141=EDGE_CURVE('',#138,#140,#136,.T.) ;
#146=EDGE_CURVE('',#140,#138,#145,.T.) ;
#165=EDGE_CURVE('',#162,#164,#160,.T.) ;
#170=EDGE_CURVE('',#102,#164,#169,.T.) ;
#175=EDGE_CURVE('',#100,#162,#174,.T.) ;
#194=EDGE_CURVE('',#164,#193,#191,.F.) ;
#199=EDGE_CURVE('',#109,#193,#198,.T.) ;
#218=EDGE_CURVE('',#193,#217,#215,.T.) ;
#223=EDGE_CURVE('',#116,#217,#222,.T.) ;
#240=EDGE_CURVE('',#217,#162,#239,.F.) ;
#261=EDGE_CURVE('',#258,#260,#256,.T.) ;
#266=EDGE_CURVE('',#140,#258,#265,.F.) ;
#271=EDGE_CURVE('',#138,#260,#270,.F.) ;
#283=EDGE_CURVE('',#260,#258,#282,.T.) ;
#66=EDGE_LOOP('',(#67,#68,#69,#70)) ;
#83=EDGE_LOOP('',(#84,#85,#86,#87)) ;
#123=EDGE_LOOP('',(#124,#125,#126,#127)) ;
#129=EDGE_LOOP('',(#130,#131)) ;
#147=EDGE_LOOP('',(#148,#149)) ;
#176=EDGE_LOOP('',(#177,#178,#179,#180)) ;
#200=EDGE_LOOP('',(#201,#202,#203,#204)) ;
#224=EDGE_LOOP('',(#225,#226,#227,#228)) ;
#241=EDGE_LOOP('',(#242,#243,#244,#245)) ;
#272=EDGE_LOOP('',(#273,#274,#275,#276)) ;
#284=EDGE_LOOP('',(#285,#286,#287,#288)) ;
#296=EDGE_LOOP('',(#297,#298,#299,#300)) ;
#302=EDGE_LOOP('',(#303,#304)) ;
#306=EDGE_LOOP('',(#307,#308)) ;
#71=FACE_OUTER_BOUND('',#66,.T.) ;
#88=FACE_OUTER_BOUND('',#83,.T.) ;
#128=FACE_OUTER_BOUND('',#123,.T.) ;
#181=FACE_OUTER_BOUND('',#176,.T.) ;
#205=FACE_OUTER_BOUND('',#200,.T.) ;
#229=FACE_OUTER_BOUND('',#224,.T.) ;
#246=FACE_OUTER_BOUND('',#241,.T.) ;
#277=FACE_OUTER_BOUND('',#272,.T.) ;
#289=FACE_OUTER_BOUND('',#284,.T.) ;
#301=FACE_OUTER_BOUND('',#296,.T.) ;
#50=LINE('Line',#47,#49) ;
#64=LINE('Line',#61,#63) ;
#98=LINE('Line',#95,#97) ;
#107=LINE('Line',#104,#106) ;
#114=LINE('Line',#111,#113) ;
#121=LINE('Line',#118,#120) ;
#160=LINE('Line',#157,#159) ;
#169=LINE('Line',#166,#168) ;
#174=LINE('Line',#171,#173) ;
#191=LINE('Line',#188,#190) ;
#198=LINE('Line',#195,#197) ;
#215=LINE('Line',#212,#214) ;
#222=LINE('Line',#219,#221) ;
#239=LINE('Line',#236,#238) ;
#265=LINE('Line',#262,#264) ;
#270=LINE('Line',#267,#269) ;
#94=PLANE('',#93) ;
#156=PLANE('',#155) ;
#187=PLANE('',#186) ;
#211=PLANE('',#210) ;
#235=PLANE('',#234) ;
#295=PLANE('',#294) ;
#14=PLANE_ANGLE_MEASURE_WITH_UNIT(PLANE_ANGLE_MEASURE(0.0174532925199),#13) ;
#9=PRODUCT_CATEGORY_RELATIONSHIP(' ',' ',#7,#8) ;
#6=PRODUCT_DEFINITION_FORMATION_WITH_SPECIFIED_SOURCE('',' ',#5,.NOT_KNOWN.) ;
#21=SHAPE_DEFINITION_REPRESENTATION(#11,#20) ;
#43=VERTEX_POINT('',#42) ;
#45=VERTEX_POINT('',#44) ;
#52=VERTEX_POINT('',#51) ;
#59=VERTEX_POINT('',#58) ;
#100=VERTEX_POINT('',#99) ;
#102=VERTEX_POINT('',#101) ;
#109=VERTEX_POINT('',#108) ;
#116=VERTEX_POINT('',#115) ;
#138=VERTEX_POINT('',#137) ;
#140=VERTEX_POINT('',#139) ;
#162=VERTEX_POINT('',#161) ;
#164=VERTEX_POINT('',#163) ;
#193=VERTEX_POINT('',#192) ;
#217=VERTEX_POINT('',#216) ;
#258=VERTEX_POINT('',#257) ;
#260=VERTEX_POINT('',#259) ;
#12=(LENGTH_UNIT()NAMED_UNIT(*)SI_UNIT(.MILLI.,.METRE.)) ;
#13=(NAMED_UNIT(*)PLANE_ANGLE_UNIT()SI_UNIT($,.RADIAN.)) ;
#15=(NAMED_UNIT(*)SI_UNIT($,.STERADIAN.)SOLID_ANGLE_UNIT()) ;
#17=(GEOMETRIC_REPRESENTATION_CONTEXT(3)GLOBAL_UNCERTAINTY_ASSIGNED_CONTEXT((#16))GLOBAL_UNIT_ASSIGNED_CONTEXT((#12,#13,#15))REPRESENTATION_CONTEXT(' ',' ')) ;
ENDSEC;
END-ISO-10303-21;
