ISO-10303-21;
HEADER;
FILE_DESCRIPTION(('CATIA V5 STEP','CAx-IF Rec.Pracs.--- Model Styling and Organization---1.4--- 2014-01-23'),'2;1');

FILE_NAME ('029657-9_0', '2021-08-18T08:35:28+00:00', ('none'), ('Weidmueller'), 'CATIA Version 5-6 Release 2016 SP3 HF44', 'CATIA V5 STEP AP214', 'none');

FILE_SCHEMA(('AUTOMOTIVE_DESIGN { 1 0 10303 214 1 1 1 1 }'));

ENDSEC;
DATA;
#5=PRODUCT('61455_SFX_9X24_MM_GE','','LEITERMARKIERER\X2\000D\X0\\X2\000A\X0\',(#2)) ;
#2=PRODUCT_CONTEXT(' ',#1,'mechanical') ;
#1=APPLICATION_CONTEXT('automotive design') ;
#10=PRODUCT_DEFINITION('',' ',#6,#3) ;
#3=PRODUCT_DEFINITION_CONTEXT('part definition',#1,' ') ;
#11=PRODUCT_DEFINITION_SHAPE(' ',' ',#10) ;
#454=MECHANICAL_DESIGN_GEOMETRIC_PRESENTATION_REPRESENTATION(' ',(#29),#16) ;
#19=SHAPE_REPRESENTATION(' ',(#18),#16) ;
#18=AXIS2_PLACEMENT_3D(' ',#17,$,$) ;
#35=AXIS2_PLACEMENT_3D('Plane Axis2P3D',#32,#33,#34) ;
#75=AXIS2_PLACEMENT_3D('Plane Axis2P3D',#72,#73,#74) ;
#106=AXIS2_PLACEMENT_3D('Plane Axis2P3D',#103,#104,#105) ;
#137=AXIS2_PLACEMENT_3D('Plane Axis2P3D',#134,#135,#136) ;
#159=AXIS2_PLACEMENT_3D('Plane Axis2P3D',#156,#157,#158) ;
#169=AXIS2_PLACEMENT_3D('Circle Axis2P3D',#167,#168,$) ;
#185=AXIS2_PLACEMENT_3D('Circle Axis2P3D',#183,#184,$) ;
#212=AXIS2_PLACEMENT_3D('Circle Axis2P3D',#210,#211,$) ;
#226=AXIS2_PLACEMENT_3D('Circle Axis2P3D',#224,#225,$) ;
#239=AXIS2_PLACEMENT_3D('Plane Axis2P3D',#236,#237,#238) ;
#258=AXIS2_PLACEMENT_3D('Circle Axis2P3D',#256,#257,$) ;
#272=AXIS2_PLACEMENT_3D('Circle Axis2P3D',#270,#271,$) ;
#283=AXIS2_PLACEMENT_3D('Circle Axis2P3D',#281,#282,$) ;
#299=AXIS2_PLACEMENT_3D('Circle Axis2P3D',#297,#298,$) ;
#319=AXIS2_PLACEMENT_3D('Plane Axis2P3D',#316,#317,#318) ;
#341=AXIS2_PLACEMENT_3D('Cylinder Axis2P3D',#338,#339,#340) ;
#358=AXIS2_PLACEMENT_3D('Cylinder Axis2P3D',#355,#356,#357) ;
#375=AXIS2_PLACEMENT_3D('Plane Axis2P3D',#372,#373,#374) ;
#387=AXIS2_PLACEMENT_3D('Cylinder Axis2P3D',#384,#385,#386) ;
#409=AXIS2_PLACEMENT_3D('Plane Axis2P3D',#406,#407,#408) ;
#426=AXIS2_PLACEMENT_3D('Plane Axis2P3D',#423,#424,#425) ;
#443=AXIS2_PLACEMENT_3D('Cylinder Axis2P3D',#440,#441,#442) ;
#17=CARTESIAN_POINT(' ',(0.,0.,0.)) ;
#32=CARTESIAN_POINT('Axis2P3D Location',(0.,26.,0.)) ;
#37=CARTESIAN_POINT('Line Origine',(0.,26.,0.3)) ;
#41=CARTESIAN_POINT('Vertex',(0.,26.,0.)) ;
#43=CARTESIAN_POINT('Vertex',(0.,26.,0.6)) ;
#46=CARTESIAN_POINT('Line Origine',(0.,13.,0.)) ;
#50=CARTESIAN_POINT('Vertex',(0.,-3.5527136788E-015,0.)) ;
#53=CARTESIAN_POINT('Line Origine',(0.,-3.5527136788E-015,0.3)) ;
#57=CARTESIAN_POINT('Vertex',(0.,-3.5527136788E-015,0.6)) ;
#60=CARTESIAN_POINT('Line Origine',(0.,13.,0.6)) ;
#72=CARTESIAN_POINT('Axis2P3D Location',(15.,0.,0.)) ;
#77=CARTESIAN_POINT('Line Origine',(7.5,0.,0.)) ;
#81=CARTESIAN_POINT('Vertex',(15.,0.,0.)) ;
#84=CARTESIAN_POINT('Line Origine',(15.,0.,0.3)) ;
#88=CARTESIAN_POINT('Vertex',(15.,0.,0.6)) ;
#91=CARTESIAN_POINT('Line Origine',(7.5,0.,0.6)) ;
#103=CARTESIAN_POINT('Axis2P3D Location',(15.,-3.5527136788E-015,0.)) ;
#108=CARTESIAN_POINT('Line Origine',(15.,13.,0.)) ;
#112=CARTESIAN_POINT('Vertex',(15.,26.,0.)) ;
#115=CARTESIAN_POINT('Line Origine',(15.,26.,0.3)) ;
#119=CARTESIAN_POINT('Vertex',(15.,26.,0.6)) ;
#122=CARTESIAN_POINT('Line Origine',(15.,13.,0.6)) ;
#134=CARTESIAN_POINT('Axis2P3D Location',(0.,26.,0.)) ;
#139=CARTESIAN_POINT('Line Origine',(7.5,26.,0.)) ;
#144=CARTESIAN_POINT('Line Origine',(7.5,26.,0.6)) ;
#156=CARTESIAN_POINT('Axis2P3D Location',(7.5,13.,0.6)) ;
#167=CARTESIAN_POINT('Axis2P3D Location',(12.95,15.05,0.6)) ;
#171=CARTESIAN_POINT('Vertex',(13.9,15.05,0.6)) ;
#173=CARTESIAN_POINT('Vertex',(12.,15.05,0.6)) ;
#176=CARTESIAN_POINT('Line Origine',(13.9,13.,0.6)) ;
#180=CARTESIAN_POINT('Vertex',(13.9,10.95,0.6)) ;
#183=CARTESIAN_POINT('Axis2P3D Location',(12.95,10.95,0.6)) ;
#187=CARTESIAN_POINT('Vertex',(12.,10.95,0.6)) ;
#190=CARTESIAN_POINT('Line Origine',(12.,13.,0.6)) ;
#201=CARTESIAN_POINT('Line Origine',(1.1,13.,0.6)) ;
#205=CARTESIAN_POINT('Vertex',(1.1,15.05,0.6)) ;
#207=CARTESIAN_POINT('Vertex',(1.1,10.95,0.6)) ;
#210=CARTESIAN_POINT('Axis2P3D Location',(2.05,15.05,0.6)) ;
#214=CARTESIAN_POINT('Vertex',(3.,15.05,0.6)) ;
#217=CARTESIAN_POINT('Line Origine',(3.,13.,0.6)) ;
#221=CARTESIAN_POINT('Vertex',(3.,10.95,0.6)) ;
#224=CARTESIAN_POINT('Axis2P3D Location',(2.05,10.95,0.6)) ;
#236=CARTESIAN_POINT('Axis2P3D Location',(7.5,13.,0.)) ;
#247=CARTESIAN_POINT('Line Origine',(12.,13.,0.)) ;
#251=CARTESIAN_POINT('Vertex',(12.,15.05,0.)) ;
#253=CARTESIAN_POINT('Vertex',(12.,10.95,0.)) ;
#256=CARTESIAN_POINT('Axis2P3D Location',(12.95,10.95,0.)) ;
#260=CARTESIAN_POINT('Vertex',(13.9,10.95,0.)) ;
#263=CARTESIAN_POINT('Line Origine',(13.9,13.,0.)) ;
#267=CARTESIAN_POINT('Vertex',(13.9,15.05,0.)) ;
#270=CARTESIAN_POINT('Axis2P3D Location',(12.95,15.05,0.)) ;
#281=CARTESIAN_POINT('Axis2P3D Location',(2.05,10.95,0.)) ;
#285=CARTESIAN_POINT('Vertex',(1.1,10.95,0.)) ;
#287=CARTESIAN_POINT('Vertex',(3.,10.95,0.)) ;
#290=CARTESIAN_POINT('Line Origine',(3.,13.,0.)) ;
#294=CARTESIAN_POINT('Vertex',(3.,15.05,0.)) ;
#297=CARTESIAN_POINT('Axis2P3D Location',(2.05,15.05,0.)) ;
#301=CARTESIAN_POINT('Vertex',(1.1,15.05,0.)) ;
#304=CARTESIAN_POINT('Line Origine',(1.1,13.,0.)) ;
#316=CARTESIAN_POINT('Axis2P3D Location',(3.,10.95,0.6)) ;
#321=CARTESIAN_POINT('Line Origine',(3.,10.95,0.3)) ;
#326=CARTESIAN_POINT('Line Origine',(3.,15.05,0.3)) ;
#338=CARTESIAN_POINT('Axis2P3D Location',(2.05,10.95,0.3)) ;
#343=CARTESIAN_POINT('Line Origine',(1.1,10.95,0.3)) ;
#355=CARTESIAN_POINT('Axis2P3D Location',(2.05,15.05,0.3)) ;
#360=CARTESIAN_POINT('Line Origine',(1.1,15.05,0.3)) ;
#372=CARTESIAN_POINT('Axis2P3D Location',(1.1,15.05,0.6)) ;
#384=CARTESIAN_POINT('Axis2P3D Location',(12.95,10.95,0.3)) ;
#389=CARTESIAN_POINT('Line Origine',(12.,10.95,0.3)) ;
#394=CARTESIAN_POINT('Line Origine',(13.9,10.95,0.3)) ;
#406=CARTESIAN_POINT('Axis2P3D Location',(12.,10.95,0.6)) ;
#411=CARTESIAN_POINT('Line Origine',(12.,15.05,0.3)) ;
#423=CARTESIAN_POINT('Axis2P3D Location',(13.9,15.05,0.6)) ;
#428=CARTESIAN_POINT('Line Origine',(13.9,15.05,0.3)) ;
#440=CARTESIAN_POINT('Axis2P3D Location',(12.95,15.05,0.3)) ;
#33=DIRECTION('Axis2P3D Direction',(-1.,0.,0.)) ;
#34=DIRECTION('Axis2P3D XDirection',(0.,-1.,0.)) ;
#38=DIRECTION('Vector Direction',(0.,0.,1.)) ;
#47=DIRECTION('Vector Direction',(0.,-1.,0.)) ;
#54=DIRECTION('Vector Direction',(0.,0.,1.)) ;
#61=DIRECTION('Vector Direction',(0.,-1.,0.)) ;
#73=DIRECTION('Axis2P3D Direction',(0.,1.,-0.)) ;
#74=DIRECTION('Axis2P3D XDirection',(-1.,0.,0.)) ;
#78=DIRECTION('Vector Direction',(-1.,0.,0.)) ;
#85=DIRECTION('Vector Direction',(0.,0.,1.)) ;
#92=DIRECTION('Vector Direction',(-1.,0.,0.)) ;
#104=DIRECTION('Axis2P3D Direction',(1.,0.,0.)) ;
#105=DIRECTION('Axis2P3D XDirection',(0.,1.,0.)) ;
#109=DIRECTION('Vector Direction',(0.,1.,0.)) ;
#116=DIRECTION('Vector Direction',(0.,0.,1.)) ;
#123=DIRECTION('Vector Direction',(0.,1.,0.)) ;
#135=DIRECTION('Axis2P3D Direction',(0.,-1.,0.)) ;
#136=DIRECTION('Axis2P3D XDirection',(1.,0.,0.)) ;
#140=DIRECTION('Vector Direction',(1.,0.,0.)) ;
#145=DIRECTION('Vector Direction',(1.,0.,0.)) ;
#157=DIRECTION('Axis2P3D Direction',(0.,0.,1.)) ;
#158=DIRECTION('Axis2P3D XDirection',(1.,0.,0.)) ;
#168=DIRECTION('Axis2P3D Direction',(0.,0.,1.)) ;
#177=DIRECTION('Vector Direction',(0.,-1.,0.)) ;
#184=DIRECTION('Axis2P3D Direction',(0.,0.,1.)) ;
#191=DIRECTION('Vector Direction',(0.,1.,0.)) ;
#202=DIRECTION('Vector Direction',(0.,-1.,0.)) ;
#211=DIRECTION('Axis2P3D Direction',(0.,0.,1.)) ;
#218=DIRECTION('Vector Direction',(0.,1.,0.)) ;
#225=DIRECTION('Axis2P3D Direction',(0.,0.,1.)) ;
#237=DIRECTION('Axis2P3D Direction',(0.,0.,1.)) ;
#238=DIRECTION('Axis2P3D XDirection',(1.,0.,0.)) ;
#248=DIRECTION('Vector Direction',(0.,1.,0.)) ;
#257=DIRECTION('Axis2P3D Direction',(0.,0.,1.)) ;
#264=DIRECTION('Vector Direction',(0.,-1.,0.)) ;
#271=DIRECTION('Axis2P3D Direction',(0.,0.,1.)) ;
#282=DIRECTION('Axis2P3D Direction',(0.,0.,1.)) ;
#291=DIRECTION('Vector Direction',(0.,1.,0.)) ;
#298=DIRECTION('Axis2P3D Direction',(0.,0.,1.)) ;
#305=DIRECTION('Vector Direction',(0.,-1.,0.)) ;
#317=DIRECTION('Axis2P3D Direction',(-1.,0.,0.)) ;
#318=DIRECTION('Axis2P3D XDirection',(0.,1.,0.)) ;
#322=DIRECTION('Vector Direction',(0.,0.,-1.)) ;
#327=DIRECTION('Vector Direction',(0.,0.,-1.)) ;
#339=DIRECTION('Axis2P3D Direction',(0.,0.,1.)) ;
#340=DIRECTION('Axis2P3D XDirection',(-1.,1.22464679915E-016,0.)) ;
#344=DIRECTION('Vector Direction',(0.,0.,1.)) ;
#356=DIRECTION('Axis2P3D Direction',(0.,0.,1.)) ;
#357=DIRECTION('Axis2P3D XDirection',(1.,-1.13310777953E-015,0.)) ;
#361=DIRECTION('Vector Direction',(0.,0.,1.)) ;
#373=DIRECTION('Axis2P3D Direction',(1.,0.,0.)) ;
#374=DIRECTION('Axis2P3D XDirection',(0.,-1.,0.)) ;
#385=DIRECTION('Axis2P3D Direction',(0.,0.,1.)) ;
#386=DIRECTION('Axis2P3D XDirection',(-1.,1.22464679915E-016,0.)) ;
#390=DIRECTION('Vector Direction',(0.,0.,1.)) ;
#395=DIRECTION('Vector Direction',(0.,0.,1.)) ;
#407=DIRECTION('Axis2P3D Direction',(-1.,0.,0.)) ;
#408=DIRECTION('Axis2P3D XDirection',(0.,1.,0.)) ;
#412=DIRECTION('Vector Direction',(0.,0.,-1.)) ;
#424=DIRECTION('Axis2P3D Direction',(1.,0.,0.)) ;
#425=DIRECTION('Axis2P3D XDirection',(0.,-1.,0.)) ;
#429=DIRECTION('Vector Direction',(0.,0.,-1.)) ;
#441=DIRECTION('Axis2P3D Direction',(0.,0.,1.)) ;
#442=DIRECTION('Axis2P3D XDirection',(1.,-1.13310777953E-015,0.)) ;
#30=PRESENTATION_LAYER_ASSIGNMENT('1',' ',(#21)) ;
#8=PRODUCT_RELATED_PRODUCT_CATEGORY('part',$,(#5)) ;
#7=PRODUCT_CATEGORY('part','specification') ;
#29=STYLED_ITEM(' ',(#28),#21) ;
#28=PRESENTATION_STYLE_ASSIGNMENT((#27)) ;
#27=SURFACE_STYLE_USAGE(.BOTH.,#26) ;
#26=SURFACE_SIDE_STYLE(' ',(#25)) ;
#25=SURFACE_STYLE_FILL_AREA(#24) ;
#24=FILL_AREA_STYLE(' ',(#23)) ;
#23=FILL_AREA_STYLE_COLOUR(' ',#22) ;
#39=VECTOR('Line Direction',#38,1.) ;
#48=VECTOR('Line Direction',#47,1.) ;
#55=VECTOR('Line Direction',#54,1.) ;
#62=VECTOR('Line Direction',#61,1.) ;
#79=VECTOR('Line Direction',#78,1.) ;
#86=VECTOR('Line Direction',#85,1.) ;
#93=VECTOR('Line Direction',#92,1.) ;
#110=VECTOR('Line Direction',#109,1.) ;
#117=VECTOR('Line Direction',#116,1.) ;
#124=VECTOR('Line Direction',#123,1.) ;
#141=VECTOR('Line Direction',#140,1.) ;
#146=VECTOR('Line Direction',#145,1.) ;
#178=VECTOR('Line Direction',#177,1.) ;
#192=VECTOR('Line Direction',#191,1.) ;
#203=VECTOR('Line Direction',#202,1.) ;
#219=VECTOR('Line Direction',#218,1.) ;
#249=VECTOR('Line Direction',#248,1.) ;
#265=VECTOR('Line Direction',#264,1.) ;
#292=VECTOR('Line Direction',#291,1.) ;
#306=VECTOR('Line Direction',#305,1.) ;
#323=VECTOR('Line Direction',#322,1.) ;
#328=VECTOR('Line Direction',#327,1.) ;
#345=VECTOR('Line Direction',#344,1.) ;
#362=VECTOR('Line Direction',#361,1.) ;
#391=VECTOR('Line Direction',#390,1.) ;
#396=VECTOR('Line Direction',#395,1.) ;
#413=VECTOR('Line Direction',#412,1.) ;
#430=VECTOR('Line Direction',#429,1.) ;
#15=UNCERTAINTY_MEASURE_WITH_UNIT(LENGTH_MEASURE(0.005),#12,'distance_accuracy_value','CONFUSED CURVE UNCERTAINTY') ;
#453=SHAPE_REPRESENTATION_RELATIONSHIP(' ',' ',#19,#452) ;
#66=ORIENTED_EDGE('',*,*,#45,.F.) ;
#67=ORIENTED_EDGE('',*,*,#52,.T.) ;
#68=ORIENTED_EDGE('',*,*,#59,.T.) ;
#69=ORIENTED_EDGE('',*,*,#64,.F.) ;
#97=ORIENTED_EDGE('',*,*,#59,.F.) ;
#98=ORIENTED_EDGE('',*,*,#83,.T.) ;
#99=ORIENTED_EDGE('',*,*,#90,.T.) ;
#100=ORIENTED_EDGE('',*,*,#95,.F.) ;
#128=ORIENTED_EDGE('',*,*,#90,.F.) ;
#129=ORIENTED_EDGE('',*,*,#114,.T.) ;
#130=ORIENTED_EDGE('',*,*,#121,.T.) ;
#131=ORIENTED_EDGE('',*,*,#126,.F.) ;
#150=ORIENTED_EDGE('',*,*,#121,.F.) ;
#151=ORIENTED_EDGE('',*,*,#143,.T.) ;
#152=ORIENTED_EDGE('',*,*,#45,.T.) ;
#153=ORIENTED_EDGE('',*,*,#148,.F.) ;
#162=ORIENTED_EDGE('',*,*,#64,.T.) ;
#163=ORIENTED_EDGE('',*,*,#95,.T.) ;
#164=ORIENTED_EDGE('',*,*,#126,.T.) ;
#165=ORIENTED_EDGE('',*,*,#148,.T.) ;
#196=ORIENTED_EDGE('',*,*,#175,.F.) ;
#197=ORIENTED_EDGE('',*,*,#182,.F.) ;
#198=ORIENTED_EDGE('',*,*,#189,.F.) ;
#199=ORIENTED_EDGE('',*,*,#194,.F.) ;
#230=ORIENTED_EDGE('',*,*,#209,.F.) ;
#231=ORIENTED_EDGE('',*,*,#216,.F.) ;
#232=ORIENTED_EDGE('',*,*,#223,.F.) ;
#233=ORIENTED_EDGE('',*,*,#228,.F.) ;
#242=ORIENTED_EDGE('',*,*,#143,.F.) ;
#243=ORIENTED_EDGE('',*,*,#114,.F.) ;
#244=ORIENTED_EDGE('',*,*,#83,.F.) ;
#245=ORIENTED_EDGE('',*,*,#52,.F.) ;
#276=ORIENTED_EDGE('',*,*,#255,.T.) ;
#277=ORIENTED_EDGE('',*,*,#262,.T.) ;
#278=ORIENTED_EDGE('',*,*,#269,.T.) ;
#279=ORIENTED_EDGE('',*,*,#274,.T.) ;
#310=ORIENTED_EDGE('',*,*,#289,.T.) ;
#311=ORIENTED_EDGE('',*,*,#296,.T.) ;
#312=ORIENTED_EDGE('',*,*,#303,.T.) ;
#313=ORIENTED_EDGE('',*,*,#308,.T.) ;
#332=ORIENTED_EDGE('',*,*,#325,.F.) ;
#333=ORIENTED_EDGE('',*,*,#223,.T.) ;
#334=ORIENTED_EDGE('',*,*,#330,.T.) ;
#335=ORIENTED_EDGE('',*,*,#296,.F.) ;
#349=ORIENTED_EDGE('',*,*,#347,.F.) ;
#350=ORIENTED_EDGE('',*,*,#228,.T.) ;
#351=ORIENTED_EDGE('',*,*,#325,.T.) ;
#352=ORIENTED_EDGE('',*,*,#289,.F.) ;
#366=ORIENTED_EDGE('',*,*,#330,.F.) ;
#367=ORIENTED_EDGE('',*,*,#216,.T.) ;
#368=ORIENTED_EDGE('',*,*,#364,.T.) ;
#369=ORIENTED_EDGE('',*,*,#303,.F.) ;
#378=ORIENTED_EDGE('',*,*,#364,.F.) ;
#379=ORIENTED_EDGE('',*,*,#209,.T.) ;
#380=ORIENTED_EDGE('',*,*,#347,.T.) ;
#381=ORIENTED_EDGE('',*,*,#308,.F.) ;
#400=ORIENTED_EDGE('',*,*,#393,.F.) ;
#401=ORIENTED_EDGE('',*,*,#189,.T.) ;
#402=ORIENTED_EDGE('',*,*,#398,.T.) ;
#403=ORIENTED_EDGE('',*,*,#262,.F.) ;
#417=ORIENTED_EDGE('',*,*,#415,.F.) ;
#418=ORIENTED_EDGE('',*,*,#194,.T.) ;
#419=ORIENTED_EDGE('',*,*,#393,.T.) ;
#420=ORIENTED_EDGE('',*,*,#255,.F.) ;
#434=ORIENTED_EDGE('',*,*,#398,.F.) ;
#435=ORIENTED_EDGE('',*,*,#182,.T.) ;
#436=ORIENTED_EDGE('',*,*,#432,.T.) ;
#437=ORIENTED_EDGE('',*,*,#269,.F.) ;
#446=ORIENTED_EDGE('',*,*,#432,.F.) ;
#447=ORIENTED_EDGE('',*,*,#175,.T.) ;
#448=ORIENTED_EDGE('',*,*,#415,.T.) ;
#449=ORIENTED_EDGE('',*,*,#274,.F.) ;
#200=FACE_BOUND('',#195,.T.) ;
#234=FACE_BOUND('',#229,.T.) ;
#280=FACE_BOUND('',#275,.T.) ;
#314=FACE_BOUND('',#309,.T.) ;
#31=CLOSED_SHELL('Closed Shell',(#71,#102,#133,#155,#235,#315,#337,#354,#371,#383,#405,#422,#439,#451)) ;
#452=ADVANCED_BREP_SHAPE_REPRESENTATION('NONE',(#21),#16) ;
#71=ADVANCED_FACE('S3D positioniert',(#70),#36,.T.) ;
#102=ADVANCED_FACE('S3D positioniert',(#101),#76,.F.) ;
#133=ADVANCED_FACE('S3D positioniert',(#132),#107,.T.) ;
#155=ADVANCED_FACE('S3D positioniert',(#154),#138,.F.) ;
#235=ADVANCED_FACE('S3D positioniert',(#166,#200,#234),#160,.T.) ;
#315=ADVANCED_FACE('S3D positioniert',(#246,#280,#314),#240,.F.) ;
#337=ADVANCED_FACE('S3D positioniert',(#336),#320,.T.) ;
#354=ADVANCED_FACE('S3D positioniert',(#353),#342,.F.) ;
#371=ADVANCED_FACE('S3D positioniert',(#370),#359,.F.) ;
#383=ADVANCED_FACE('S3D positioniert',(#382),#376,.T.) ;
#405=ADVANCED_FACE('S3D positioniert',(#404),#388,.F.) ;
#422=ADVANCED_FACE('S3D positioniert',(#421),#410,.F.) ;
#439=ADVANCED_FACE('S3D positioniert',(#438),#427,.F.) ;
#451=ADVANCED_FACE('S3D positioniert',(#450),#444,.F.) ;
#4=APPLICATION_PROTOCOL_DEFINITION('international standard','automotive_design',2001,#1) ;
#21=MANIFOLD_SOLID_BREP('S3D positioniert',#31) ;
#170=CIRCLE('generated circle',#169,0.95) ;
#186=CIRCLE('generated circle',#185,0.95) ;
#213=CIRCLE('generated circle',#212,0.95) ;
#227=CIRCLE('generated circle',#226,0.95) ;
#259=CIRCLE('generated circle',#258,0.95) ;
#273=CIRCLE('generated circle',#272,0.95) ;
#284=CIRCLE('generated circle',#283,0.95) ;
#300=CIRCLE('generated circle',#299,0.95) ;
#342=CYLINDRICAL_SURFACE('generated cylinder',#341,0.95) ;
#359=CYLINDRICAL_SURFACE('generated cylinder',#358,0.95) ;
#388=CYLINDRICAL_SURFACE('generated cylinder',#387,0.95) ;
#444=CYLINDRICAL_SURFACE('generated cylinder',#443,0.95) ;
#22=DRAUGHTING_PRE_DEFINED_COLOUR('yellow') ;
#45=EDGE_CURVE('',#42,#44,#40,.T.) ;
#52=EDGE_CURVE('',#42,#51,#49,.T.) ;
#59=EDGE_CURVE('',#51,#58,#56,.T.) ;
#64=EDGE_CURVE('',#44,#58,#63,.T.) ;
#83=EDGE_CURVE('',#51,#82,#80,.F.) ;
#90=EDGE_CURVE('',#82,#89,#87,.T.) ;
#95=EDGE_CURVE('',#58,#89,#94,.F.) ;
#114=EDGE_CURVE('',#82,#113,#111,.T.) ;
#121=EDGE_CURVE('',#113,#120,#118,.T.) ;
#126=EDGE_CURVE('',#89,#120,#125,.T.) ;
#143=EDGE_CURVE('',#113,#42,#142,.F.) ;
#148=EDGE_CURVE('',#120,#44,#147,.F.) ;
#175=EDGE_CURVE('',#172,#174,#170,.T.) ;
#182=EDGE_CURVE('',#181,#172,#179,.F.) ;
#189=EDGE_CURVE('',#188,#181,#186,.T.) ;
#194=EDGE_CURVE('',#174,#188,#193,.F.) ;
#209=EDGE_CURVE('',#206,#208,#204,.T.) ;
#216=EDGE_CURVE('',#215,#206,#213,.T.) ;
#223=EDGE_CURVE('',#222,#215,#220,.T.) ;
#228=EDGE_CURVE('',#208,#222,#227,.T.) ;
#255=EDGE_CURVE('',#252,#254,#250,.F.) ;
#262=EDGE_CURVE('',#254,#261,#259,.T.) ;
#269=EDGE_CURVE('',#261,#268,#266,.F.) ;
#274=EDGE_CURVE('',#268,#252,#273,.T.) ;
#289=EDGE_CURVE('',#286,#288,#284,.T.) ;
#296=EDGE_CURVE('',#288,#295,#293,.T.) ;
#303=EDGE_CURVE('',#295,#302,#300,.T.) ;
#308=EDGE_CURVE('',#302,#286,#307,.T.) ;
#325=EDGE_CURVE('',#222,#288,#324,.T.) ;
#330=EDGE_CURVE('',#215,#295,#329,.T.) ;
#347=EDGE_CURVE('',#208,#286,#346,.F.) ;
#364=EDGE_CURVE('',#206,#302,#363,.F.) ;
#393=EDGE_CURVE('',#188,#254,#392,.F.) ;
#398=EDGE_CURVE('',#181,#261,#397,.F.) ;
#415=EDGE_CURVE('',#174,#252,#414,.T.) ;
#432=EDGE_CURVE('',#172,#268,#431,.T.) ;
#65=EDGE_LOOP('',(#66,#67,#68,#69)) ;
#96=EDGE_LOOP('',(#97,#98,#99,#100)) ;
#127=EDGE_LOOP('',(#128,#129,#130,#131)) ;
#149=EDGE_LOOP('',(#150,#151,#152,#153)) ;
#161=EDGE_LOOP('',(#162,#163,#164,#165)) ;
#195=EDGE_LOOP('',(#196,#197,#198,#199)) ;
#229=EDGE_LOOP('',(#230,#231,#232,#233)) ;
#241=EDGE_LOOP('',(#242,#243,#244,#245)) ;
#275=EDGE_LOOP('',(#276,#277,#278,#279)) ;
#309=EDGE_LOOP('',(#310,#311,#312,#313)) ;
#331=EDGE_LOOP('',(#332,#333,#334,#335)) ;
#348=EDGE_LOOP('',(#349,#350,#351,#352)) ;
#365=EDGE_LOOP('',(#366,#367,#368,#369)) ;
#377=EDGE_LOOP('',(#378,#379,#380,#381)) ;
#399=EDGE_LOOP('',(#400,#401,#402,#403)) ;
#416=EDGE_LOOP('',(#417,#418,#419,#420)) ;
#433=EDGE_LOOP('',(#434,#435,#436,#437)) ;
#445=EDGE_LOOP('',(#446,#447,#448,#449)) ;
#70=FACE_OUTER_BOUND('',#65,.T.) ;
#101=FACE_OUTER_BOUND('',#96,.T.) ;
#132=FACE_OUTER_BOUND('',#127,.T.) ;
#154=FACE_OUTER_BOUND('',#149,.T.) ;
#166=FACE_OUTER_BOUND('',#161,.T.) ;
#246=FACE_OUTER_BOUND('',#241,.T.) ;
#336=FACE_OUTER_BOUND('',#331,.T.) ;
#353=FACE_OUTER_BOUND('',#348,.T.) ;
#370=FACE_OUTER_BOUND('',#365,.T.) ;
#382=FACE_OUTER_BOUND('',#377,.T.) ;
#404=FACE_OUTER_BOUND('',#399,.T.) ;
#421=FACE_OUTER_BOUND('',#416,.T.) ;
#438=FACE_OUTER_BOUND('',#433,.T.) ;
#450=FACE_OUTER_BOUND('',#445,.T.) ;
#40=LINE('Line',#37,#39) ;
#49=LINE('Line',#46,#48) ;
#56=LINE('Line',#53,#55) ;
#63=LINE('Line',#60,#62) ;
#80=LINE('Line',#77,#79) ;
#87=LINE('Line',#84,#86) ;
#94=LINE('Line',#91,#93) ;
#111=LINE('Line',#108,#110) ;
#118=LINE('Line',#115,#117) ;
#125=LINE('Line',#122,#124) ;
#142=LINE('Line',#139,#141) ;
#147=LINE('Line',#144,#146) ;
#179=LINE('Line',#176,#178) ;
#193=LINE('Line',#190,#192) ;
#204=LINE('Line',#201,#203) ;
#220=LINE('Line',#217,#219) ;
#250=LINE('Line',#247,#249) ;
#266=LINE('Line',#263,#265) ;
#293=LINE('Line',#290,#292) ;
#307=LINE('Line',#304,#306) ;
#324=LINE('Line',#321,#323) ;
#329=LINE('Line',#326,#328) ;
#346=LINE('Line',#343,#345) ;
#363=LINE('Line',#360,#362) ;
#392=LINE('Line',#389,#391) ;
#397=LINE('Line',#394,#396) ;
#414=LINE('Line',#411,#413) ;
#431=LINE('Line',#428,#430) ;
#36=PLANE('',#35) ;
#76=PLANE('',#75) ;
#107=PLANE('',#106) ;
#138=PLANE('',#137) ;
#160=PLANE('',#159) ;
#240=PLANE('',#239) ;
#320=PLANE('',#319) ;
#376=PLANE('',#375) ;
#410=PLANE('',#409) ;
#427=PLANE('',#426) ;
#9=PRODUCT_CATEGORY_RELATIONSHIP(' ',' ',#7,#8) ;
#6=PRODUCT_DEFINITION_FORMATION_WITH_SPECIFIED_SOURCE('',' ',#5,.NOT_KNOWN.) ;
#20=SHAPE_DEFINITION_REPRESENTATION(#11,#19) ;
#42=VERTEX_POINT('',#41) ;
#44=VERTEX_POINT('',#43) ;
#51=VERTEX_POINT('',#50) ;
#58=VERTEX_POINT('',#57) ;
#82=VERTEX_POINT('',#81) ;
#89=VERTEX_POINT('',#88) ;
#113=VERTEX_POINT('',#112) ;
#120=VERTEX_POINT('',#119) ;
#172=VERTEX_POINT('',#171) ;
#174=VERTEX_POINT('',#173) ;
#181=VERTEX_POINT('',#180) ;
#188=VERTEX_POINT('',#187) ;
#206=VERTEX_POINT('',#205) ;
#208=VERTEX_POINT('',#207) ;
#215=VERTEX_POINT('',#214) ;
#222=VERTEX_POINT('',#221) ;
#252=VERTEX_POINT('',#251) ;
#254=VERTEX_POINT('',#253) ;
#261=VERTEX_POINT('',#260) ;
#268=VERTEX_POINT('',#267) ;
#286=VERTEX_POINT('',#285) ;
#288=VERTEX_POINT('',#287) ;
#295=VERTEX_POINT('',#294) ;
#302=VERTEX_POINT('',#301) ;
#12=(LENGTH_UNIT()NAMED_UNIT(*)SI_UNIT(.MILLI.,.METRE.)) ;
#13=(NAMED_UNIT(*)PLANE_ANGLE_UNIT()SI_UNIT($,.RADIAN.)) ;
#14=(NAMED_UNIT(*)SI_UNIT($,.STERADIAN.)SOLID_ANGLE_UNIT()) ;
#16=(GEOMETRIC_REPRESENTATION_CONTEXT(3)GLOBAL_UNCERTAINTY_ASSIGNED_CONTEXT((#15))GLOBAL_UNIT_ASSIGNED_CONTEXT((#12,#13,#14))REPRESENTATION_CONTEXT(' ',' ')) ;
ENDSEC;
END-ISO-10303-21;
