ISO-10303-21;
HEADER;
FILE_DESCRIPTION(('CATIA V5R24 STEP','CAx-IF Rec.Pracs.--- Model Styling and Organization---1.2---2011-12-15'),'2;1');

FILE_NAME ('6746327_4', '2017-11-21T12:36:12+00:00', ('Weidmueller Interface'), ('Weidmueller'), 'CATIA Version 5-6 Release 2014 SP4', 'CATIA V5 STEP AP214', 'none');

FILE_SCHEMA(('AUTOMOTIVE_DESIGN { 1 0 10303 214 1 1 1 1 }'));

ENDSEC;
DATA;
#5=PRODUCT('S3D_RIM_2_3_XXX','','',(#2)) ;
#2=PRODUCT_CONTEXT(' ',#1,'mechanical') ;
#1=APPLICATION_CONTEXT('automotive design') ;
#10=PRODUCT_DEFINITION('',' ',#6,#3) ;
#3=PRODUCT_DEFINITION_CONTEXT('part definition',#1,' ') ;
#11=PRODUCT_DEFINITION_SHAPE(' ',' ',#10) ;
#625=MECHANICAL_DESIGN_GEOMETRIC_PRESENTATION_REPRESENTATION(' ',(#79,#111,#159,#182,#254,#281,#313,#326,#358,#371,#382,#388,#429,#452,#471,#489,#503,#516,#29,#548,#580,#593,#617,#624,#520),#16) ;
#19=SHAPE_REPRESENTATION(' ',(#18),#16) ;
#18=AXIS2_PLACEMENT_3D(' ',#17,$,$) ;
#35=AXIS2_PLACEMENT_3D('Plane Axis2P3D',#32,#33,#34) ;
#83=AXIS2_PLACEMENT_3D('Plane Axis2P3D',#80,#81,#82) ;
#115=AXIS2_PLACEMENT_3D('Plane Axis2P3D',#112,#113,#114) ;
#163=AXIS2_PLACEMENT_3D('Plane Axis2P3D',#160,#161,#162) ;
#186=AXIS2_PLACEMENT_3D('Plane Axis2P3D',#183,#184,#185) ;
#219=AXIS2_PLACEMENT_3D('Circle Axis2P3D',#217,#218,$) ;
#228=AXIS2_PLACEMENT_3D('Circle Axis2P3D',#226,#227,$) ;
#237=AXIS2_PLACEMENT_3D('Circle Axis2P3D',#235,#236,$) ;
#246=AXIS2_PLACEMENT_3D('Circle Axis2P3D',#244,#245,$) ;
#285=AXIS2_PLACEMENT_3D('Cylinder Axis2P3D',#282,#283,#284) ;
#296=AXIS2_PLACEMENT_3D('Circle Axis2P3D',#294,#295,$) ;
#316=AXIS2_PLACEMENT_3D('Circle Axis2P3D',#314,#315,$) ;
#330=AXIS2_PLACEMENT_3D('Cylinder Axis2P3D',#327,#328,#329) ;
#341=AXIS2_PLACEMENT_3D('Circle Axis2P3D',#339,#340,$) ;
#361=AXIS2_PLACEMENT_3D('Circle Axis2P3D',#359,#360,$) ;
#375=AXIS2_PLACEMENT_3D('Plane Axis2P3D',#372,#373,#374) ;
#392=AXIS2_PLACEMENT_3D('Plane Axis2P3D',#389,#390,#391) ;
#433=AXIS2_PLACEMENT_3D('Plane Axis2P3D',#430,#431,#432) ;
#456=AXIS2_PLACEMENT_3D('Plane Axis2P3D',#453,#454,#455) ;
#475=AXIS2_PLACEMENT_3D('Plane Axis2P3D',#472,#473,#474) ;
#493=AXIS2_PLACEMENT_3D('Plane Axis2P3D',#490,#491,#492) ;
#507=AXIS2_PLACEMENT_3D('Plane Axis2P3D',#504,#505,#506) ;
#524=AXIS2_PLACEMENT_3D('Circle Axis2P3D',#522,#523,$) ;
#533=AXIS2_PLACEMENT_3D('Circle Axis2P3D',#531,#532,$) ;
#552=AXIS2_PLACEMENT_3D('Cylinder Axis2P3D',#549,#550,#551) ;
#563=AXIS2_PLACEMENT_3D('Circle Axis2P3D',#561,#562,$) ;
#583=AXIS2_PLACEMENT_3D('Circle Axis2P3D',#581,#582,$) ;
#597=AXIS2_PLACEMENT_3D('Sphere Axis2P3D',#594,#595,#596) ;
#601=AXIS2_PLACEMENT_3D('Circle Axis2P3D',#599,#600,$) ;
#608=AXIS2_PLACEMENT_3D('Circle Axis2P3D',#606,#607,$) ;
#17=CARTESIAN_POINT(' ',(0.,0.,0.)) ;
#32=CARTESIAN_POINT('Axis2P3D Location',(0.,0.,8.)) ;
#37=CARTESIAN_POINT('Line Origine',(0.,0.,18.)) ;
#41=CARTESIAN_POINT('Vertex',(0.,0.,8.)) ;
#43=CARTESIAN_POINT('Vertex',(0.,0.,28.)) ;
#46=CARTESIAN_POINT('Line Origine',(6.2,0.,8.)) ;
#50=CARTESIAN_POINT('Vertex',(12.4,0.,8.)) ;
#53=CARTESIAN_POINT('Line Origine',(12.4,0.,18.)) ;
#57=CARTESIAN_POINT('Vertex',(12.4,0.,28.)) ;
#60=CARTESIAN_POINT('Line Origine',(6.2,0.,28.)) ;
#80=CARTESIAN_POINT('Axis2P3D Location',(12.4,0.,8.)) ;
#85=CARTESIAN_POINT('Line Origine',(12.4,4.3,8.)) ;
#89=CARTESIAN_POINT('Vertex',(12.4,8.6,8.)) ;
#92=CARTESIAN_POINT('Line Origine',(12.4,8.6,18.)) ;
#96=CARTESIAN_POINT('Vertex',(12.4,8.6,28.)) ;
#99=CARTESIAN_POINT('Line Origine',(12.4,4.3,28.)) ;
#112=CARTESIAN_POINT('Axis2P3D Location',(12.4,8.6,8.)) ;
#117=CARTESIAN_POINT('Line Origine',(9.875,8.6,8.)) ;
#121=CARTESIAN_POINT('Vertex',(7.35,8.6,8.)) ;
#124=CARTESIAN_POINT('Line Origine',(6.2,8.6,8.)) ;
#128=CARTESIAN_POINT('Vertex',(5.05,8.6,8.)) ;
#131=CARTESIAN_POINT('Line Origine',(2.525,8.6,8.)) ;
#135=CARTESIAN_POINT('Vertex',(3.5527136788E-015,8.6,8.)) ;
#138=CARTESIAN_POINT('Line Origine',(3.5527136788E-015,8.6,18.)) ;
#142=CARTESIAN_POINT('Vertex',(3.5527136788E-015,8.6,28.)) ;
#145=CARTESIAN_POINT('Line Origine',(6.2,8.6,28.)) ;
#160=CARTESIAN_POINT('Axis2P3D Location',(0.,8.6,8.)) ;
#165=CARTESIAN_POINT('Line Origine',(0.,4.3,8.)) ;
#170=CARTESIAN_POINT('Line Origine',(0.,4.3,28.)) ;
#183=CARTESIAN_POINT('Axis2P3D Location',(0.,0.,8.)) ;
#188=CARTESIAN_POINT('Line Origine',(5.05,7.1,8.)) ;
#192=CARTESIAN_POINT('Vertex',(5.05,5.6,8.)) ;
#195=CARTESIAN_POINT('Line Origine',(6.2,5.6,8.)) ;
#199=CARTESIAN_POINT('Vertex',(7.35,5.6,8.)) ;
#202=CARTESIAN_POINT('Line Origine',(7.35,7.1,8.)) ;
#217=CARTESIAN_POINT('Axis2P3D Location',(2.35,5.4,8.)) ;
#221=CARTESIAN_POINT('Vertex',(0.45,5.4,8.)) ;
#223=CARTESIAN_POINT('Vertex',(4.25,5.4,8.)) ;
#226=CARTESIAN_POINT('Axis2P3D Location',(2.35,5.4,8.)) ;
#235=CARTESIAN_POINT('Axis2P3D Location',(10.05,5.4,8.)) ;
#239=CARTESIAN_POINT('Vertex',(8.15,5.4,8.)) ;
#241=CARTESIAN_POINT('Vertex',(11.95,5.4,8.)) ;
#244=CARTESIAN_POINT('Axis2P3D Location',(10.05,5.4,8.)) ;
#255=CARTESIAN_POINT('Line Origine',(7.35,10.1,8.)) ;
#259=CARTESIAN_POINT('Vertex',(7.35,11.6,8.)) ;
#262=CARTESIAN_POINT('Line Origine',(6.2,11.6,8.)) ;
#266=CARTESIAN_POINT('Vertex',(5.05,11.6,8.)) ;
#269=CARTESIAN_POINT('Line Origine',(5.05,10.1,8.)) ;
#282=CARTESIAN_POINT('Axis2P3D Location',(2.35,5.4,4.)) ;
#287=CARTESIAN_POINT('Line Origine',(4.25,5.4,4.)) ;
#291=CARTESIAN_POINT('Vertex',(4.25,5.4,0.)) ;
#294=CARTESIAN_POINT('Axis2P3D Location',(2.35,5.4,0.)) ;
#298=CARTESIAN_POINT('Vertex',(0.45,5.4,0.)) ;
#301=CARTESIAN_POINT('Line Origine',(0.45,5.4,4.)) ;
#314=CARTESIAN_POINT('Axis2P3D Location',(2.35,5.4,0.)) ;
#327=CARTESIAN_POINT('Axis2P3D Location',(10.05,5.4,4.)) ;
#332=CARTESIAN_POINT('Line Origine',(11.95,5.4,4.)) ;
#336=CARTESIAN_POINT('Vertex',(11.95,5.4,0.)) ;
#339=CARTESIAN_POINT('Axis2P3D Location',(10.05,5.4,0.)) ;
#343=CARTESIAN_POINT('Vertex',(8.15,5.4,0.)) ;
#346=CARTESIAN_POINT('Line Origine',(8.15,5.4,4.)) ;
#359=CARTESIAN_POINT('Axis2P3D Location',(10.05,5.4,0.)) ;
#372=CARTESIAN_POINT('Axis2P3D Location',(0.,0.,0.)) ;
#389=CARTESIAN_POINT('Axis2P3D Location',(0.,0.,6.5)) ;
#394=CARTESIAN_POINT('Line Origine',(5.05,8.6,6.5)) ;
#398=CARTESIAN_POINT('Vertex',(5.05,5.6,6.5)) ;
#400=CARTESIAN_POINT('Vertex',(5.05,11.6,6.5)) ;
#403=CARTESIAN_POINT('Line Origine',(6.2,11.6,6.5)) ;
#407=CARTESIAN_POINT('Vertex',(7.35,11.6,6.5)) ;
#410=CARTESIAN_POINT('Line Origine',(7.35,8.6,6.5)) ;
#414=CARTESIAN_POINT('Vertex',(7.35,5.6,6.5)) ;
#417=CARTESIAN_POINT('Line Origine',(6.2,5.6,6.5)) ;
#430=CARTESIAN_POINT('Axis2P3D Location',(7.35,11.6,8.)) ;
#435=CARTESIAN_POINT('Line Origine',(5.05,11.6,7.25)) ;
#440=CARTESIAN_POINT('Line Origine',(7.35,11.6,7.25)) ;
#453=CARTESIAN_POINT('Axis2P3D Location',(5.05,5.6,8.)) ;
#458=CARTESIAN_POINT('Line Origine',(5.05,5.6,7.25)) ;
#472=CARTESIAN_POINT('Axis2P3D Location',(5.05,5.6,8.)) ;
#477=CARTESIAN_POINT('Line Origine',(7.35,5.6,7.25)) ;
#490=CARTESIAN_POINT('Axis2P3D Location',(7.35,11.6,8.)) ;
#504=CARTESIAN_POINT('Axis2P3D Location',(0.,0.,28.)) ;
#522=CARTESIAN_POINT('Axis2P3D Location',(6.2,4.3,28.)) ;
#526=CARTESIAN_POINT('Vertex',(5.52880424595,3.07138441335,28.)) ;
#528=CARTESIAN_POINT('Vertex',(6.87119575405,5.52861558665,28.)) ;
#531=CARTESIAN_POINT('Axis2P3D Location',(6.2,4.3,28.)) ;
#549=CARTESIAN_POINT('Axis2P3D Location',(6.2,4.3,29.5)) ;
#554=CARTESIAN_POINT('Line Origine',(6.87119575405,5.52861558665,28.8)) ;
#558=CARTESIAN_POINT('Vertex',(6.87119575405,5.52861558665,29.6)) ;
#561=CARTESIAN_POINT('Axis2P3D Location',(6.2,4.3,29.6)) ;
#565=CARTESIAN_POINT('Vertex',(5.52880424595,3.07138441335,29.6)) ;
#568=CARTESIAN_POINT('Line Origine',(5.52880424595,3.07138441335,28.8)) ;
#581=CARTESIAN_POINT('Axis2P3D Location',(6.2,4.3,29.6)) ;
#594=CARTESIAN_POINT('Axis2P3D Location',(6.2,4.3,29.6)) ;
#599=CARTESIAN_POINT('Axis2P3D Location',(6.2,4.3,29.6)) ;
#603=CARTESIAN_POINT('Vertex',(6.2,4.3,31.)) ;
#606=CARTESIAN_POINT('Axis2P3D Location',(6.2,4.3,29.6)) ;
#33=DIRECTION('Axis2P3D Direction',(0.,-1.,0.)) ;
#34=DIRECTION('Axis2P3D XDirection',(1.,0.,0.)) ;
#38=DIRECTION('Vector Direction',(0.,0.,1.)) ;
#47=DIRECTION('Vector Direction',(1.,0.,0.)) ;
#54=DIRECTION('Vector Direction',(0.,0.,1.)) ;
#61=DIRECTION('Vector Direction',(1.,0.,0.)) ;
#81=DIRECTION('Axis2P3D Direction',(1.,0.,0.)) ;
#82=DIRECTION('Axis2P3D XDirection',(0.,1.,0.)) ;
#86=DIRECTION('Vector Direction',(0.,1.,0.)) ;
#93=DIRECTION('Vector Direction',(0.,0.,1.)) ;
#100=DIRECTION('Vector Direction',(0.,1.,0.)) ;
#113=DIRECTION('Axis2P3D Direction',(0.,1.,-0.)) ;
#114=DIRECTION('Axis2P3D XDirection',(-1.,0.,0.)) ;
#118=DIRECTION('Vector Direction',(-1.,0.,0.)) ;
#125=DIRECTION('Vector Direction',(-1.,0.,0.)) ;
#132=DIRECTION('Vector Direction',(-1.,0.,0.)) ;
#139=DIRECTION('Vector Direction',(0.,0.,1.)) ;
#146=DIRECTION('Vector Direction',(-1.,0.,0.)) ;
#161=DIRECTION('Axis2P3D Direction',(-1.,0.,0.)) ;
#162=DIRECTION('Axis2P3D XDirection',(0.,-1.,0.)) ;
#166=DIRECTION('Vector Direction',(0.,-1.,0.)) ;
#171=DIRECTION('Vector Direction',(0.,-1.,0.)) ;
#184=DIRECTION('Axis2P3D Direction',(0.,0.,1.)) ;
#185=DIRECTION('Axis2P3D XDirection',(1.,0.,0.)) ;
#189=DIRECTION('Vector Direction',(0.,1.,0.)) ;
#196=DIRECTION('Vector Direction',(1.,0.,0.)) ;
#203=DIRECTION('Vector Direction',(0.,-1.,0.)) ;
#218=DIRECTION('Axis2P3D Direction',(0.,0.,1.)) ;
#227=DIRECTION('Axis2P3D Direction',(0.,0.,1.)) ;
#236=DIRECTION('Axis2P3D Direction',(0.,0.,1.)) ;
#245=DIRECTION('Axis2P3D Direction',(0.,0.,1.)) ;
#256=DIRECTION('Vector Direction',(0.,-1.,0.)) ;
#263=DIRECTION('Vector Direction',(-1.,0.,0.)) ;
#270=DIRECTION('Vector Direction',(0.,1.,0.)) ;
#283=DIRECTION('Axis2P3D Direction',(0.,0.,1.)) ;
#284=DIRECTION('Axis2P3D XDirection',(1.,0.,0.)) ;
#288=DIRECTION('Vector Direction',(0.,0.,1.)) ;
#295=DIRECTION('Axis2P3D Direction',(0.,0.,1.)) ;
#302=DIRECTION('Vector Direction',(0.,0.,1.)) ;
#315=DIRECTION('Axis2P3D Direction',(0.,0.,1.)) ;
#328=DIRECTION('Axis2P3D Direction',(0.,0.,1.)) ;
#329=DIRECTION('Axis2P3D XDirection',(1.,0.,0.)) ;
#333=DIRECTION('Vector Direction',(0.,0.,1.)) ;
#340=DIRECTION('Axis2P3D Direction',(0.,0.,1.)) ;
#347=DIRECTION('Vector Direction',(0.,0.,1.)) ;
#360=DIRECTION('Axis2P3D Direction',(0.,0.,1.)) ;
#373=DIRECTION('Axis2P3D Direction',(0.,0.,1.)) ;
#374=DIRECTION('Axis2P3D XDirection',(1.,0.,0.)) ;
#390=DIRECTION('Axis2P3D Direction',(0.,0.,-1.)) ;
#391=DIRECTION('Axis2P3D XDirection',(1.,0.,0.)) ;
#395=DIRECTION('Vector Direction',(0.,1.,0.)) ;
#404=DIRECTION('Vector Direction',(-1.,0.,0.)) ;
#411=DIRECTION('Vector Direction',(0.,-1.,0.)) ;
#418=DIRECTION('Vector Direction',(1.,0.,0.)) ;
#431=DIRECTION('Axis2P3D Direction',(-0.,-1.,-0.)) ;
#432=DIRECTION('Axis2P3D XDirection',(-1.,0.,0.)) ;
#436=DIRECTION('Vector Direction',(0.,0.,-1.)) ;
#441=DIRECTION('Vector Direction',(0.,0.,-1.)) ;
#454=DIRECTION('Axis2P3D Direction',(-1.,0.,0.)) ;
#455=DIRECTION('Axis2P3D XDirection',(0.,1.,0.)) ;
#459=DIRECTION('Vector Direction',(0.,0.,-1.)) ;
#473=DIRECTION('Axis2P3D Direction',(-0.,1.,0.)) ;
#474=DIRECTION('Axis2P3D XDirection',(1.,0.,0.)) ;
#478=DIRECTION('Vector Direction',(0.,0.,-1.)) ;
#491=DIRECTION('Axis2P3D Direction',(1.,0.,0.)) ;
#492=DIRECTION('Axis2P3D XDirection',(0.,-1.,0.)) ;
#505=DIRECTION('Axis2P3D Direction',(0.,0.,1.)) ;
#506=DIRECTION('Axis2P3D XDirection',(1.,0.,0.)) ;
#523=DIRECTION('Axis2P3D Direction',(0.,0.,1.)) ;
#532=DIRECTION('Axis2P3D Direction',(0.,0.,1.)) ;
#550=DIRECTION('Axis2P3D Direction',(0.,0.,-1.)) ;
#551=DIRECTION('Axis2P3D XDirection',(0.479425538604,0.87758256189,0.)) ;
#555=DIRECTION('Vector Direction',(0.,0.,-1.)) ;
#562=DIRECTION('Axis2P3D Direction',(0.,0.,-1.)) ;
#569=DIRECTION('Vector Direction',(0.,0.,-1.)) ;
#582=DIRECTION('Axis2P3D Direction',(0.,0.,-1.)) ;
#595=DIRECTION('Axis2P3D Direction',(0.,0.,-1.)) ;
#596=DIRECTION('Axis2P3D XDirection',(0.479425538604,0.87758256189,0.)) ;
#600=DIRECTION('Axis2P3D Direction',(-0.87758256189,0.479425538604,0.)) ;
#607=DIRECTION('Axis2P3D Direction',(0.87758256189,-0.479425538604,0.)) ;
#30=PRESENTATION_LAYER_ASSIGNMENT('1',' ',(#21,#519)) ;
#8=PRODUCT_RELATED_PRODUCT_CATEGORY('part',$,(#5)) ;
#7=PRODUCT_CATEGORY('part','specification') ;
#29=STYLED_ITEM(' ',(#28),#21) ;
#520=STYLED_ITEM(' ',(#28),#519) ;
#28=PRESENTATION_STYLE_ASSIGNMENT((#27)) ;
#78=PRESENTATION_STYLE_ASSIGNMENT((#77)) ;
#547=PRESENTATION_STYLE_ASSIGNMENT((#546)) ;
#27=SURFACE_STYLE_USAGE(.BOTH.,#26) ;
#77=SURFACE_STYLE_USAGE(.BOTH.,#76) ;
#546=SURFACE_STYLE_USAGE(.BOTH.,#545) ;
#26=SURFACE_SIDE_STYLE(' ',(#25)) ;
#76=SURFACE_SIDE_STYLE(' ',(#75)) ;
#545=SURFACE_SIDE_STYLE(' ',(#544)) ;
#25=SURFACE_STYLE_FILL_AREA(#24) ;
#75=SURFACE_STYLE_FILL_AREA(#74) ;
#544=SURFACE_STYLE_FILL_AREA(#543) ;
#24=FILL_AREA_STYLE(' ',(#23)) ;
#74=FILL_AREA_STYLE(' ',(#73)) ;
#543=FILL_AREA_STYLE(' ',(#542)) ;
#23=FILL_AREA_STYLE_COLOUR(' ',#22) ;
#73=FILL_AREA_STYLE_COLOUR(' ',#72) ;
#542=FILL_AREA_STYLE_COLOUR(' ',#541) ;
#39=VECTOR('Line Direction',#38,1.) ;
#48=VECTOR('Line Direction',#47,1.) ;
#55=VECTOR('Line Direction',#54,1.) ;
#62=VECTOR('Line Direction',#61,1.) ;
#87=VECTOR('Line Direction',#86,1.) ;
#94=VECTOR('Line Direction',#93,1.) ;
#101=VECTOR('Line Direction',#100,1.) ;
#119=VECTOR('Line Direction',#118,1.) ;
#126=VECTOR('Line Direction',#125,1.) ;
#133=VECTOR('Line Direction',#132,1.) ;
#140=VECTOR('Line Direction',#139,1.) ;
#147=VECTOR('Line Direction',#146,1.) ;
#167=VECTOR('Line Direction',#166,1.) ;
#172=VECTOR('Line Direction',#171,1.) ;
#190=VECTOR('Line Direction',#189,1.) ;
#197=VECTOR('Line Direction',#196,1.) ;
#204=VECTOR('Line Direction',#203,1.) ;
#257=VECTOR('Line Direction',#256,1.) ;
#264=VECTOR('Line Direction',#263,1.) ;
#271=VECTOR('Line Direction',#270,1.) ;
#289=VECTOR('Line Direction',#288,1.) ;
#303=VECTOR('Line Direction',#302,1.) ;
#334=VECTOR('Line Direction',#333,1.) ;
#348=VECTOR('Line Direction',#347,1.) ;
#396=VECTOR('Line Direction',#395,1.) ;
#405=VECTOR('Line Direction',#404,1.) ;
#412=VECTOR('Line Direction',#411,1.) ;
#419=VECTOR('Line Direction',#418,1.) ;
#437=VECTOR('Line Direction',#436,1.) ;
#442=VECTOR('Line Direction',#441,1.) ;
#460=VECTOR('Line Direction',#459,1.) ;
#479=VECTOR('Line Direction',#478,1.) ;
#556=VECTOR('Line Direction',#555,1.) ;
#570=VECTOR('Line Direction',#569,1.) ;
#15=UNCERTAINTY_MEASURE_WITH_UNIT(LENGTH_MEASURE(0.005),#12,'distance_accuracy_value','CONFUSED CURVE UNCERTAINTY') ;
#518=SHAPE_REPRESENTATION_RELATIONSHIP(' ',' ',#19,#517) ;
#66=ORIENTED_EDGE('',*,*,#45,.F.) ;
#67=ORIENTED_EDGE('',*,*,#52,.T.) ;
#68=ORIENTED_EDGE('',*,*,#59,.T.) ;
#69=ORIENTED_EDGE('',*,*,#64,.F.) ;
#105=ORIENTED_EDGE('',*,*,#59,.F.) ;
#106=ORIENTED_EDGE('',*,*,#91,.T.) ;
#107=ORIENTED_EDGE('',*,*,#98,.T.) ;
#108=ORIENTED_EDGE('',*,*,#103,.F.) ;
#151=ORIENTED_EDGE('',*,*,#98,.F.) ;
#152=ORIENTED_EDGE('',*,*,#123,.T.) ;
#153=ORIENTED_EDGE('',*,*,#130,.T.) ;
#154=ORIENTED_EDGE('',*,*,#137,.T.) ;
#155=ORIENTED_EDGE('',*,*,#144,.T.) ;
#156=ORIENTED_EDGE('',*,*,#149,.F.) ;
#176=ORIENTED_EDGE('',*,*,#144,.F.) ;
#177=ORIENTED_EDGE('',*,*,#169,.T.) ;
#178=ORIENTED_EDGE('',*,*,#45,.T.) ;
#179=ORIENTED_EDGE('',*,*,#174,.F.) ;
#208=ORIENTED_EDGE('',*,*,#194,.F.) ;
#209=ORIENTED_EDGE('',*,*,#201,.F.) ;
#210=ORIENTED_EDGE('',*,*,#206,.F.) ;
#211=ORIENTED_EDGE('',*,*,#123,.F.) ;
#212=ORIENTED_EDGE('',*,*,#91,.F.) ;
#213=ORIENTED_EDGE('',*,*,#52,.F.) ;
#214=ORIENTED_EDGE('',*,*,#169,.F.) ;
#215=ORIENTED_EDGE('',*,*,#137,.F.) ;
#232=ORIENTED_EDGE('',*,*,#225,.T.) ;
#233=ORIENTED_EDGE('',*,*,#230,.T.) ;
#250=ORIENTED_EDGE('',*,*,#243,.T.) ;
#251=ORIENTED_EDGE('',*,*,#248,.T.) ;
#275=ORIENTED_EDGE('',*,*,#261,.F.) ;
#276=ORIENTED_EDGE('',*,*,#268,.F.) ;
#277=ORIENTED_EDGE('',*,*,#273,.F.) ;
#278=ORIENTED_EDGE('',*,*,#130,.F.) ;
#307=ORIENTED_EDGE('',*,*,#293,.F.) ;
#308=ORIENTED_EDGE('',*,*,#300,.T.) ;
#309=ORIENTED_EDGE('',*,*,#305,.T.) ;
#310=ORIENTED_EDGE('',*,*,#230,.F.) ;
#320=ORIENTED_EDGE('',*,*,#305,.F.) ;
#321=ORIENTED_EDGE('',*,*,#318,.T.) ;
#322=ORIENTED_EDGE('',*,*,#293,.T.) ;
#323=ORIENTED_EDGE('',*,*,#225,.F.) ;
#352=ORIENTED_EDGE('',*,*,#338,.F.) ;
#353=ORIENTED_EDGE('',*,*,#345,.T.) ;
#354=ORIENTED_EDGE('',*,*,#350,.T.) ;
#355=ORIENTED_EDGE('',*,*,#248,.F.) ;
#365=ORIENTED_EDGE('',*,*,#350,.F.) ;
#366=ORIENTED_EDGE('',*,*,#363,.T.) ;
#367=ORIENTED_EDGE('',*,*,#338,.T.) ;
#368=ORIENTED_EDGE('',*,*,#243,.F.) ;
#378=ORIENTED_EDGE('',*,*,#318,.F.) ;
#379=ORIENTED_EDGE('',*,*,#300,.F.) ;
#384=ORIENTED_EDGE('',*,*,#363,.F.) ;
#385=ORIENTED_EDGE('',*,*,#345,.F.) ;
#423=ORIENTED_EDGE('',*,*,#402,.T.) ;
#424=ORIENTED_EDGE('',*,*,#409,.T.) ;
#425=ORIENTED_EDGE('',*,*,#416,.T.) ;
#426=ORIENTED_EDGE('',*,*,#421,.T.) ;
#446=ORIENTED_EDGE('',*,*,#439,.F.) ;
#447=ORIENTED_EDGE('',*,*,#268,.T.) ;
#448=ORIENTED_EDGE('',*,*,#444,.T.) ;
#449=ORIENTED_EDGE('',*,*,#409,.F.) ;
#464=ORIENTED_EDGE('',*,*,#462,.F.) ;
#465=ORIENTED_EDGE('',*,*,#194,.T.) ;
#466=ORIENTED_EDGE('',*,*,#273,.T.) ;
#467=ORIENTED_EDGE('',*,*,#439,.T.) ;
#468=ORIENTED_EDGE('',*,*,#402,.F.) ;
#483=ORIENTED_EDGE('',*,*,#481,.F.) ;
#484=ORIENTED_EDGE('',*,*,#201,.T.) ;
#485=ORIENTED_EDGE('',*,*,#462,.T.) ;
#486=ORIENTED_EDGE('',*,*,#421,.F.) ;
#496=ORIENTED_EDGE('',*,*,#444,.F.) ;
#497=ORIENTED_EDGE('',*,*,#261,.T.) ;
#498=ORIENTED_EDGE('',*,*,#206,.T.) ;
#499=ORIENTED_EDGE('',*,*,#481,.T.) ;
#500=ORIENTED_EDGE('',*,*,#416,.F.) ;
#510=ORIENTED_EDGE('',*,*,#64,.T.) ;
#511=ORIENTED_EDGE('',*,*,#103,.T.) ;
#512=ORIENTED_EDGE('',*,*,#149,.T.) ;
#513=ORIENTED_EDGE('',*,*,#174,.T.) ;
#537=ORIENTED_EDGE('',*,*,#530,.T.) ;
#538=ORIENTED_EDGE('',*,*,#535,.T.) ;
#574=ORIENTED_EDGE('',*,*,#535,.F.) ;
#575=ORIENTED_EDGE('',*,*,#560,.T.) ;
#576=ORIENTED_EDGE('',*,*,#567,.T.) ;
#577=ORIENTED_EDGE('',*,*,#572,.F.) ;
#587=ORIENTED_EDGE('',*,*,#530,.F.) ;
#588=ORIENTED_EDGE('',*,*,#572,.T.) ;
#589=ORIENTED_EDGE('',*,*,#585,.T.) ;
#590=ORIENTED_EDGE('',*,*,#560,.F.) ;
#612=ORIENTED_EDGE('',*,*,#567,.F.) ;
#613=ORIENTED_EDGE('',*,*,#605,.T.) ;
#614=ORIENTED_EDGE('',*,*,#610,.F.) ;
#619=ORIENTED_EDGE('',*,*,#585,.F.) ;
#620=ORIENTED_EDGE('',*,*,#610,.T.) ;
#621=ORIENTED_EDGE('',*,*,#605,.F.) ;
#234=FACE_BOUND('',#231,.T.) ;
#252=FACE_BOUND('',#249,.T.) ;
#31=CLOSED_SHELL('Closed Shell',(#71,#110,#158,#181,#253,#280,#312,#325,#357,#370,#381,#387,#428,#451,#470,#488,#502,#515)) ;
#521=CLOSED_SHELL('Closed Shell',(#540,#579,#592,#616,#623)) ;
#517=ADVANCED_BREP_SHAPE_REPRESENTATION('NONE',(#21,#519),#16) ;
#71=ADVANCED_FACE('RIM-MODUL',(#70),#36,.T.) ;
#110=ADVANCED_FACE('RIM-MODUL',(#109),#84,.T.) ;
#158=ADVANCED_FACE('RIM-MODUL',(#157),#116,.T.) ;
#181=ADVANCED_FACE('RIM-MODUL',(#180),#164,.T.) ;
#253=ADVANCED_FACE('RIM-MODUL',(#216,#234,#252),#187,.F.) ;
#280=ADVANCED_FACE('RIM-MODUL',(#279),#187,.T.) ;
#312=ADVANCED_FACE('RIM-MODUL',(#311),#286,.T.) ;
#325=ADVANCED_FACE('RIM-MODUL',(#324),#286,.T.) ;
#357=ADVANCED_FACE('RIM-MODUL',(#356),#331,.T.) ;
#370=ADVANCED_FACE('RIM-MODUL',(#369),#331,.T.) ;
#381=ADVANCED_FACE('RIM-MODUL',(#380),#376,.F.) ;
#387=ADVANCED_FACE('RIM-MODUL',(#386),#376,.F.) ;
#428=ADVANCED_FACE('RIM-MODUL',(#427),#393,.T.) ;
#451=ADVANCED_FACE('RIM-MODUL',(#450),#434,.F.) ;
#470=ADVANCED_FACE('RIM-MODUL',(#469),#457,.T.) ;
#488=ADVANCED_FACE('RIM-MODUL',(#487),#476,.F.) ;
#502=ADVANCED_FACE('RIM-MODUL',(#501),#494,.T.) ;
#515=ADVANCED_FACE('RIM-MODUL',(#514),#508,.T.) ;
#540=ADVANCED_FACE('LED',(#539),#508,.F.) ;
#579=ADVANCED_FACE('LED',(#578),#553,.T.) ;
#592=ADVANCED_FACE('LED',(#591),#553,.T.) ;
#616=ADVANCED_FACE('LED',(#615),#598,.T.) ;
#623=ADVANCED_FACE('LED',(#622),#598,.T.) ;
#4=APPLICATION_PROTOCOL_DEFINITION('international standard','automotive_design',2001,#1) ;
#21=MANIFOLD_SOLID_BREP('RIM-MODUL',#31) ;
#519=MANIFOLD_SOLID_BREP('LED',#521) ;
#220=CIRCLE('generated circle',#219,1.9) ;
#229=CIRCLE('generated circle',#228,1.9) ;
#238=CIRCLE('generated circle',#237,1.9) ;
#247=CIRCLE('generated circle',#246,1.9) ;
#297=CIRCLE('generated circle',#296,1.9) ;
#317=CIRCLE('generated circle',#316,1.9) ;
#342=CIRCLE('generated circle',#341,1.9) ;
#362=CIRCLE('generated circle',#361,1.9) ;
#525=CIRCLE('generated circle',#524,1.4) ;
#534=CIRCLE('generated circle',#533,1.4) ;
#564=CIRCLE('generated circle',#563,1.4) ;
#584=CIRCLE('generated circle',#583,1.4) ;
#602=CIRCLE('generated circle',#601,1.4) ;
#609=CIRCLE('generated circle',#608,1.4) ;
#22=COLOUR_RGB('Colour',0.823529411765,0.823529411765,1.) ;
#72=COLOUR_RGB('Colour',0.274509803922,0.235294117647,0.270588235294) ;
#541=COLOUR_RGB('Colour',0.4,0.529411764706,0.341176470588) ;
#79=OVER_RIDING_STYLED_ITEM(' ',(#78),#71,#29) ;
#111=OVER_RIDING_STYLED_ITEM(' ',(#78),#110,#29) ;
#159=OVER_RIDING_STYLED_ITEM(' ',(#78),#158,#29) ;
#182=OVER_RIDING_STYLED_ITEM(' ',(#78),#181,#29) ;
#254=OVER_RIDING_STYLED_ITEM(' ',(#78),#253,#29) ;
#281=OVER_RIDING_STYLED_ITEM(' ',(#78),#280,#29) ;
#313=OVER_RIDING_STYLED_ITEM(' ',(#78),#312,#29) ;
#326=OVER_RIDING_STYLED_ITEM(' ',(#78),#325,#29) ;
#358=OVER_RIDING_STYLED_ITEM(' ',(#78),#357,#29) ;
#371=OVER_RIDING_STYLED_ITEM(' ',(#78),#370,#29) ;
#382=OVER_RIDING_STYLED_ITEM(' ',(#78),#381,#29) ;
#388=OVER_RIDING_STYLED_ITEM(' ',(#78),#387,#29) ;
#429=OVER_RIDING_STYLED_ITEM(' ',(#78),#428,#29) ;
#452=OVER_RIDING_STYLED_ITEM(' ',(#78),#451,#29) ;
#471=OVER_RIDING_STYLED_ITEM(' ',(#78),#470,#29) ;
#489=OVER_RIDING_STYLED_ITEM(' ',(#78),#488,#29) ;
#503=OVER_RIDING_STYLED_ITEM(' ',(#78),#502,#29) ;
#516=OVER_RIDING_STYLED_ITEM(' ',(#78),#515,#29) ;
#548=OVER_RIDING_STYLED_ITEM(' ',(#547),#540,#520) ;
#580=OVER_RIDING_STYLED_ITEM(' ',(#547),#579,#520) ;
#593=OVER_RIDING_STYLED_ITEM(' ',(#547),#592,#520) ;
#617=OVER_RIDING_STYLED_ITEM(' ',(#547),#616,#520) ;
#624=OVER_RIDING_STYLED_ITEM(' ',(#547),#623,#520) ;
#286=CYLINDRICAL_SURFACE('generated cylinder',#285,1.9) ;
#331=CYLINDRICAL_SURFACE('generated cylinder',#330,1.9) ;
#553=CYLINDRICAL_SURFACE('generated cylinder',#552,1.4) ;
#45=EDGE_CURVE('',#42,#44,#40,.T.) ;
#52=EDGE_CURVE('',#42,#51,#49,.T.) ;
#59=EDGE_CURVE('',#51,#58,#56,.T.) ;
#64=EDGE_CURVE('',#44,#58,#63,.T.) ;
#91=EDGE_CURVE('',#51,#90,#88,.T.) ;
#98=EDGE_CURVE('',#90,#97,#95,.T.) ;
#103=EDGE_CURVE('',#58,#97,#102,.T.) ;
#123=EDGE_CURVE('',#90,#122,#120,.T.) ;
#130=EDGE_CURVE('',#122,#129,#127,.T.) ;
#137=EDGE_CURVE('',#129,#136,#134,.T.) ;
#144=EDGE_CURVE('',#136,#143,#141,.T.) ;
#149=EDGE_CURVE('',#97,#143,#148,.T.) ;
#169=EDGE_CURVE('',#136,#42,#168,.T.) ;
#174=EDGE_CURVE('',#143,#44,#173,.T.) ;
#194=EDGE_CURVE('',#193,#129,#191,.T.) ;
#201=EDGE_CURVE('',#200,#193,#198,.F.) ;
#206=EDGE_CURVE('',#122,#200,#205,.T.) ;
#225=EDGE_CURVE('',#222,#224,#220,.T.) ;
#230=EDGE_CURVE('',#224,#222,#229,.T.) ;
#243=EDGE_CURVE('',#240,#242,#238,.T.) ;
#248=EDGE_CURVE('',#242,#240,#247,.T.) ;
#261=EDGE_CURVE('',#260,#122,#258,.T.) ;
#268=EDGE_CURVE('',#267,#260,#265,.F.) ;
#273=EDGE_CURVE('',#129,#267,#272,.T.) ;
#293=EDGE_CURVE('',#292,#224,#290,.T.) ;
#300=EDGE_CURVE('',#292,#299,#297,.T.) ;
#305=EDGE_CURVE('',#299,#222,#304,.T.) ;
#318=EDGE_CURVE('',#299,#292,#317,.T.) ;
#338=EDGE_CURVE('',#337,#242,#335,.T.) ;
#345=EDGE_CURVE('',#337,#344,#342,.T.) ;
#350=EDGE_CURVE('',#344,#240,#349,.T.) ;
#363=EDGE_CURVE('',#344,#337,#362,.T.) ;
#402=EDGE_CURVE('',#399,#401,#397,.T.) ;
#409=EDGE_CURVE('',#401,#408,#406,.F.) ;
#416=EDGE_CURVE('',#408,#415,#413,.T.) ;
#421=EDGE_CURVE('',#415,#399,#420,.F.) ;
#439=EDGE_CURVE('',#267,#401,#438,.T.) ;
#444=EDGE_CURVE('',#260,#408,#443,.T.) ;
#462=EDGE_CURVE('',#193,#399,#461,.T.) ;
#481=EDGE_CURVE('',#200,#415,#480,.T.) ;
#530=EDGE_CURVE('',#527,#529,#525,.F.) ;
#535=EDGE_CURVE('',#529,#527,#534,.F.) ;
#560=EDGE_CURVE('',#529,#559,#557,.F.) ;
#567=EDGE_CURVE('',#559,#566,#564,.T.) ;
#572=EDGE_CURVE('',#527,#566,#571,.F.) ;
#585=EDGE_CURVE('',#566,#559,#584,.T.) ;
#605=EDGE_CURVE('',#559,#604,#602,.F.) ;
#610=EDGE_CURVE('',#566,#604,#609,.F.) ;
#65=EDGE_LOOP('',(#66,#67,#68,#69)) ;
#104=EDGE_LOOP('',(#105,#106,#107,#108)) ;
#150=EDGE_LOOP('',(#151,#152,#153,#154,#155,#156)) ;
#175=EDGE_LOOP('',(#176,#177,#178,#179)) ;
#207=EDGE_LOOP('',(#208,#209,#210,#211,#212,#213,#214,#215)) ;
#231=EDGE_LOOP('',(#232,#233)) ;
#249=EDGE_LOOP('',(#250,#251)) ;
#274=EDGE_LOOP('',(#275,#276,#277,#278)) ;
#306=EDGE_LOOP('',(#307,#308,#309,#310)) ;
#319=EDGE_LOOP('',(#320,#321,#322,#323)) ;
#351=EDGE_LOOP('',(#352,#353,#354,#355)) ;
#364=EDGE_LOOP('',(#365,#366,#367,#368)) ;
#377=EDGE_LOOP('',(#378,#379)) ;
#383=EDGE_LOOP('',(#384,#385)) ;
#422=EDGE_LOOP('',(#423,#424,#425,#426)) ;
#445=EDGE_LOOP('',(#446,#447,#448,#449)) ;
#463=EDGE_LOOP('',(#464,#465,#466,#467,#468)) ;
#482=EDGE_LOOP('',(#483,#484,#485,#486)) ;
#495=EDGE_LOOP('',(#496,#497,#498,#499,#500)) ;
#509=EDGE_LOOP('',(#510,#511,#512,#513)) ;
#536=EDGE_LOOP('',(#537,#538)) ;
#573=EDGE_LOOP('',(#574,#575,#576,#577)) ;
#586=EDGE_LOOP('',(#587,#588,#589,#590)) ;
#611=EDGE_LOOP('',(#612,#613,#614)) ;
#618=EDGE_LOOP('',(#619,#620,#621)) ;
#70=FACE_OUTER_BOUND('',#65,.T.) ;
#109=FACE_OUTER_BOUND('',#104,.T.) ;
#157=FACE_OUTER_BOUND('',#150,.T.) ;
#180=FACE_OUTER_BOUND('',#175,.T.) ;
#216=FACE_OUTER_BOUND('',#207,.T.) ;
#279=FACE_OUTER_BOUND('',#274,.T.) ;
#311=FACE_OUTER_BOUND('',#306,.T.) ;
#324=FACE_OUTER_BOUND('',#319,.T.) ;
#356=FACE_OUTER_BOUND('',#351,.T.) ;
#369=FACE_OUTER_BOUND('',#364,.T.) ;
#380=FACE_OUTER_BOUND('',#377,.T.) ;
#386=FACE_OUTER_BOUND('',#383,.T.) ;
#427=FACE_OUTER_BOUND('',#422,.T.) ;
#450=FACE_OUTER_BOUND('',#445,.T.) ;
#469=FACE_OUTER_BOUND('',#463,.T.) ;
#487=FACE_OUTER_BOUND('',#482,.T.) ;
#501=FACE_OUTER_BOUND('',#495,.T.) ;
#514=FACE_OUTER_BOUND('',#509,.T.) ;
#539=FACE_OUTER_BOUND('',#536,.T.) ;
#578=FACE_OUTER_BOUND('',#573,.T.) ;
#591=FACE_OUTER_BOUND('',#586,.T.) ;
#615=FACE_OUTER_BOUND('',#611,.T.) ;
#622=FACE_OUTER_BOUND('',#618,.T.) ;
#40=LINE('Line',#37,#39) ;
#49=LINE('Line',#46,#48) ;
#56=LINE('Line',#53,#55) ;
#63=LINE('Line',#60,#62) ;
#88=LINE('Line',#85,#87) ;
#95=LINE('Line',#92,#94) ;
#102=LINE('Line',#99,#101) ;
#120=LINE('Line',#117,#119) ;
#127=LINE('Line',#124,#126) ;
#134=LINE('Line',#131,#133) ;
#141=LINE('Line',#138,#140) ;
#148=LINE('Line',#145,#147) ;
#168=LINE('Line',#165,#167) ;
#173=LINE('Line',#170,#172) ;
#191=LINE('Line',#188,#190) ;
#198=LINE('Line',#195,#197) ;
#205=LINE('Line',#202,#204) ;
#258=LINE('Line',#255,#257) ;
#265=LINE('Line',#262,#264) ;
#272=LINE('Line',#269,#271) ;
#290=LINE('Line',#287,#289) ;
#304=LINE('Line',#301,#303) ;
#335=LINE('Line',#332,#334) ;
#349=LINE('Line',#346,#348) ;
#397=LINE('Line',#394,#396) ;
#406=LINE('Line',#403,#405) ;
#413=LINE('Line',#410,#412) ;
#420=LINE('Line',#417,#419) ;
#438=LINE('Line',#435,#437) ;
#443=LINE('Line',#440,#442) ;
#461=LINE('Line',#458,#460) ;
#480=LINE('Line',#477,#479) ;
#557=LINE('Line',#554,#556) ;
#571=LINE('Line',#568,#570) ;
#36=PLANE('',#35) ;
#84=PLANE('',#83) ;
#116=PLANE('',#115) ;
#164=PLANE('',#163) ;
#187=PLANE('',#186) ;
#376=PLANE('',#375) ;
#393=PLANE('',#392) ;
#434=PLANE('',#433) ;
#457=PLANE('',#456) ;
#476=PLANE('',#475) ;
#494=PLANE('',#493) ;
#508=PLANE('',#507) ;
#9=PRODUCT_CATEGORY_RELATIONSHIP(' ',' ',#7,#8) ;
#6=PRODUCT_DEFINITION_FORMATION_WITH_SPECIFIED_SOURCE('',' ',#5,.NOT_KNOWN.) ;
#20=SHAPE_DEFINITION_REPRESENTATION(#11,#19) ;
#598=SPHERICAL_SURFACE('',#597,1.4) ;
#42=VERTEX_POINT('',#41) ;
#44=VERTEX_POINT('',#43) ;
#51=VERTEX_POINT('',#50) ;
#58=VERTEX_POINT('',#57) ;
#90=VERTEX_POINT('',#89) ;
#97=VERTEX_POINT('',#96) ;
#122=VERTEX_POINT('',#121) ;
#129=VERTEX_POINT('',#128) ;
#136=VERTEX_POINT('',#135) ;
#143=VERTEX_POINT('',#142) ;
#193=VERTEX_POINT('',#192) ;
#200=VERTEX_POINT('',#199) ;
#222=VERTEX_POINT('',#221) ;
#224=VERTEX_POINT('',#223) ;
#240=VERTEX_POINT('',#239) ;
#242=VERTEX_POINT('',#241) ;
#260=VERTEX_POINT('',#259) ;
#267=VERTEX_POINT('',#266) ;
#292=VERTEX_POINT('',#291) ;
#299=VERTEX_POINT('',#298) ;
#337=VERTEX_POINT('',#336) ;
#344=VERTEX_POINT('',#343) ;
#399=VERTEX_POINT('',#398) ;
#401=VERTEX_POINT('',#400) ;
#408=VERTEX_POINT('',#407) ;
#415=VERTEX_POINT('',#414) ;
#527=VERTEX_POINT('',#526) ;
#529=VERTEX_POINT('',#528) ;
#559=VERTEX_POINT('',#558) ;
#566=VERTEX_POINT('',#565) ;
#604=VERTEX_POINT('',#603) ;
#12=(LENGTH_UNIT()NAMED_UNIT(*)SI_UNIT(.MILLI.,.METRE.)) ;
#13=(NAMED_UNIT(*)PLANE_ANGLE_UNIT()SI_UNIT($,.RADIAN.)) ;
#14=(NAMED_UNIT(*)SI_UNIT($,.STERADIAN.)SOLID_ANGLE_UNIT()) ;
#16=(GEOMETRIC_REPRESENTATION_CONTEXT(3)GLOBAL_UNCERTAINTY_ASSIGNED_CONTEXT((#15))GLOBAL_UNIT_ASSIGNED_CONTEXT((#12,#13,#14))REPRESENTATION_CONTEXT(' ',' ')) ;
ENDSEC;
END-ISO-10303-21;
