ISO-10303-21;
HEADER;
FILE_DESCRIPTION(('CATIA V5R19 STEP'),'2;1');

FILE_NAME ('D1451626_0', '2015-02-24T08:49:39+00:00', ('Weidmueller Interface'), ('Weidmueller'), 'CATIA Version 5 Release 20 SP 5 (IN-10)', 'CATIA V5 STEP AP214', 'none');

FILE_SCHEMA(('AUTOMOTIVE_DESIGN { 1 0 10303 214 1 1 1 1 }'));

ENDSEC;
/* file written by CATIA V5R20 */
DATA;
#5=PRODUCT('ESG 6/15 RIDERSERIES','','MARKIERER ESG 6x15 RIDERSERIES',(#2)) ;
#2=PRODUCT_CONTEXT(' ',#1,'mechanical') ;
#1=APPLICATION_CONTEXT('automotive design') ;
#10=PRODUCT_DEFINITION('',' ',#6,#3) ;
#3=PRODUCT_DEFINITION_CONTEXT('part definition',#1,' ') ;
#11=PRODUCT_DEFINITION_SHAPE(' ',' ',#10) ;
#574=MECHANICAL_DESIGN_GEOMETRIC_PRESENTATION_REPRESENTATION(' ',(#30),#17) ;
#20=SHAPE_REPRESENTATION(' ',(#19),#17) ;
#19=AXIS2_PLACEMENT_3D(' ',#18,$,$) ;
#36=AXIS2_PLACEMENT_3D('Plane Axis2P3D',#33,#34,#35) ;
#76=AXIS2_PLACEMENT_3D('Plane Axis2P3D',#73,#74,#75) ;
#115=AXIS2_PLACEMENT_3D('Plane Axis2P3D',#112,#113,#114) ;
#139=AXIS2_PLACEMENT_3D('Plane Axis2P3D',#136,#137,#138) ;
#206=AXIS2_PLACEMENT_3D('Plane Axis2P3D',#203,#204,#205) ;
#264=AXIS2_PLACEMENT_3D('Plane Axis2P3D',#261,#262,#263) ;
#296=AXIS2_PLACEMENT_3D('Plane Axis2P3D',#293,#294,#295) ;
#336=AXIS2_PLACEMENT_3D('Plane Axis2P3D',#333,#334,#335) ;
#383=AXIS2_PLACEMENT_3D('Plane Axis2P3D',#380,#381,#382) ;
#407=AXIS2_PLACEMENT_3D('Plane Axis2P3D',#404,#405,#406) ;
#447=AXIS2_PLACEMENT_3D('Plane Axis2P3D',#444,#445,#446) ;
#478=AXIS2_PLACEMENT_3D('Plane Axis2P3D',#475,#476,#477) ;
#555=AXIS2_PLACEMENT_3D('Plane Axis2P3D',#552,#553,#554) ;
#18=CARTESIAN_POINT(' ',(0.,0.,0.)) ;
#33=CARTESIAN_POINT('Axis2P3D Location',(7.5,3.,0.)) ;
#38=CARTESIAN_POINT('Line Origine',(3.7,6.,2.32682891838E-016)) ;
#42=CARTESIAN_POINT('Vertex',(0.9,6.,4.04133443719E-016)) ;
#44=CARTESIAN_POINT('Vertex',(6.5,6.,6.12323399574E-017)) ;
#47=CARTESIAN_POINT('Line Origine',(6.5,5.5,6.12323399574E-017)) ;
#51=CARTESIAN_POINT('Vertex',(6.5,5.,6.12323399574E-017)) ;
#54=CARTESIAN_POINT('Line Origine',(3.7,5.,2.32682891838E-016)) ;
#58=CARTESIAN_POINT('Vertex',(0.9,5.,4.04133443719E-016)) ;
#61=CARTESIAN_POINT('Line Origine',(0.9,5.5,4.04133443719E-016)) ;
#73=CARTESIAN_POINT('Axis2P3D Location',(0.9,5.,3.2)) ;
#78=CARTESIAN_POINT('Line Origine',(0.9,6.,1.6)) ;
#82=CARTESIAN_POINT('Vertex',(0.9,6.,3.2)) ;
#85=CARTESIAN_POINT('Line Origine',(0.9,5.,1.4)) ;
#89=CARTESIAN_POINT('Vertex',(0.9,5.,2.8)) ;
#92=CARTESIAN_POINT('Line Origine',(0.9,5.,3.)) ;
#96=CARTESIAN_POINT('Vertex',(0.9,5.,3.2)) ;
#99=CARTESIAN_POINT('Line Origine',(0.9,5.5,3.2)) ;
#112=CARTESIAN_POINT('Axis2P3D Location',(7.5,5.,2.8)) ;
#117=CARTESIAN_POINT('Line Origine',(3.7,5.,2.8)) ;
#121=CARTESIAN_POINT('Vertex',(6.5,5.,2.8)) ;
#124=CARTESIAN_POINT('Line Origine',(6.5,5.,1.4)) ;
#136=CARTESIAN_POINT('Axis2P3D Location',(6.5,6.,3.2)) ;
#141=CARTESIAN_POINT('Line Origine',(6.5,5.,3.)) ;
#145=CARTESIAN_POINT('Vertex',(6.5,5.,3.2)) ;
#148=CARTESIAN_POINT('Line Origine',(6.5,6.,1.6)) ;
#152=CARTESIAN_POINT('Vertex',(6.5,6.,3.2)) ;
#155=CARTESIAN_POINT('Line Origine',(6.5,5.5,3.2)) ;
#168=CARTESIAN_POINT('Line Origine',(14.1,5.5,-4.04133443719E-016)) ;
#172=CARTESIAN_POINT('Vertex',(14.1,6.,-4.04133443719E-016)) ;
#174=CARTESIAN_POINT('Vertex',(14.1,5.,-4.04133443719E-016)) ;
#177=CARTESIAN_POINT('Line Origine',(11.3,5.,-2.32682891838E-016)) ;
#181=CARTESIAN_POINT('Vertex',(8.5,5.,-6.12323399574E-017)) ;
#184=CARTESIAN_POINT('Line Origine',(8.5,5.5,-6.12323399574E-017)) ;
#188=CARTESIAN_POINT('Vertex',(8.5,6.,-6.12323399574E-017)) ;
#191=CARTESIAN_POINT('Line Origine',(11.3,6.,-2.32682891838E-016)) ;
#203=CARTESIAN_POINT('Axis2P3D Location',(8.5,6.,3.2)) ;
#208=CARTESIAN_POINT('Line Origine',(8.5,5.5,3.2)) ;
#212=CARTESIAN_POINT('Vertex',(8.5,5.,3.2)) ;
#214=CARTESIAN_POINT('Vertex',(8.5,6.,3.2)) ;
#217=CARTESIAN_POINT('Line Origine',(8.5,6.,1.6)) ;
#222=CARTESIAN_POINT('Line Origine',(8.5,5.,1.4)) ;
#226=CARTESIAN_POINT('Vertex',(8.5,5.,2.8)) ;
#229=CARTESIAN_POINT('Line Origine',(8.5,5.,3.)) ;
#242=CARTESIAN_POINT('Line Origine',(11.3,5.,2.8)) ;
#246=CARTESIAN_POINT('Vertex',(14.1,5.,2.8)) ;
#249=CARTESIAN_POINT('Line Origine',(14.1,5.,1.4)) ;
#261=CARTESIAN_POINT('Axis2P3D Location',(14.1,5.,3.2)) ;
#266=CARTESIAN_POINT('Line Origine',(14.1,5.5,3.2)) ;
#270=CARTESIAN_POINT('Vertex',(14.1,5.,3.2)) ;
#272=CARTESIAN_POINT('Vertex',(14.1,6.,3.2)) ;
#275=CARTESIAN_POINT('Line Origine',(14.1,5.,3.)) ;
#280=CARTESIAN_POINT('Line Origine',(14.1,6.,1.6)) ;
#293=CARTESIAN_POINT('Axis2P3D Location',(0.,-4.4408920985E-016,4.)) ;
#298=CARTESIAN_POINT('Line Origine',(7.5,1.51533398302E-017,2.8)) ;
#302=CARTESIAN_POINT('Vertex',(0.,-4.5924254968E-016,2.8)) ;
#304=CARTESIAN_POINT('Vertex',(15.,4.5924254968E-016,2.8)) ;
#307=CARTESIAN_POINT('Line Origine',(15.,4.7439588951E-016,3.4)) ;
#311=CARTESIAN_POINT('Vertex',(15.,4.5924254968E-016,4.)) ;
#314=CARTESIAN_POINT('Line Origine',(7.5,1.51533398302E-017,4.)) ;
#318=CARTESIAN_POINT('Vertex',(0.,-4.5924254968E-016,4.)) ;
#321=CARTESIAN_POINT('Line Origine',(-3.67394039744E-017,-4.4408920985E-016,3.4)) ;
#333=CARTESIAN_POINT('Axis2P3D Location',(0.,-4.4408920985E-016,4.)) ;
#338=CARTESIAN_POINT('Line Origine',(-2.26559657842E-016,2.5,2.8)) ;
#342=CARTESIAN_POINT('Vertex',(0.,5.,2.8)) ;
#345=CARTESIAN_POINT('Line Origine',(-1.83697019872E-016,3.,4.)) ;
#349=CARTESIAN_POINT('Vertex',(0.,6.,4.)) ;
#352=CARTESIAN_POINT('Line Origine',(-3.91886975727E-016,6.,3.6)) ;
#356=CARTESIAN_POINT('Vertex',(0.,6.,3.2)) ;
#359=CARTESIAN_POINT('Line Origine',(-3.85763741731E-016,5.5,3.2)) ;
#363=CARTESIAN_POINT('Vertex',(0.,5.,3.2)) ;
#366=CARTESIAN_POINT('Line Origine',(-3.67394039744E-016,5.,3.)) ;
#380=CARTESIAN_POINT('Axis2P3D Location',(7.5,3.,4.)) ;
#385=CARTESIAN_POINT('Line Origine',(15.,3.,4.)) ;
#389=CARTESIAN_POINT('Vertex',(15.,6.,4.)) ;
#392=CARTESIAN_POINT('Line Origine',(7.5,6.,4.)) ;
#404=CARTESIAN_POINT('Axis2P3D Location',(15.,6.,4.)) ;
#409=CARTESIAN_POINT('Line Origine',(15.,6.,3.6)) ;
#413=CARTESIAN_POINT('Vertex',(15.,6.,3.2)) ;
#416=CARTESIAN_POINT('Line Origine',(15.,2.5,2.8)) ;
#420=CARTESIAN_POINT('Vertex',(15.,5.,2.8)) ;
#423=CARTESIAN_POINT('Line Origine',(15.,5.,3.)) ;
#427=CARTESIAN_POINT('Vertex',(15.,5.,3.2)) ;
#430=CARTESIAN_POINT('Line Origine',(15.,5.5,3.2)) ;
#444=CARTESIAN_POINT('Axis2P3D Location',(7.5,3.,2.8)) ;
#449=CARTESIAN_POINT('Line Origine',(0.45,5.,2.8)) ;
#454=CARTESIAN_POINT('Line Origine',(7.5,5.,2.8)) ;
#459=CARTESIAN_POINT('Line Origine',(14.55,5.,2.8)) ;
#475=CARTESIAN_POINT('Axis2P3D Location',(7.5,5.,3.2)) ;
#480=CARTESIAN_POINT('Line Origine',(0.45,5.,3.2)) ;
#485=CARTESIAN_POINT('Line Origine',(0.45,6.,3.2)) ;
#504=CARTESIAN_POINT('Line Origine',(14.55,5.,3.2)) ;
#516=CARTESIAN_POINT('Line Origine',(14.55,6.,3.2)) ;
#528=CARTESIAN_POINT('Line Origine',(7.5,5.,3.2)) ;
#540=CARTESIAN_POINT('Line Origine',(7.5,6.,3.2)) ;
#552=CARTESIAN_POINT('Axis2P3D Location',(15.,6.,4.)) ;
#34=DIRECTION('Axis2P3D Direction',(6.12323399574E-017,3.74939945665E-033,1.)) ;
#35=DIRECTION('Axis2P3D XDirection',(-6.12323399574E-017,1.,0.)) ;
#39=DIRECTION('Vector Direction',(1.,0.,-6.12323399574E-017)) ;
#48=DIRECTION('Vector Direction',(0.,-1.,0.)) ;
#55=DIRECTION('Vector Direction',(-1.,0.,6.12323399574E-017)) ;
#62=DIRECTION('Vector Direction',(0.,1.,0.)) ;
#74=DIRECTION('Axis2P3D Direction',(-1.,-6.12323399574E-017,6.12323399574E-017)) ;
#75=DIRECTION('Axis2P3D XDirection',(-6.12323399574E-017,1.,0.)) ;
#79=DIRECTION('Vector Direction',(-6.93889390391E-017,0.,-1.)) ;
#86=DIRECTION('Vector Direction',(-7.93016446161E-017,0.,-1.)) ;
#93=DIRECTION('Vector Direction',(0.,0.,-1.)) ;
#100=DIRECTION('Vector Direction',(-1.11022302463E-016,1.,0.)) ;
#113=DIRECTION('Axis2P3D Direction',(-6.12323399574E-017,1.,0.)) ;
#114=DIRECTION('Axis2P3D XDirection',(6.12323399574E-017,3.74939945665E-033,1.)) ;
#118=DIRECTION('Vector Direction',(1.,0.,-7.93016446161E-017)) ;
#125=DIRECTION('Vector Direction',(0.,0.,-1.)) ;
#137=DIRECTION('Axis2P3D Direction',(1.,6.12323399574E-017,-6.12323399574E-017)) ;
#138=DIRECTION('Axis2P3D XDirection',(6.12323399574E-017,-1.,0.)) ;
#142=DIRECTION('Vector Direction',(0.,0.,-1.)) ;
#149=DIRECTION('Vector Direction',(0.,0.,-1.)) ;
#156=DIRECTION('Vector Direction',(0.,1.,-8.881784197E-016)) ;
#169=DIRECTION('Vector Direction',(0.,1.,0.)) ;
#178=DIRECTION('Vector Direction',(1.,0.,-6.12323399574E-017)) ;
#185=DIRECTION('Vector Direction',(0.,-1.,0.)) ;
#192=DIRECTION('Vector Direction',(-1.,0.,6.12323399574E-017)) ;
#204=DIRECTION('Axis2P3D Direction',(1.,6.12323399574E-017,-6.12323399574E-017)) ;
#205=DIRECTION('Axis2P3D XDirection',(6.12323399574E-017,-1.,0.)) ;
#209=DIRECTION('Vector Direction',(0.,1.,-8.881784197E-016)) ;
#218=DIRECTION('Vector Direction',(0.,0.,-1.)) ;
#223=DIRECTION('Vector Direction',(0.,0.,-1.)) ;
#230=DIRECTION('Vector Direction',(0.,0.,-1.)) ;
#243=DIRECTION('Vector Direction',(1.,0.,-7.93016446161E-017)) ;
#250=DIRECTION('Vector Direction',(0.,0.,-1.)) ;
#262=DIRECTION('Axis2P3D Direction',(-1.,-6.12323399574E-017,6.12323399574E-017)) ;
#263=DIRECTION('Axis2P3D XDirection',(-6.12323399574E-017,1.,0.)) ;
#267=DIRECTION('Vector Direction',(0.,1.,0.)) ;
#276=DIRECTION('Vector Direction',(0.,0.,-1.)) ;
#281=DIRECTION('Vector Direction',(0.,0.,-1.)) ;
#294=DIRECTION('Axis2P3D Direction',(-6.12323399574E-017,1.,0.)) ;
#295=DIRECTION('Axis2P3D XDirection',(1.,6.12323399574E-017,-6.12323399574E-017)) ;
#299=DIRECTION('Vector Direction',(1.,6.12323399574E-017,-5.92118946467E-017)) ;
#308=DIRECTION('Vector Direction',(0.,0.,-1.)) ;
#315=DIRECTION('Vector Direction',(1.,6.12323399574E-017,-5.92118946467E-017)) ;
#322=DIRECTION('Vector Direction',(-6.12323399574E-017,0.,-1.)) ;
#334=DIRECTION('Axis2P3D Direction',(-1.,-6.12323399574E-017,6.12323399574E-017)) ;
#335=DIRECTION('Axis2P3D XDirection',(-6.12323399574E-017,1.,0.)) ;
#339=DIRECTION('Vector Direction',(-6.12323399574E-017,1.,0.)) ;
#346=DIRECTION('Vector Direction',(-6.12323399574E-017,1.,0.)) ;
#353=DIRECTION('Vector Direction',(-6.12323399574E-017,0.,-1.)) ;
#360=DIRECTION('Vector Direction',(6.12323399574E-017,-1.,0.)) ;
#367=DIRECTION('Vector Direction',(6.12323399574E-017,0.,1.)) ;
#381=DIRECTION('Axis2P3D Direction',(6.12323399574E-017,3.74939945665E-033,1.)) ;
#382=DIRECTION('Axis2P3D XDirection',(-6.12323399574E-017,1.,0.)) ;
#386=DIRECTION('Vector Direction',(0.,-1.,0.)) ;
#393=DIRECTION('Vector Direction',(-1.,-1.18423789293E-016,8.881784197E-017)) ;
#405=DIRECTION('Axis2P3D Direction',(1.,6.12323399574E-017,-6.12323399574E-017)) ;
#406=DIRECTION('Axis2P3D XDirection',(6.12323399574E-017,-1.,0.)) ;
#410=DIRECTION('Vector Direction',(0.,0.,-1.)) ;
#417=DIRECTION('Vector Direction',(0.,-1.,0.)) ;
#424=DIRECTION('Vector Direction',(0.,0.,1.)) ;
#431=DIRECTION('Vector Direction',(0.,-1.,0.)) ;
#445=DIRECTION('Axis2P3D Direction',(6.12323399574E-017,3.74939945665E-033,1.)) ;
#446=DIRECTION('Axis2P3D XDirection',(-6.12323399574E-017,1.,0.)) ;
#450=DIRECTION('Vector Direction',(1.,9.86864910778E-016,0.)) ;
#455=DIRECTION('Vector Direction',(1.,0.,0.)) ;
#460=DIRECTION('Vector Direction',(1.,9.86864910778E-016,0.)) ;
#476=DIRECTION('Axis2P3D Direction',(-6.12323399574E-017,-3.74939945665E-033,-1.)) ;
#477=DIRECTION('Axis2P3D XDirection',(-6.12323399574E-017,1.,0.)) ;
#481=DIRECTION('Vector Direction',(1.,9.86864910778E-016,0.)) ;
#486=DIRECTION('Vector Direction',(1.,9.86864910778E-016,0.)) ;
#505=DIRECTION('Vector Direction',(1.,9.86864910778E-016,0.)) ;
#517=DIRECTION('Vector Direction',(1.,9.86864910778E-016,0.)) ;
#529=DIRECTION('Vector Direction',(1.,0.,0.)) ;
#541=DIRECTION('Vector Direction',(1.,0.,0.)) ;
#553=DIRECTION('Axis2P3D Direction',(6.12323399574E-017,-1.,0.)) ;
#554=DIRECTION('Axis2P3D XDirection',(-1.,-6.12323399574E-017,6.12323399574E-017)) ;
#31=PRESENTATION_LAYER_ASSIGNMENT('1',' ',(#22)) ;
#8=PRODUCT_RELATED_PRODUCT_CATEGORY('part',$,(#5)) ;
#7=PRODUCT_CATEGORY('part','specification') ;
#30=STYLED_ITEM(' ',(#29),#22) ;
#29=PRESENTATION_STYLE_ASSIGNMENT((#28)) ;
#28=SURFACE_STYLE_USAGE(.BOTH.,#27) ;
#27=SURFACE_SIDE_STYLE(' ',(#26)) ;
#26=SURFACE_STYLE_FILL_AREA(#25) ;
#25=FILL_AREA_STYLE(' ',(#24)) ;
#24=FILL_AREA_STYLE_COLOUR(' ',#23) ;
#40=VECTOR('Line Direction',#39,1.) ;
#49=VECTOR('Line Direction',#48,1.) ;
#56=VECTOR('Line Direction',#55,1.) ;
#63=VECTOR('Line Direction',#62,1.) ;
#80=VECTOR('Line Direction',#79,1.) ;
#87=VECTOR('Line Direction',#86,1.) ;
#94=VECTOR('Line Direction',#93,1.) ;
#101=VECTOR('Line Direction',#100,1.) ;
#119=VECTOR('Line Direction',#118,1.) ;
#126=VECTOR('Line Direction',#125,1.) ;
#143=VECTOR('Line Direction',#142,1.) ;
#150=VECTOR('Line Direction',#149,1.) ;
#157=VECTOR('Line Direction',#156,1.) ;
#170=VECTOR('Line Direction',#169,1.) ;
#179=VECTOR('Line Direction',#178,1.) ;
#186=VECTOR('Line Direction',#185,1.) ;
#193=VECTOR('Line Direction',#192,1.) ;
#210=VECTOR('Line Direction',#209,1.) ;
#219=VECTOR('Line Direction',#218,1.) ;
#224=VECTOR('Line Direction',#223,1.) ;
#231=VECTOR('Line Direction',#230,1.) ;
#244=VECTOR('Line Direction',#243,1.) ;
#251=VECTOR('Line Direction',#250,1.) ;
#268=VECTOR('Line Direction',#267,1.) ;
#277=VECTOR('Line Direction',#276,1.) ;
#282=VECTOR('Line Direction',#281,1.) ;
#300=VECTOR('Line Direction',#299,1.) ;
#309=VECTOR('Line Direction',#308,1.) ;
#316=VECTOR('Line Direction',#315,1.) ;
#323=VECTOR('Line Direction',#322,1.) ;
#340=VECTOR('Line Direction',#339,1.) ;
#347=VECTOR('Line Direction',#346,1.) ;
#354=VECTOR('Line Direction',#353,1.) ;
#361=VECTOR('Line Direction',#360,1.) ;
#368=VECTOR('Line Direction',#367,1.) ;
#387=VECTOR('Line Direction',#386,1.) ;
#394=VECTOR('Line Direction',#393,1.) ;
#411=VECTOR('Line Direction',#410,1.) ;
#418=VECTOR('Line Direction',#417,1.) ;
#425=VECTOR('Line Direction',#424,1.) ;
#432=VECTOR('Line Direction',#431,1.) ;
#451=VECTOR('Line Direction',#450,1.) ;
#456=VECTOR('Line Direction',#455,1.) ;
#461=VECTOR('Line Direction',#460,1.) ;
#482=VECTOR('Line Direction',#481,1.) ;
#487=VECTOR('Line Direction',#486,1.) ;
#506=VECTOR('Line Direction',#505,1.) ;
#518=VECTOR('Line Direction',#517,1.) ;
#530=VECTOR('Line Direction',#529,1.) ;
#542=VECTOR('Line Direction',#541,1.) ;
#16=UNCERTAINTY_MEASURE_WITH_UNIT(LENGTH_MEASURE(0.005),#12,'distance_accuracy_value','CONFUSED CURVE UNCERTAINTY') ;
#573=SHAPE_REPRESENTATION_RELATIONSHIP(' ',' ',#20,#572) ;
#67=ORIENTED_EDGE('',*,*,#46,.T.) ;
#68=ORIENTED_EDGE('',*,*,#53,.T.) ;
#69=ORIENTED_EDGE('',*,*,#60,.T.) ;
#70=ORIENTED_EDGE('',*,*,#65,.T.) ;
#105=ORIENTED_EDGE('',*,*,#84,.T.) ;
#106=ORIENTED_EDGE('',*,*,#65,.F.) ;
#107=ORIENTED_EDGE('',*,*,#91,.F.) ;
#108=ORIENTED_EDGE('',*,*,#98,.F.) ;
#109=ORIENTED_EDGE('',*,*,#103,.T.) ;
#130=ORIENTED_EDGE('',*,*,#123,.F.) ;
#131=ORIENTED_EDGE('',*,*,#91,.T.) ;
#132=ORIENTED_EDGE('',*,*,#60,.F.) ;
#133=ORIENTED_EDGE('',*,*,#128,.F.) ;
#161=ORIENTED_EDGE('',*,*,#147,.T.) ;
#162=ORIENTED_EDGE('',*,*,#128,.T.) ;
#163=ORIENTED_EDGE('',*,*,#53,.F.) ;
#164=ORIENTED_EDGE('',*,*,#154,.F.) ;
#165=ORIENTED_EDGE('',*,*,#159,.F.) ;
#197=ORIENTED_EDGE('',*,*,#176,.T.) ;
#198=ORIENTED_EDGE('',*,*,#183,.T.) ;
#199=ORIENTED_EDGE('',*,*,#190,.T.) ;
#200=ORIENTED_EDGE('',*,*,#195,.T.) ;
#235=ORIENTED_EDGE('',*,*,#216,.T.) ;
#236=ORIENTED_EDGE('',*,*,#221,.T.) ;
#237=ORIENTED_EDGE('',*,*,#190,.F.) ;
#238=ORIENTED_EDGE('',*,*,#228,.F.) ;
#239=ORIENTED_EDGE('',*,*,#233,.F.) ;
#255=ORIENTED_EDGE('',*,*,#248,.F.) ;
#256=ORIENTED_EDGE('',*,*,#228,.T.) ;
#257=ORIENTED_EDGE('',*,*,#183,.F.) ;
#258=ORIENTED_EDGE('',*,*,#253,.F.) ;
#286=ORIENTED_EDGE('',*,*,#274,.F.) ;
#287=ORIENTED_EDGE('',*,*,#279,.T.) ;
#288=ORIENTED_EDGE('',*,*,#253,.T.) ;
#289=ORIENTED_EDGE('',*,*,#176,.F.) ;
#290=ORIENTED_EDGE('',*,*,#284,.F.) ;
#327=ORIENTED_EDGE('',*,*,#306,.T.) ;
#328=ORIENTED_EDGE('',*,*,#313,.F.) ;
#329=ORIENTED_EDGE('',*,*,#320,.F.) ;
#330=ORIENTED_EDGE('',*,*,#325,.T.) ;
#372=ORIENTED_EDGE('',*,*,#344,.T.) ;
#373=ORIENTED_EDGE('',*,*,#325,.F.) ;
#374=ORIENTED_EDGE('',*,*,#351,.F.) ;
#375=ORIENTED_EDGE('',*,*,#358,.T.) ;
#376=ORIENTED_EDGE('',*,*,#365,.T.) ;
#377=ORIENTED_EDGE('',*,*,#370,.F.) ;
#398=ORIENTED_EDGE('',*,*,#320,.T.) ;
#399=ORIENTED_EDGE('',*,*,#391,.T.) ;
#400=ORIENTED_EDGE('',*,*,#396,.T.) ;
#401=ORIENTED_EDGE('',*,*,#351,.T.) ;
#436=ORIENTED_EDGE('',*,*,#415,.F.) ;
#437=ORIENTED_EDGE('',*,*,#391,.F.) ;
#438=ORIENTED_EDGE('',*,*,#313,.T.) ;
#439=ORIENTED_EDGE('',*,*,#422,.T.) ;
#440=ORIENTED_EDGE('',*,*,#429,.T.) ;
#441=ORIENTED_EDGE('',*,*,#434,.F.) ;
#465=ORIENTED_EDGE('',*,*,#453,.T.) ;
#466=ORIENTED_EDGE('',*,*,#123,.T.) ;
#467=ORIENTED_EDGE('',*,*,#458,.T.) ;
#468=ORIENTED_EDGE('',*,*,#248,.T.) ;
#469=ORIENTED_EDGE('',*,*,#463,.T.) ;
#470=ORIENTED_EDGE('',*,*,#422,.F.) ;
#471=ORIENTED_EDGE('',*,*,#306,.F.) ;
#472=ORIENTED_EDGE('',*,*,#344,.F.) ;
#491=ORIENTED_EDGE('',*,*,#484,.F.) ;
#492=ORIENTED_EDGE('',*,*,#365,.F.) ;
#493=ORIENTED_EDGE('',*,*,#489,.T.) ;
#494=ORIENTED_EDGE('',*,*,#103,.F.) ;
#498=ORIENTED_EDGE('',*,*,#453,.F.) ;
#499=ORIENTED_EDGE('',*,*,#370,.T.) ;
#500=ORIENTED_EDGE('',*,*,#484,.T.) ;
#501=ORIENTED_EDGE('',*,*,#98,.T.) ;
#510=ORIENTED_EDGE('',*,*,#508,.T.) ;
#511=ORIENTED_EDGE('',*,*,#429,.F.) ;
#512=ORIENTED_EDGE('',*,*,#463,.F.) ;
#513=ORIENTED_EDGE('',*,*,#279,.F.) ;
#522=ORIENTED_EDGE('',*,*,#520,.T.) ;
#523=ORIENTED_EDGE('',*,*,#434,.T.) ;
#524=ORIENTED_EDGE('',*,*,#508,.F.) ;
#525=ORIENTED_EDGE('',*,*,#274,.T.) ;
#534=ORIENTED_EDGE('',*,*,#532,.T.) ;
#535=ORIENTED_EDGE('',*,*,#233,.T.) ;
#536=ORIENTED_EDGE('',*,*,#458,.F.) ;
#537=ORIENTED_EDGE('',*,*,#147,.F.) ;
#546=ORIENTED_EDGE('',*,*,#544,.T.) ;
#547=ORIENTED_EDGE('',*,*,#216,.F.) ;
#548=ORIENTED_EDGE('',*,*,#532,.F.) ;
#549=ORIENTED_EDGE('',*,*,#159,.T.) ;
#558=ORIENTED_EDGE('',*,*,#544,.F.) ;
#559=ORIENTED_EDGE('',*,*,#154,.T.) ;
#560=ORIENTED_EDGE('',*,*,#46,.F.) ;
#561=ORIENTED_EDGE('',*,*,#84,.F.) ;
#562=ORIENTED_EDGE('',*,*,#489,.F.) ;
#563=ORIENTED_EDGE('',*,*,#358,.F.) ;
#564=ORIENTED_EDGE('',*,*,#396,.F.) ;
#565=ORIENTED_EDGE('',*,*,#415,.T.) ;
#566=ORIENTED_EDGE('',*,*,#520,.F.) ;
#567=ORIENTED_EDGE('',*,*,#284,.T.) ;
#568=ORIENTED_EDGE('',*,*,#195,.F.) ;
#569=ORIENTED_EDGE('',*,*,#221,.F.) ;
#32=CLOSED_SHELL('Closed Shell',(#72,#111,#135,#167,#202,#241,#260,#292,#332,#379,#403,#443,#474,#496,#503,#515,#527,#539,#551,#571)) ;
#572=ADVANCED_BREP_SHAPE_REPRESENTATION('NONE',(#22),#17) ;
#72=ADVANCED_FACE('S3D gedreht',(#71),#37,.F.) ;
#111=ADVANCED_FACE('S3D gedreht',(#110),#77,.T.) ;
#135=ADVANCED_FACE('S3D gedreht',(#134),#116,.F.) ;
#167=ADVANCED_FACE('S3D gedreht',(#166),#140,.T.) ;
#202=ADVANCED_FACE('S3D gedreht',(#201),#37,.F.) ;
#241=ADVANCED_FACE('S3D gedreht',(#240),#207,.F.) ;
#260=ADVANCED_FACE('S3D gedreht',(#259),#116,.F.) ;
#292=ADVANCED_FACE('S3D gedreht',(#291),#265,.F.) ;
#332=ADVANCED_FACE('S3D gedreht',(#331),#297,.F.) ;
#379=ADVANCED_FACE('S3D gedreht',(#378),#337,.T.) ;
#403=ADVANCED_FACE('S3D gedreht',(#402),#384,.T.) ;
#443=ADVANCED_FACE('S3D gedreht',(#442),#408,.T.) ;
#474=ADVANCED_FACE('S3D gedreht',(#473),#448,.F.) ;
#496=ADVANCED_FACE('S3D gedreht',(#495),#479,.T.) ;
#503=ADVANCED_FACE('S3D gedreht',(#502),#116,.T.) ;
#515=ADVANCED_FACE('S3D gedreht',(#514),#116,.T.) ;
#527=ADVANCED_FACE('S3D gedreht',(#526),#479,.T.) ;
#539=ADVANCED_FACE('S3D gedreht',(#538),#116,.T.) ;
#551=ADVANCED_FACE('S3D gedreht',(#550),#479,.T.) ;
#571=ADVANCED_FACE('S3D gedreht',(#570),#556,.F.) ;
#4=APPLICATION_PROTOCOL_DEFINITION('international standard','automotive_design',2001,#1) ;
#22=MANIFOLD_SOLID_BREP('S3D gedreht',#32) ;
#23=DRAUGHTING_PRE_DEFINED_COLOUR('yellow') ;
#46=EDGE_CURVE('',#43,#45,#41,.T.) ;
#53=EDGE_CURVE('',#45,#52,#50,.T.) ;
#60=EDGE_CURVE('',#52,#59,#57,.T.) ;
#65=EDGE_CURVE('',#59,#43,#64,.T.) ;
#84=EDGE_CURVE('',#83,#43,#81,.T.) ;
#91=EDGE_CURVE('',#90,#59,#88,.T.) ;
#98=EDGE_CURVE('',#97,#90,#95,.T.) ;
#103=EDGE_CURVE('',#97,#83,#102,.T.) ;
#123=EDGE_CURVE('',#90,#122,#120,.T.) ;
#128=EDGE_CURVE('',#122,#52,#127,.T.) ;
#147=EDGE_CURVE('',#146,#122,#144,.T.) ;
#154=EDGE_CURVE('',#153,#45,#151,.T.) ;
#159=EDGE_CURVE('',#146,#153,#158,.T.) ;
#176=EDGE_CURVE('',#173,#175,#171,.F.) ;
#183=EDGE_CURVE('',#175,#182,#180,.F.) ;
#190=EDGE_CURVE('',#182,#189,#187,.F.) ;
#195=EDGE_CURVE('',#189,#173,#194,.F.) ;
#216=EDGE_CURVE('',#213,#215,#211,.T.) ;
#221=EDGE_CURVE('',#215,#189,#220,.T.) ;
#228=EDGE_CURVE('',#227,#182,#225,.T.) ;
#233=EDGE_CURVE('',#213,#227,#232,.T.) ;
#248=EDGE_CURVE('',#227,#247,#245,.T.) ;
#253=EDGE_CURVE('',#247,#175,#252,.T.) ;
#274=EDGE_CURVE('',#271,#273,#269,.T.) ;
#279=EDGE_CURVE('',#271,#247,#278,.T.) ;
#284=EDGE_CURVE('',#273,#173,#283,.T.) ;
#306=EDGE_CURVE('',#303,#305,#301,.T.) ;
#313=EDGE_CURVE('',#312,#305,#310,.T.) ;
#320=EDGE_CURVE('',#319,#312,#317,.T.) ;
#325=EDGE_CURVE('',#319,#303,#324,.T.) ;
#344=EDGE_CURVE('',#343,#303,#341,.F.) ;
#351=EDGE_CURVE('',#350,#319,#348,.F.) ;
#358=EDGE_CURVE('',#350,#357,#355,.T.) ;
#365=EDGE_CURVE('',#357,#364,#362,.T.) ;
#370=EDGE_CURVE('',#343,#364,#369,.T.) ;
#391=EDGE_CURVE('',#312,#390,#388,.F.) ;
#396=EDGE_CURVE('',#390,#350,#395,.T.) ;
#415=EDGE_CURVE('',#390,#414,#412,.T.) ;
#422=EDGE_CURVE('',#305,#421,#419,.F.) ;
#429=EDGE_CURVE('',#421,#428,#426,.T.) ;
#434=EDGE_CURVE('',#414,#428,#433,.T.) ;
#453=EDGE_CURVE('',#343,#90,#452,.T.) ;
#458=EDGE_CURVE('',#122,#227,#457,.T.) ;
#463=EDGE_CURVE('',#247,#421,#462,.T.) ;
#484=EDGE_CURVE('',#364,#97,#483,.T.) ;
#489=EDGE_CURVE('',#357,#83,#488,.T.) ;
#508=EDGE_CURVE('',#271,#428,#507,.T.) ;
#520=EDGE_CURVE('',#273,#414,#519,.T.) ;
#532=EDGE_CURVE('',#146,#213,#531,.T.) ;
#544=EDGE_CURVE('',#153,#215,#543,.T.) ;
#66=EDGE_LOOP('',(#67,#68,#69,#70)) ;
#104=EDGE_LOOP('',(#105,#106,#107,#108,#109)) ;
#129=EDGE_LOOP('',(#130,#131,#132,#133)) ;
#160=EDGE_LOOP('',(#161,#162,#163,#164,#165)) ;
#196=EDGE_LOOP('',(#197,#198,#199,#200)) ;
#234=EDGE_LOOP('',(#235,#236,#237,#238,#239)) ;
#254=EDGE_LOOP('',(#255,#256,#257,#258)) ;
#285=EDGE_LOOP('',(#286,#287,#288,#289,#290)) ;
#326=EDGE_LOOP('',(#327,#328,#329,#330)) ;
#371=EDGE_LOOP('',(#372,#373,#374,#375,#376,#377)) ;
#397=EDGE_LOOP('',(#398,#399,#400,#401)) ;
#435=EDGE_LOOP('',(#436,#437,#438,#439,#440,#441)) ;
#464=EDGE_LOOP('',(#465,#466,#467,#468,#469,#470,#471,#472)) ;
#490=EDGE_LOOP('',(#491,#492,#493,#494)) ;
#497=EDGE_LOOP('',(#498,#499,#500,#501)) ;
#509=EDGE_LOOP('',(#510,#511,#512,#513)) ;
#521=EDGE_LOOP('',(#522,#523,#524,#525)) ;
#533=EDGE_LOOP('',(#534,#535,#536,#537)) ;
#545=EDGE_LOOP('',(#546,#547,#548,#549)) ;
#557=EDGE_LOOP('',(#558,#559,#560,#561,#562,#563,#564,#565,#566,#567,#568,#569)) ;
#71=FACE_OUTER_BOUND('',#66,.T.) ;
#110=FACE_OUTER_BOUND('',#104,.T.) ;
#134=FACE_OUTER_BOUND('',#129,.T.) ;
#166=FACE_OUTER_BOUND('',#160,.T.) ;
#201=FACE_OUTER_BOUND('',#196,.T.) ;
#240=FACE_OUTER_BOUND('',#234,.T.) ;
#259=FACE_OUTER_BOUND('',#254,.T.) ;
#291=FACE_OUTER_BOUND('',#285,.T.) ;
#331=FACE_OUTER_BOUND('',#326,.T.) ;
#378=FACE_OUTER_BOUND('',#371,.T.) ;
#402=FACE_OUTER_BOUND('',#397,.T.) ;
#442=FACE_OUTER_BOUND('',#435,.T.) ;
#473=FACE_OUTER_BOUND('',#464,.T.) ;
#495=FACE_OUTER_BOUND('',#490,.T.) ;
#502=FACE_OUTER_BOUND('',#497,.T.) ;
#514=FACE_OUTER_BOUND('',#509,.T.) ;
#526=FACE_OUTER_BOUND('',#521,.T.) ;
#538=FACE_OUTER_BOUND('',#533,.T.) ;
#550=FACE_OUTER_BOUND('',#545,.T.) ;
#570=FACE_OUTER_BOUND('',#557,.T.) ;
#41=LINE('Line',#38,#40) ;
#50=LINE('Line',#47,#49) ;
#57=LINE('Line',#54,#56) ;
#64=LINE('Line',#61,#63) ;
#81=LINE('Line',#78,#80) ;
#88=LINE('Line',#85,#87) ;
#95=LINE('Line',#92,#94) ;
#102=LINE('Line',#99,#101) ;
#120=LINE('Line',#117,#119) ;
#127=LINE('Line',#124,#126) ;
#144=LINE('Line',#141,#143) ;
#151=LINE('Line',#148,#150) ;
#158=LINE('Line',#155,#157) ;
#171=LINE('Line',#168,#170) ;
#180=LINE('Line',#177,#179) ;
#187=LINE('Line',#184,#186) ;
#194=LINE('Line',#191,#193) ;
#211=LINE('Line',#208,#210) ;
#220=LINE('Line',#217,#219) ;
#225=LINE('Line',#222,#224) ;
#232=LINE('Line',#229,#231) ;
#245=LINE('Line',#242,#244) ;
#252=LINE('Line',#249,#251) ;
#269=LINE('Line',#266,#268) ;
#278=LINE('Line',#275,#277) ;
#283=LINE('Line',#280,#282) ;
#301=LINE('Line',#298,#300) ;
#310=LINE('Line',#307,#309) ;
#317=LINE('Line',#314,#316) ;
#324=LINE('Line',#321,#323) ;
#341=LINE('Line',#338,#340) ;
#348=LINE('Line',#345,#347) ;
#355=LINE('Line',#352,#354) ;
#362=LINE('Line',#359,#361) ;
#369=LINE('Line',#366,#368) ;
#388=LINE('Line',#385,#387) ;
#395=LINE('Line',#392,#394) ;
#412=LINE('Line',#409,#411) ;
#419=LINE('Line',#416,#418) ;
#426=LINE('Line',#423,#425) ;
#433=LINE('Line',#430,#432) ;
#452=LINE('Line',#449,#451) ;
#457=LINE('Line',#454,#456) ;
#462=LINE('Line',#459,#461) ;
#483=LINE('Line',#480,#482) ;
#488=LINE('Line',#485,#487) ;
#507=LINE('Line',#504,#506) ;
#519=LINE('Line',#516,#518) ;
#531=LINE('Line',#528,#530) ;
#543=LINE('Line',#540,#542) ;
#37=PLANE('',#36) ;
#77=PLANE('',#76) ;
#116=PLANE('',#115) ;
#140=PLANE('',#139) ;
#207=PLANE('',#206) ;
#265=PLANE('',#264) ;
#297=PLANE('',#296) ;
#337=PLANE('',#336) ;
#384=PLANE('',#383) ;
#408=PLANE('',#407) ;
#448=PLANE('',#447) ;
#479=PLANE('',#478) ;
#556=PLANE('',#555) ;
#14=PLANE_ANGLE_MEASURE_WITH_UNIT(PLANE_ANGLE_MEASURE(0.0174532925199),#13) ;
#9=PRODUCT_CATEGORY_RELATIONSHIP(' ',' ',#7,#8) ;
#6=PRODUCT_DEFINITION_FORMATION_WITH_SPECIFIED_SOURCE('',' ',#5,.NOT_KNOWN.) ;
#21=SHAPE_DEFINITION_REPRESENTATION(#11,#20) ;
#43=VERTEX_POINT('',#42) ;
#45=VERTEX_POINT('',#44) ;
#52=VERTEX_POINT('',#51) ;
#59=VERTEX_POINT('',#58) ;
#83=VERTEX_POINT('',#82) ;
#90=VERTEX_POINT('',#89) ;
#97=VERTEX_POINT('',#96) ;
#122=VERTEX_POINT('',#121) ;
#146=VERTEX_POINT('',#145) ;
#153=VERTEX_POINT('',#152) ;
#173=VERTEX_POINT('',#172) ;
#175=VERTEX_POINT('',#174) ;
#182=VERTEX_POINT('',#181) ;
#189=VERTEX_POINT('',#188) ;
#213=VERTEX_POINT('',#212) ;
#215=VERTEX_POINT('',#214) ;
#227=VERTEX_POINT('',#226) ;
#247=VERTEX_POINT('',#246) ;
#271=VERTEX_POINT('',#270) ;
#273=VERTEX_POINT('',#272) ;
#303=VERTEX_POINT('',#302) ;
#305=VERTEX_POINT('',#304) ;
#312=VERTEX_POINT('',#311) ;
#319=VERTEX_POINT('',#318) ;
#343=VERTEX_POINT('',#342) ;
#350=VERTEX_POINT('',#349) ;
#357=VERTEX_POINT('',#356) ;
#364=VERTEX_POINT('',#363) ;
#390=VERTEX_POINT('',#389) ;
#414=VERTEX_POINT('',#413) ;
#421=VERTEX_POINT('',#420) ;
#428=VERTEX_POINT('',#427) ;
#12=(LENGTH_UNIT()NAMED_UNIT(*)SI_UNIT(.MILLI.,.METRE.)) ;
#13=(NAMED_UNIT(*)PLANE_ANGLE_UNIT()SI_UNIT($,.RADIAN.)) ;
#15=(NAMED_UNIT(*)SI_UNIT($,.STERADIAN.)SOLID_ANGLE_UNIT()) ;
#17=(GEOMETRIC_REPRESENTATION_CONTEXT(3)GLOBAL_UNCERTAINTY_ASSIGNED_CONTEXT((#16))GLOBAL_UNIT_ASSIGNED_CONTEXT((#12,#13,#15))REPRESENTATION_CONTEXT(' ',' ')) ;
ENDSEC;
END-ISO-10303-21;
