ISO-10303-21;
HEADER;
FILE_DESCRIPTION(('CATIA V5 STEP Exchange','CAx-IF Rec.Pracs.--- Model Styling and Organization---1.4--- 2014-01-23'),'2;1');

FILE_NAME ('008224-1_1', '2019-11-21T06:49:39+00:00', ('none'), ('Weidmueller'), 'CATIA Version 5-6 Release 2016 SP3 HF44', 'CATIA V5 STEP AP214', 'none');

FILE_SCHEMA(('AUTOMOTIVE_DESIGN { 1 0 10303 214 1 1 1 1 }'));

ENDSEC;
DATA;
#5=PRODUCT('1170170000','','',(#2)) ;
#2=PRODUCT_CONTEXT(' ',#1,'mechanical') ;
#1=APPLICATION_CONTEXT('automotive design') ;
#10=PRODUCT_DEFINITION('',' ',#6,#3) ;
#3=PRODUCT_DEFINITION_CONTEXT('part definition',#1,' ') ;
#11=PRODUCT_DEFINITION_SHAPE(' ',' ',#10) ;
#543=MECHANICAL_DESIGN_GEOMETRIC_PRESENTATION_REPRESENTATION(' ',(#29),#16) ;
#19=SHAPE_REPRESENTATION(' ',(#18),#16) ;
#18=AXIS2_PLACEMENT_3D(' ',#17,$,$) ;
#34=AXIS2_PLACEMENT_3D('Cone Axis2P3D',#31,#32,#33) ;
#38=AXIS2_PLACEMENT_3D('Circle Axis2P3D',#36,#37,$) ;
#54=AXIS2_PLACEMENT_3D('Circle Axis2P3D',#52,#53,$) ;
#74=AXIS2_PLACEMENT_3D('Cylinder Axis2P3D',#71,#72,#73) ;
#78=AXIS2_PLACEMENT_3D('Circle Axis2P3D',#76,#77,$) ;
#105=AXIS2_PLACEMENT_3D('Cone Axis2P3D',#102,#103,#104) ;
#109=AXIS2_PLACEMENT_3D('Circle Axis2P3D',#107,#108,$) ;
#114=AXIS2_PLACEMENT_3D('Circle Axis2P3D',#112,#113,$) ;
#127=AXIS2_PLACEMENT_3D('Cylinder Axis2P3D',#124,#125,#126) ;
#138=AXIS2_PLACEMENT_3D('Circle Axis2P3D',#136,#137,$) ;
#158=AXIS2_PLACEMENT_3D('Plane Axis2P3D',#155,#156,#157) ;
#162=AXIS2_PLACEMENT_3D('Circle Axis2P3D',#160,#161,$) ;
#171=AXIS2_PLACEMENT_3D('Circle Axis2P3D',#169,#170,$) ;
#180=AXIS2_PLACEMENT_3D('Circle Axis2P3D',#178,#179,$) ;
#191=AXIS2_PLACEMENT_3D('Cylinder Axis2P3D',#188,#189,#190) ;
#203=AXIS2_PLACEMENT_3D('Cylinder Axis2P3D',#200,#201,#202) ;
#226=AXIS2_PLACEMENT_3D('Cone Axis2P3D',#223,#224,#225) ;
#237=AXIS2_PLACEMENT_3D('Circle Axis2P3D',#235,#236,$) ;
#257=AXIS2_PLACEMENT_3D('Cylinder Axis2P3D',#254,#255,#256) ;
#261=AXIS2_PLACEMENT_3D('Circle Axis2P3D',#259,#260,$) ;
#288=AXIS2_PLACEMENT_3D('Cylinder Axis2P3D',#285,#286,#287) ;
#292=AXIS2_PLACEMENT_3D('Circle Axis2P3D',#290,#291,$) ;
#305=AXIS2_PLACEMENT_3D('Cone Axis2P3D',#302,#303,#304) ;
#309=AXIS2_PLACEMENT_3D('Circle Axis2P3D',#307,#308,$) ;
#322=AXIS2_PLACEMENT_3D('Cylinder Axis2P3D',#319,#320,#321) ;
#333=AXIS2_PLACEMENT_3D('Circle Axis2P3D',#331,#332,$) ;
#353=AXIS2_PLACEMENT_3D('Plane Axis2P3D',#350,#351,#352) ;
#411=AXIS2_PLACEMENT_3D('Cylinder Axis2P3D',#408,#409,#410) ;
#415=AXIS2_PLACEMENT_3D('Circle Axis2P3D',#413,#414,$) ;
#428=AXIS2_PLACEMENT_3D('Plane Axis2P3D',#425,#426,#427) ;
#438=AXIS2_PLACEMENT_3D('Cylinder Axis2P3D',#435,#436,#437) ;
#442=AXIS2_PLACEMENT_3D('Circle Axis2P3D',#440,#441,$) ;
#469=AXIS2_PLACEMENT_3D('Cylinder Axis2P3D',#466,#467,#468) ;
#473=AXIS2_PLACEMENT_3D('Circle Axis2P3D',#471,#472,$) ;
#486=AXIS2_PLACEMENT_3D('Cone Axis2P3D',#483,#484,#485) ;
#490=AXIS2_PLACEMENT_3D('Circle Axis2P3D',#488,#489,$) ;
#517=AXIS2_PLACEMENT_3D('Cone Axis2P3D',#514,#515,#516) ;
#521=AXIS2_PLACEMENT_3D('Circle Axis2P3D',#519,#520,$) ;
#534=AXIS2_PLACEMENT_3D('Plane Axis2P3D',#531,#532,#533) ;
#17=CARTESIAN_POINT(' ',(0.,0.,0.)) ;
#31=CARTESIAN_POINT('Axis2P3D Location',(1.2,1.2,11.625)) ;
#36=CARTESIAN_POINT('Axis2P3D Location',(1.2,1.2,11.25)) ;
#40=CARTESIAN_POINT('Vertex',(1.825,1.2,11.25)) ;
#42=CARTESIAN_POINT('Vertex',(0.575,1.2,11.25)) ;
#45=CARTESIAN_POINT('Line Origine',(-353552.690593,1.20000000005,353564.515593)) ;
#49=CARTESIAN_POINT('Vertex',(0.2,1.2,11.625)) ;
#52=CARTESIAN_POINT('Axis2P3D Location',(1.2,1.2,11.625)) ;
#56=CARTESIAN_POINT('Vertex',(2.2,1.2,11.625)) ;
#59=CARTESIAN_POINT('Line Origine',(353555.090593,1.2,353564.515593)) ;
#71=CARTESIAN_POINT('Axis2P3D Location',(1.2,1.2,16.5)) ;
#76=CARTESIAN_POINT('Axis2P3D Location',(1.2,1.2,9.80000000075)) ;
#80=CARTESIAN_POINT('Vertex',(1.825,1.2,9.80000000075)) ;
#82=CARTESIAN_POINT('Vertex',(0.575,1.2,9.80000000075)) ;
#85=CARTESIAN_POINT('Line Origine',(0.575,1.2,16.5)) ;
#90=CARTESIAN_POINT('Line Origine',(1.825,1.2,16.5)) ;
#102=CARTESIAN_POINT('Axis2P3D Location',(1.2,1.2,11.625)) ;
#107=CARTESIAN_POINT('Axis2P3D Location',(1.2,1.2,11.25)) ;
#112=CARTESIAN_POINT('Axis2P3D Location',(1.2,1.2,11.625)) ;
#124=CARTESIAN_POINT('Axis2P3D Location',(1.2,1.2,16.5)) ;
#129=CARTESIAN_POINT('Line Origine',(0.2,1.2,16.5)) ;
#133=CARTESIAN_POINT('Vertex',(0.2,1.2,14.3)) ;
#136=CARTESIAN_POINT('Axis2P3D Location',(1.2,1.2,14.3000000007)) ;
#140=CARTESIAN_POINT('Vertex',(2.2,1.2,14.3)) ;
#143=CARTESIAN_POINT('Line Origine',(2.2,1.2,16.5)) ;
#155=CARTESIAN_POINT('Axis2P3D Location',(2.2125,1.2,9.8)) ;
#160=CARTESIAN_POINT('Axis2P3D Location',(1.19999999981,1.19999999907,9.8)) ;
#164=CARTESIAN_POINT('Vertex',(2.2125,1.2,9.8)) ;
#166=CARTESIAN_POINT('Vertex',(0.1875,1.2,9.80000000075)) ;
#169=CARTESIAN_POINT('Axis2P3D Location',(1.19999999981,1.20000000093,9.8)) ;
#178=CARTESIAN_POINT('Axis2P3D Location',(1.20000000075,1.2,9.8)) ;
#188=CARTESIAN_POINT('Axis2P3D Location',(1.2,1.2,16.5)) ;
#200=CARTESIAN_POINT('Axis2P3D Location',(1.2,1.2,16.5)) ;
#206=CARTESIAN_POINT('Control Point',(0.2,1.2,14.3)) ;
#207=CARTESIAN_POINT('Control Point',(0.2,0.885840734641,14.3000000001)) ;
#208=CARTESIAN_POINT('Control Point',(0.323370055014,0.571681469282,14.3000000001)) ;
#209=CARTESIAN_POINT('Control Point',(0.571681469282,0.323370055014,14.3000000002)) ;
#210=CARTESIAN_POINT('Control Point',(1.2,0.0766299449864,14.3000000004)) ;
#211=CARTESIAN_POINT('Control Point',(1.82831853072,0.323370055014,14.3000000005)) ;
#212=CARTESIAN_POINT('Control Point',(2.07662994499,0.571681469282,14.3000000006)) ;
#213=CARTESIAN_POINT('Control Point',(2.2,0.885840734641,14.3000000007)) ;
#214=CARTESIAN_POINT('Control Point',(2.2,1.2,14.3000000007)) ;
#223=CARTESIAN_POINT('Axis2P3D Location',(1.2,1.2,14.5)) ;
#228=CARTESIAN_POINT('Line Origine',(-353552.790593,1.20000000005,353567.290593)) ;
#232=CARTESIAN_POINT('Vertex',(-4.4408920985E-016,1.2,14.5)) ;
#235=CARTESIAN_POINT('Axis2P3D Location',(1.2,1.2,14.5)) ;
#239=CARTESIAN_POINT('Vertex',(2.4,1.2,14.5)) ;
#242=CARTESIAN_POINT('Line Origine',(353555.190593,1.2,353567.290593)) ;
#254=CARTESIAN_POINT('Axis2P3D Location',(1.2,1.2,16.5)) ;
#259=CARTESIAN_POINT('Axis2P3D Location',(1.2,1.2,8.)) ;
#263=CARTESIAN_POINT('Vertex',(2.2125,1.2,8.)) ;
#265=CARTESIAN_POINT('Vertex',(0.1875,1.2,8.)) ;
#268=CARTESIAN_POINT('Line Origine',(0.1875,1.2,16.5)) ;
#273=CARTESIAN_POINT('Line Origine',(2.2125,1.2,16.5)) ;
#285=CARTESIAN_POINT('Axis2P3D Location',(1.2,1.2,16.5)) ;
#290=CARTESIAN_POINT('Axis2P3D Location',(1.2,1.2,8.)) ;
#302=CARTESIAN_POINT('Axis2P3D Location',(1.2,1.2,14.5)) ;
#307=CARTESIAN_POINT('Axis2P3D Location',(1.2,1.2,14.5)) ;
#319=CARTESIAN_POINT('Axis2P3D Location',(1.2,1.2,16.5)) ;
#324=CARTESIAN_POINT('Line Origine',(-4.4408920985E-016,1.2,16.5)) ;
#328=CARTESIAN_POINT('Vertex',(-4.4408920985E-016,1.2,16.5)) ;
#331=CARTESIAN_POINT('Axis2P3D Location',(1.2,1.2,16.5)) ;
#335=CARTESIAN_POINT('Vertex',(2.4,1.2,16.5)) ;
#338=CARTESIAN_POINT('Line Origine',(2.4,1.2,16.5)) ;
#350=CARTESIAN_POINT('Axis2P3D Location',(1.6925,1.2,8.)) ;
#360=CARTESIAN_POINT('Control Point',(1.6925,1.2,8.)) ;
#361=CARTESIAN_POINT('Control Point',(1.6925,1.2687577464,8.)) ;
#362=CARTESIAN_POINT('Control Point',(1.68050094499,1.33751463143,8.)) ;
#363=CARTESIAN_POINT('Control Point',(1.65649028924,1.40349083962,8.)) ;
#364=CARTESIAN_POINT('Control Point',(1.58648631291,1.52426474774,8.)) ;
#365=CARTESIAN_POINT('Control Point',(1.47971558556,1.61418670125,8.)) ;
#366=CARTESIAN_POINT('Control Point',(1.41891563139,1.64929706449,8.)) ;
#367=CARTESIAN_POINT('Control Point',(1.28766016663,1.69682491032,8.)) ;
#368=CARTESIAN_POINT('Control Point',(1.14806834261,1.69708604373,8.)) ;
#369=CARTESIAN_POINT('Control Point',(1.07892368335,1.68490455963,8.)) ;
#370=CARTESIAN_POINT('Control Point',(0.947823168581,1.63695096118,8.)) ;
#371=CARTESIAN_POINT('Control Point',(0.840716759553,1.54742910873,8.)) ;
#372=CARTESIAN_POINT('Control Point',(0.795575968703,1.4936547447,8.)) ;
#373=CARTESIAN_POINT('Control Point',(0.743398139762,1.40295807705,8.)) ;
#374=CARTESIAN_POINT('Control Point',(0.716558598194,1.30303465579,8.)) ;
#375=CARTESIAN_POINT('Control Point',(0.710489125749,1.26863592873,8.)) ;
#376=CARTESIAN_POINT('Control Point',(0.707500000596,1.23431785707,8.)) ;
#377=CARTESIAN_POINT('Control Point',(0.707500000596,1.2,8.)) ;
#378=CARTESIAN_POINT('Vertex',(1.6925,1.2,8.)) ;
#380=CARTESIAN_POINT('Vertex',(0.7075,1.2,8.)) ;
#384=CARTESIAN_POINT('Control Point',(0.707500000596,1.2,8.)) ;
#385=CARTESIAN_POINT('Control Point',(0.707500000596,1.13124225193,8.)) ;
#386=CARTESIAN_POINT('Control Point',(0.71949905619,1.06248536523,8.)) ;
#387=CARTESIAN_POINT('Control Point',(0.74350970966,0.996509163317,8.)) ;
#388=CARTESIAN_POINT('Control Point',(0.813513686842,0.875735252572,8.)) ;
#389=CARTESIAN_POINT('Control Point',(0.920284416415,0.785813297591,8.)) ;
#390=CARTESIAN_POINT('Control Point',(0.98108436751,0.750702936123,8.)) ;
#391=CARTESIAN_POINT('Control Point',(1.11233983323,0.703175089626,8.)) ;
#392=CARTESIAN_POINT('Control Point',(1.25193165833,0.702913956265,8.)) ;
#393=CARTESIAN_POINT('Control Point',(1.32107631506,0.715095440252,8.)) ;
#394=CARTESIAN_POINT('Control Point',(1.45217683278,0.763049039713,8.)) ;
#395=CARTESIAN_POINT('Control Point',(1.55928324368,0.852570895035,8.)) ;
#396=CARTESIAN_POINT('Control Point',(1.6044240271,0.906345250209,8.)) ;
#397=CARTESIAN_POINT('Control Point',(1.65660185823,0.997041920179,8.)) ;
#398=CARTESIAN_POINT('Control Point',(1.68344140056,1.09696534427,8.)) ;
#399=CARTESIAN_POINT('Control Point',(1.68951087484,1.13136407121,8.)) ;
#400=CARTESIAN_POINT('Control Point',(1.6925,1.16568214289,8.)) ;
#401=CARTESIAN_POINT('Control Point',(1.6925,1.2,8.)) ;
#408=CARTESIAN_POINT('Axis2P3D Location',(1.2,1.2,16.5)) ;
#413=CARTESIAN_POINT('Axis2P3D Location',(1.2,1.2,16.5)) ;
#425=CARTESIAN_POINT('Axis2P3D Location',(2.4,1.2,16.5)) ;
#435=CARTESIAN_POINT('Axis2P3D Location',(1.2,1.2,16.5)) ;
#440=CARTESIAN_POINT('Axis2P3D Location',(1.2,1.2,0.5)) ;
#444=CARTESIAN_POINT('Vertex',(1.6925,1.2,0.5)) ;
#446=CARTESIAN_POINT('Vertex',(0.7075,1.2,0.5)) ;
#449=CARTESIAN_POINT('Line Origine',(0.7075,1.2,16.5)) ;
#454=CARTESIAN_POINT('Line Origine',(1.6925,1.2,16.5)) ;
#466=CARTESIAN_POINT('Axis2P3D Location',(1.2,1.2,16.5)) ;
#471=CARTESIAN_POINT('Axis2P3D Location',(1.2,1.2,0.5)) ;
#483=CARTESIAN_POINT('Axis2P3D Location',(1.2,1.2,0.5)) ;
#488=CARTESIAN_POINT('Axis2P3D Location',(1.2,1.2,-1.22124532709E-015)) ;
#492=CARTESIAN_POINT('Vertex',(1.40382486541,1.2,-1.22124532709E-015)) ;
#494=CARTESIAN_POINT('Vertex',(0.996175134595,1.2,-1.22124532709E-015)) ;
#497=CARTESIAN_POINT('Line Origine',(-249999.04625,1.20000000004,433012.775375)) ;
#502=CARTESIAN_POINT('Line Origine',(250001.44625,1.20000000001,433012.775375)) ;
#514=CARTESIAN_POINT('Axis2P3D Location',(1.2,1.2,0.5)) ;
#519=CARTESIAN_POINT('Axis2P3D Location',(1.2,1.2,-1.44328993201E-015)) ;
#531=CARTESIAN_POINT('Axis2P3D Location',(1.2,1.2,0.)) ;
#32=DIRECTION('Axis2P3D Direction',(1.94972186642E-019,1.38777878078E-017,1.)) ;
#33=DIRECTION('Axis2P3D XDirection',(1.,2.05054046105E-020,0.)) ;
#37=DIRECTION('Axis2P3D Direction',(6.5574993425E-037,1.38777878078E-017,1.)) ;
#46=DIRECTION('Vector Direction',(-0.707106781187,9.63940896128E-017,0.707106781187)) ;
#53=DIRECTION('Axis2P3D Direction',(6.5574993425E-037,1.38777878078E-017,1.)) ;
#60=DIRECTION('Vector Direction',(0.707106781187,9.82745827125E-018,0.707106781187)) ;
#72=DIRECTION('Axis2P3D Direction',(1.94972186642E-019,3.99904980315E-039,1.)) ;
#73=DIRECTION('Axis2P3D XDirection',(1.,2.05108732278E-020,-1.94972186642E-019)) ;
#77=DIRECTION('Axis2P3D Direction',(1.94972186642E-019,3.99904980315E-039,1.)) ;
#86=DIRECTION('Vector Direction',(1.94977367585E-019,0.,1.)) ;
#91=DIRECTION('Vector Direction',(1.94977367585E-019,0.,1.)) ;
#103=DIRECTION('Axis2P3D Direction',(1.94972186642E-019,1.38777878078E-017,1.)) ;
#104=DIRECTION('Axis2P3D XDirection',(-1.,1.22444176906E-016,0.)) ;
#108=DIRECTION('Axis2P3D Direction',(6.5574993425E-037,1.38777878078E-017,1.)) ;
#113=DIRECTION('Axis2P3D Direction',(6.5574993425E-037,1.38777878078E-017,1.)) ;
#125=DIRECTION('Axis2P3D Direction',(1.94972186642E-019,3.99904980315E-039,1.)) ;
#126=DIRECTION('Axis2P3D XDirection',(1.,2.05108732278E-020,-1.94972186642E-019)) ;
#130=DIRECTION('Vector Direction',(1.94977367585E-019,0.,1.)) ;
#137=DIRECTION('Axis2P3D Direction',(1.94972186642E-019,3.99904980315E-039,1.)) ;
#144=DIRECTION('Vector Direction',(1.94955163124E-019,0.,1.)) ;
#156=DIRECTION('Axis2P3D Direction',(1.94972186642E-019,3.99904980315E-039,1.)) ;
#157=DIRECTION('Axis2P3D XDirection',(1.,2.05108732278E-020,-1.94972186642E-019)) ;
#161=DIRECTION('Axis2P3D Direction',(1.94972186642E-019,3.99904980315E-039,1.)) ;
#170=DIRECTION('Axis2P3D Direction',(1.94972186642E-019,3.99904980315E-039,1.)) ;
#179=DIRECTION('Axis2P3D Direction',(1.94972186642E-019,3.99904980315E-039,1.)) ;
#189=DIRECTION('Axis2P3D Direction',(1.94972186642E-019,3.99904980315E-039,1.)) ;
#190=DIRECTION('Axis2P3D XDirection',(-1.,1.22444169042E-016,1.94972186642E-019)) ;
#201=DIRECTION('Axis2P3D Direction',(1.94972186642E-019,3.99904980315E-039,1.)) ;
#202=DIRECTION('Axis2P3D XDirection',(-1.,1.22444169042E-016,1.94972186642E-019)) ;
#224=DIRECTION('Axis2P3D Direction',(1.94972186642E-019,1.38777878078E-017,1.)) ;
#225=DIRECTION('Axis2P3D XDirection',(1.,2.05054040305E-020,0.)) ;
#229=DIRECTION('Vector Direction',(-0.707106781187,9.63942843927E-017,0.707106781187)) ;
#236=DIRECTION('Axis2P3D Direction',(6.5574993425E-037,1.38777878078E-017,1.)) ;
#243=DIRECTION('Vector Direction',(0.707106781187,9.82745549163E-018,0.707106781187)) ;
#255=DIRECTION('Axis2P3D Direction',(1.94972186642E-019,3.99904980315E-039,1.)) ;
#256=DIRECTION('Axis2P3D XDirection',(1.,2.05108732278E-020,-1.94972186642E-019)) ;
#260=DIRECTION('Axis2P3D Direction',(1.94972186642E-019,3.99904980315E-039,1.)) ;
#269=DIRECTION('Vector Direction',(1.94977367585E-019,0.,1.)) ;
#274=DIRECTION('Vector Direction',(1.94999572045E-019,0.,1.)) ;
#286=DIRECTION('Axis2P3D Direction',(1.94972186642E-019,3.99904980315E-039,1.)) ;
#287=DIRECTION('Axis2P3D XDirection',(-1.,1.22444169042E-016,1.94972186642E-019)) ;
#291=DIRECTION('Axis2P3D Direction',(1.94972186642E-019,3.99904980315E-039,1.)) ;
#303=DIRECTION('Axis2P3D Direction',(1.94972186642E-019,1.38777878078E-017,1.)) ;
#304=DIRECTION('Axis2P3D XDirection',(-1.,1.22444173442E-016,0.)) ;
#308=DIRECTION('Axis2P3D Direction',(6.5574993425E-037,1.38777878078E-017,1.)) ;
#320=DIRECTION('Axis2P3D Direction',(1.94972186642E-019,3.99904980315E-039,1.)) ;
#321=DIRECTION('Axis2P3D XDirection',(1.,2.05108732278E-020,-1.94972186642E-019)) ;
#325=DIRECTION('Vector Direction',(1.94977367585E-019,0.,1.)) ;
#332=DIRECTION('Axis2P3D Direction',(1.94972186642E-019,3.99904980315E-039,1.)) ;
#339=DIRECTION('Vector Direction',(1.94955163124E-019,0.,1.)) ;
#351=DIRECTION('Axis2P3D Direction',(-1.94972186642E-019,-3.99904980315E-039,-1.)) ;
#352=DIRECTION('Axis2P3D XDirection',(-1.,-2.05108732278E-020,1.94972186642E-019)) ;
#409=DIRECTION('Axis2P3D Direction',(1.94972186642E-019,3.99904980315E-039,1.)) ;
#410=DIRECTION('Axis2P3D XDirection',(-1.,1.22444169042E-016,1.94972186642E-019)) ;
#414=DIRECTION('Axis2P3D Direction',(1.94972186642E-019,3.99904980315E-039,1.)) ;
#426=DIRECTION('Axis2P3D Direction',(1.94972186642E-019,3.99904980315E-039,1.)) ;
#427=DIRECTION('Axis2P3D XDirection',(1.,2.05108732278E-020,-1.94972186642E-019)) ;
#436=DIRECTION('Axis2P3D Direction',(1.94972186642E-019,3.99904980315E-039,1.)) ;
#437=DIRECTION('Axis2P3D XDirection',(1.,2.05108732278E-020,-1.94972186642E-019)) ;
#441=DIRECTION('Axis2P3D Direction',(1.94972186642E-019,3.99904980315E-039,1.)) ;
#450=DIRECTION('Vector Direction',(1.94977367585E-019,0.,1.)) ;
#455=DIRECTION('Vector Direction',(1.94977367585E-019,0.,1.)) ;
#467=DIRECTION('Axis2P3D Direction',(1.94972186642E-019,3.99904980315E-039,1.)) ;
#468=DIRECTION('Axis2P3D XDirection',(-1.,1.22444169042E-016,1.94972186642E-019)) ;
#472=DIRECTION('Axis2P3D Direction',(1.94972186642E-019,3.99904980315E-039,1.)) ;
#484=DIRECTION('Axis2P3D Direction',(1.94972186642E-019,1.38777878078E-017,1.)) ;
#485=DIRECTION('Axis2P3D XDirection',(1.,2.05169194742E-020,0.)) ;
#489=DIRECTION('Axis2P3D Direction',(6.5574993425E-037,1.38777878078E-017,1.)) ;
#498=DIRECTION('Vector Direction',(-0.5,7.32406746586E-017,0.866025403784)) ;
#503=DIRECTION('Vector Direction',(0.5,1.20288105342E-017,0.866025403784)) ;
#515=DIRECTION('Axis2P3D Direction',(1.94972186642E-019,1.38777878078E-017,1.)) ;
#516=DIRECTION('Axis2P3D XDirection',(-1.,1.22444176061E-016,0.)) ;
#520=DIRECTION('Axis2P3D Direction',(6.5574993425E-037,1.38777878078E-017,1.)) ;
#532=DIRECTION('Axis2P3D Direction',(-1.94972186642E-019,-3.99904980315E-039,-1.)) ;
#533=DIRECTION('Axis2P3D XDirection',(-1.,-2.05108732278E-020,1.94972186642E-019)) ;
#8=PRODUCT_RELATED_PRODUCT_CATEGORY('part',$,(#5)) ;
#7=PRODUCT_CATEGORY('part','specification') ;
#29=STYLED_ITEM(' ',(#28),#21) ;
#28=PRESENTATION_STYLE_ASSIGNMENT((#27)) ;
#27=SURFACE_STYLE_USAGE(.BOTH.,#26) ;
#26=SURFACE_SIDE_STYLE(' ',(#25)) ;
#25=SURFACE_STYLE_FILL_AREA(#24) ;
#24=FILL_AREA_STYLE(' ',(#23)) ;
#23=FILL_AREA_STYLE_COLOUR(' ',#22) ;
#47=VECTOR('Line Direction',#46,1.) ;
#61=VECTOR('Line Direction',#60,1.) ;
#87=VECTOR('Line Direction',#86,1.) ;
#92=VECTOR('Line Direction',#91,1.) ;
#131=VECTOR('Line Direction',#130,1.) ;
#145=VECTOR('Line Direction',#144,1.) ;
#230=VECTOR('Line Direction',#229,1.) ;
#244=VECTOR('Line Direction',#243,1.) ;
#270=VECTOR('Line Direction',#269,1.) ;
#275=VECTOR('Line Direction',#274,1.) ;
#326=VECTOR('Line Direction',#325,1.) ;
#340=VECTOR('Line Direction',#339,1.) ;
#451=VECTOR('Line Direction',#450,1.) ;
#456=VECTOR('Line Direction',#455,1.) ;
#499=VECTOR('Line Direction',#498,1.) ;
#504=VECTOR('Line Direction',#503,1.) ;
#15=UNCERTAINTY_MEASURE_WITH_UNIT(LENGTH_MEASURE(0.005),#12,'distance_accuracy_value','CONFUSED CURVE UNCERTAINTY') ;
#542=SHAPE_REPRESENTATION_RELATIONSHIP(' ',' ',#19,#541) ;
#65=ORIENTED_EDGE('',*,*,#44,.T.) ;
#66=ORIENTED_EDGE('',*,*,#51,.T.) ;
#67=ORIENTED_EDGE('',*,*,#58,.F.) ;
#68=ORIENTED_EDGE('',*,*,#63,.F.) ;
#96=ORIENTED_EDGE('',*,*,#84,.T.) ;
#97=ORIENTED_EDGE('',*,*,#89,.T.) ;
#98=ORIENTED_EDGE('',*,*,#44,.F.) ;
#99=ORIENTED_EDGE('',*,*,#94,.F.) ;
#118=ORIENTED_EDGE('',*,*,#51,.F.) ;
#119=ORIENTED_EDGE('',*,*,#111,.T.) ;
#120=ORIENTED_EDGE('',*,*,#63,.T.) ;
#121=ORIENTED_EDGE('',*,*,#116,.F.) ;
#149=ORIENTED_EDGE('',*,*,#58,.T.) ;
#150=ORIENTED_EDGE('',*,*,#135,.T.) ;
#151=ORIENTED_EDGE('',*,*,#142,.F.) ;
#152=ORIENTED_EDGE('',*,*,#147,.F.) ;
#175=ORIENTED_EDGE('',*,*,#168,.T.) ;
#176=ORIENTED_EDGE('',*,*,#173,.T.) ;
#184=ORIENTED_EDGE('',*,*,#84,.F.) ;
#185=ORIENTED_EDGE('',*,*,#182,.F.) ;
#194=ORIENTED_EDGE('',*,*,#89,.F.) ;
#195=ORIENTED_EDGE('',*,*,#182,.T.) ;
#196=ORIENTED_EDGE('',*,*,#94,.T.) ;
#197=ORIENTED_EDGE('',*,*,#111,.F.) ;
#217=ORIENTED_EDGE('',*,*,#135,.F.) ;
#218=ORIENTED_EDGE('',*,*,#116,.T.) ;
#219=ORIENTED_EDGE('',*,*,#147,.T.) ;
#220=ORIENTED_EDGE('',*,*,#215,.F.) ;
#248=ORIENTED_EDGE('',*,*,#142,.T.) ;
#249=ORIENTED_EDGE('',*,*,#234,.T.) ;
#250=ORIENTED_EDGE('',*,*,#241,.F.) ;
#251=ORIENTED_EDGE('',*,*,#246,.F.) ;
#279=ORIENTED_EDGE('',*,*,#267,.T.) ;
#280=ORIENTED_EDGE('',*,*,#272,.T.) ;
#281=ORIENTED_EDGE('',*,*,#168,.F.) ;
#282=ORIENTED_EDGE('',*,*,#277,.F.) ;
#296=ORIENTED_EDGE('',*,*,#272,.F.) ;
#297=ORIENTED_EDGE('',*,*,#294,.T.) ;
#298=ORIENTED_EDGE('',*,*,#277,.T.) ;
#299=ORIENTED_EDGE('',*,*,#173,.F.) ;
#313=ORIENTED_EDGE('',*,*,#234,.F.) ;
#314=ORIENTED_EDGE('',*,*,#215,.T.) ;
#315=ORIENTED_EDGE('',*,*,#246,.T.) ;
#316=ORIENTED_EDGE('',*,*,#311,.F.) ;
#344=ORIENTED_EDGE('',*,*,#241,.T.) ;
#345=ORIENTED_EDGE('',*,*,#330,.T.) ;
#346=ORIENTED_EDGE('',*,*,#337,.F.) ;
#347=ORIENTED_EDGE('',*,*,#342,.F.) ;
#356=ORIENTED_EDGE('',*,*,#267,.F.) ;
#357=ORIENTED_EDGE('',*,*,#294,.F.) ;
#404=ORIENTED_EDGE('',*,*,#382,.T.) ;
#405=ORIENTED_EDGE('',*,*,#402,.T.) ;
#419=ORIENTED_EDGE('',*,*,#330,.F.) ;
#420=ORIENTED_EDGE('',*,*,#311,.T.) ;
#421=ORIENTED_EDGE('',*,*,#342,.T.) ;
#422=ORIENTED_EDGE('',*,*,#417,.F.) ;
#431=ORIENTED_EDGE('',*,*,#337,.T.) ;
#432=ORIENTED_EDGE('',*,*,#417,.T.) ;
#460=ORIENTED_EDGE('',*,*,#448,.T.) ;
#461=ORIENTED_EDGE('',*,*,#453,.T.) ;
#462=ORIENTED_EDGE('',*,*,#382,.F.) ;
#463=ORIENTED_EDGE('',*,*,#458,.F.) ;
#477=ORIENTED_EDGE('',*,*,#453,.F.) ;
#478=ORIENTED_EDGE('',*,*,#475,.T.) ;
#479=ORIENTED_EDGE('',*,*,#458,.T.) ;
#480=ORIENTED_EDGE('',*,*,#402,.F.) ;
#508=ORIENTED_EDGE('',*,*,#496,.T.) ;
#509=ORIENTED_EDGE('',*,*,#501,.T.) ;
#510=ORIENTED_EDGE('',*,*,#448,.F.) ;
#511=ORIENTED_EDGE('',*,*,#506,.F.) ;
#525=ORIENTED_EDGE('',*,*,#501,.F.) ;
#526=ORIENTED_EDGE('',*,*,#523,.T.) ;
#527=ORIENTED_EDGE('',*,*,#506,.T.) ;
#528=ORIENTED_EDGE('',*,*,#475,.F.) ;
#537=ORIENTED_EDGE('',*,*,#496,.F.) ;
#538=ORIENTED_EDGE('',*,*,#523,.F.) ;
#186=FACE_BOUND('',#183,.T.) ;
#406=FACE_BOUND('',#403,.T.) ;
#30=CLOSED_SHELL('Closed Shell',(#70,#101,#123,#154,#187,#199,#222,#253,#284,#301,#318,#349,#407,#424,#434,#465,#482,#513,#530,#540)) ;
#541=ADVANCED_BREP_SHAPE_REPRESENTATION('NONE',(#21),#16) ;
#70=ADVANCED_FACE('Vereinigen1',(#69),#35,.T.) ;
#101=ADVANCED_FACE('Vereinigen1',(#100),#75,.T.) ;
#123=ADVANCED_FACE('Vereinigen1',(#122),#106,.T.) ;
#154=ADVANCED_FACE('Vereinigen1',(#153),#128,.T.) ;
#187=ADVANCED_FACE('Vereinigen1',(#177,#186),#159,.T.) ;
#199=ADVANCED_FACE('Vereinigen1',(#198),#192,.T.) ;
#222=ADVANCED_FACE('Vereinigen1',(#221),#204,.T.) ;
#253=ADVANCED_FACE('Vereinigen1',(#252),#227,.T.) ;
#284=ADVANCED_FACE('Vereinigen1',(#283),#258,.T.) ;
#301=ADVANCED_FACE('Vereinigen1',(#300),#289,.T.) ;
#318=ADVANCED_FACE('Vereinigen1',(#317),#306,.T.) ;
#349=ADVANCED_FACE('Vereinigen1',(#348),#323,.T.) ;
#407=ADVANCED_FACE('Vereinigen1',(#358,#406),#354,.T.) ;
#424=ADVANCED_FACE('Vereinigen1',(#423),#412,.T.) ;
#434=ADVANCED_FACE('Vereinigen1',(#433),#429,.T.) ;
#465=ADVANCED_FACE('Vereinigen1',(#464),#439,.T.) ;
#482=ADVANCED_FACE('Vereinigen1',(#481),#470,.T.) ;
#513=ADVANCED_FACE('Vereinigen1',(#512),#487,.T.) ;
#530=ADVANCED_FACE('Vereinigen1',(#529),#518,.T.) ;
#540=ADVANCED_FACE('Vereinigen1',(#539),#535,.T.) ;
#4=APPLICATION_PROTOCOL_DEFINITION('international standard','automotive_design',2001,#1) ;
#205=B_SPLINE_CURVE_WITH_KNOTS('',5,(#206,#207,#208,#209,#210,#211,#212,#213,#214),.UNSPECIFIED.,.F.,.U.,(6,3,6),(-1.57079632679,1.11022302463E-016,1.57079632679),.UNSPECIFIED.) ;
#359=B_SPLINE_CURVE_WITH_KNOTS('',5,(#360,#361,#362,#363,#364,#365,#366,#367,#368,#369,#370,#371,#372,#373,#374,#375,#376,#377),.UNSPECIFIED.,.F.,.U.,(6,3,3,3,3,6),(0.,0.486190687419,0.972381367883,1.45857204507,1.94476271118,2.1874266057),.UNSPECIFIED.) ;
#383=B_SPLINE_CURVE_WITH_KNOTS('',5,(#384,#385,#386,#387,#388,#389,#390,#391,#392,#393,#394,#395,#396,#397,#398,#399,#400,#401),.UNSPECIFIED.,.F.,.U.,(6,3,3,3,3,6),(0.,0.486190699222,0.972381385967,1.45857206435,1.9447627509,2.18742664566),.UNSPECIFIED.) ;
#21=MANIFOLD_SOLID_BREP('Vereinigen1',#30) ;
#39=CIRCLE('generated circle',#38,0.625) ;
#55=CIRCLE('generated circle',#54,1.) ;
#79=CIRCLE('generated circle',#78,0.625) ;
#110=CIRCLE('generated circle',#109,0.625) ;
#115=CIRCLE('generated circle',#114,1.) ;
#139=CIRCLE('generated circle',#138,1.) ;
#163=CIRCLE('generated circle',#162,1.01250000019) ;
#172=CIRCLE('generated circle',#171,1.01250000019) ;
#181=CIRCLE('generated circle',#180,0.625) ;
#238=CIRCLE('generated circle',#237,1.2) ;
#262=CIRCLE('generated circle',#261,1.0125) ;
#293=CIRCLE('generated circle',#292,1.0125) ;
#310=CIRCLE('generated circle',#309,1.2) ;
#334=CIRCLE('generated circle',#333,1.2) ;
#416=CIRCLE('generated circle',#415,1.2) ;
#443=CIRCLE('generated circle',#442,0.4925) ;
#474=CIRCLE('generated circle',#473,0.4925) ;
#491=CIRCLE('generated circle',#490,0.203824865405) ;
#522=CIRCLE('generated circle',#521,0.203824865405) ;
#22=COLOUR_RGB('Colour',0.827450980392,0.698039215686,0.490196078431) ;
#35=CONICAL_SURFACE('Cone',#34,1.,0.785398163397) ;
#106=CONICAL_SURFACE('Cone',#105,1.,0.785398163397) ;
#227=CONICAL_SURFACE('Cone',#226,1.2,0.785398163397) ;
#306=CONICAL_SURFACE('Cone',#305,1.2,0.785398163397) ;
#487=CONICAL_SURFACE('Cone',#486,0.4925,0.523598775598) ;
#518=CONICAL_SURFACE('Cone',#517,0.4925,0.523598775598) ;
#75=CYLINDRICAL_SURFACE('generated cylinder',#74,0.625) ;
#128=CYLINDRICAL_SURFACE('generated cylinder',#127,1.) ;
#192=CYLINDRICAL_SURFACE('generated cylinder',#191,0.625) ;
#204=CYLINDRICAL_SURFACE('generated cylinder',#203,1.) ;
#258=CYLINDRICAL_SURFACE('generated cylinder',#257,1.0125) ;
#289=CYLINDRICAL_SURFACE('generated cylinder',#288,1.0125) ;
#323=CYLINDRICAL_SURFACE('generated cylinder',#322,1.2) ;
#412=CYLINDRICAL_SURFACE('generated cylinder',#411,1.2) ;
#439=CYLINDRICAL_SURFACE('generated cylinder',#438,0.4925) ;
#470=CYLINDRICAL_SURFACE('generated cylinder',#469,0.4925) ;
#44=EDGE_CURVE('',#41,#43,#39,.T.) ;
#51=EDGE_CURVE('',#43,#50,#48,.T.) ;
#58=EDGE_CURVE('',#57,#50,#55,.T.) ;
#63=EDGE_CURVE('',#41,#57,#62,.T.) ;
#84=EDGE_CURVE('',#81,#83,#79,.T.) ;
#89=EDGE_CURVE('',#83,#43,#88,.T.) ;
#94=EDGE_CURVE('',#81,#41,#93,.T.) ;
#111=EDGE_CURVE('',#43,#41,#110,.T.) ;
#116=EDGE_CURVE('',#50,#57,#115,.T.) ;
#135=EDGE_CURVE('',#50,#134,#132,.T.) ;
#142=EDGE_CURVE('',#141,#134,#139,.T.) ;
#147=EDGE_CURVE('',#57,#141,#146,.T.) ;
#168=EDGE_CURVE('',#165,#167,#163,.T.) ;
#173=EDGE_CURVE('',#167,#165,#172,.T.) ;
#182=EDGE_CURVE('',#83,#81,#181,.T.) ;
#215=EDGE_CURVE('',#134,#141,#205,.T.) ;
#234=EDGE_CURVE('',#134,#233,#231,.T.) ;
#241=EDGE_CURVE('',#240,#233,#238,.T.) ;
#246=EDGE_CURVE('',#141,#240,#245,.T.) ;
#267=EDGE_CURVE('',#264,#266,#262,.T.) ;
#272=EDGE_CURVE('',#266,#167,#271,.T.) ;
#277=EDGE_CURVE('',#264,#165,#276,.T.) ;
#294=EDGE_CURVE('',#266,#264,#293,.T.) ;
#311=EDGE_CURVE('',#233,#240,#310,.T.) ;
#330=EDGE_CURVE('',#233,#329,#327,.T.) ;
#337=EDGE_CURVE('',#336,#329,#334,.T.) ;
#342=EDGE_CURVE('',#240,#336,#341,.T.) ;
#382=EDGE_CURVE('',#379,#381,#359,.T.) ;
#402=EDGE_CURVE('',#381,#379,#383,.T.) ;
#417=EDGE_CURVE('',#329,#336,#416,.T.) ;
#448=EDGE_CURVE('',#445,#447,#443,.T.) ;
#453=EDGE_CURVE('',#447,#381,#452,.T.) ;
#458=EDGE_CURVE('',#445,#379,#457,.T.) ;
#475=EDGE_CURVE('',#447,#445,#474,.T.) ;
#496=EDGE_CURVE('',#493,#495,#491,.T.) ;
#501=EDGE_CURVE('',#495,#447,#500,.T.) ;
#506=EDGE_CURVE('',#493,#445,#505,.T.) ;
#523=EDGE_CURVE('',#495,#493,#522,.T.) ;
#64=EDGE_LOOP('',(#65,#66,#67,#68)) ;
#95=EDGE_LOOP('',(#96,#97,#98,#99)) ;
#117=EDGE_LOOP('',(#118,#119,#120,#121)) ;
#148=EDGE_LOOP('',(#149,#150,#151,#152)) ;
#174=EDGE_LOOP('',(#175,#176)) ;
#183=EDGE_LOOP('',(#184,#185)) ;
#193=EDGE_LOOP('',(#194,#195,#196,#197)) ;
#216=EDGE_LOOP('',(#217,#218,#219,#220)) ;
#247=EDGE_LOOP('',(#248,#249,#250,#251)) ;
#278=EDGE_LOOP('',(#279,#280,#281,#282)) ;
#295=EDGE_LOOP('',(#296,#297,#298,#299)) ;
#312=EDGE_LOOP('',(#313,#314,#315,#316)) ;
#343=EDGE_LOOP('',(#344,#345,#346,#347)) ;
#355=EDGE_LOOP('',(#356,#357)) ;
#403=EDGE_LOOP('',(#404,#405)) ;
#418=EDGE_LOOP('',(#419,#420,#421,#422)) ;
#430=EDGE_LOOP('',(#431,#432)) ;
#459=EDGE_LOOP('',(#460,#461,#462,#463)) ;
#476=EDGE_LOOP('',(#477,#478,#479,#480)) ;
#507=EDGE_LOOP('',(#508,#509,#510,#511)) ;
#524=EDGE_LOOP('',(#525,#526,#527,#528)) ;
#536=EDGE_LOOP('',(#537,#538)) ;
#69=FACE_OUTER_BOUND('',#64,.T.) ;
#100=FACE_OUTER_BOUND('',#95,.T.) ;
#122=FACE_OUTER_BOUND('',#117,.T.) ;
#153=FACE_OUTER_BOUND('',#148,.T.) ;
#177=FACE_OUTER_BOUND('',#174,.T.) ;
#198=FACE_OUTER_BOUND('',#193,.T.) ;
#221=FACE_OUTER_BOUND('',#216,.T.) ;
#252=FACE_OUTER_BOUND('',#247,.T.) ;
#283=FACE_OUTER_BOUND('',#278,.T.) ;
#300=FACE_OUTER_BOUND('',#295,.T.) ;
#317=FACE_OUTER_BOUND('',#312,.T.) ;
#348=FACE_OUTER_BOUND('',#343,.T.) ;
#358=FACE_OUTER_BOUND('',#355,.T.) ;
#423=FACE_OUTER_BOUND('',#418,.T.) ;
#433=FACE_OUTER_BOUND('',#430,.T.) ;
#464=FACE_OUTER_BOUND('',#459,.T.) ;
#481=FACE_OUTER_BOUND('',#476,.T.) ;
#512=FACE_OUTER_BOUND('',#507,.T.) ;
#529=FACE_OUTER_BOUND('',#524,.T.) ;
#539=FACE_OUTER_BOUND('',#536,.T.) ;
#48=LINE('Line',#45,#47) ;
#62=LINE('Line',#59,#61) ;
#88=LINE('Line',#85,#87) ;
#93=LINE('Line',#90,#92) ;
#132=LINE('Line',#129,#131) ;
#146=LINE('Line',#143,#145) ;
#231=LINE('Line',#228,#230) ;
#245=LINE('Line',#242,#244) ;
#271=LINE('Line',#268,#270) ;
#276=LINE('Line',#273,#275) ;
#327=LINE('Line',#324,#326) ;
#341=LINE('Line',#338,#340) ;
#452=LINE('Line',#449,#451) ;
#457=LINE('Line',#454,#456) ;
#500=LINE('Line',#497,#499) ;
#505=LINE('Line',#502,#504) ;
#159=PLANE('',#158) ;
#354=PLANE('',#353) ;
#429=PLANE('',#428) ;
#535=PLANE('',#534) ;
#9=PRODUCT_CATEGORY_RELATIONSHIP(' ',' ',#7,#8) ;
#6=PRODUCT_DEFINITION_FORMATION_WITH_SPECIFIED_SOURCE('',' ',#5,.NOT_KNOWN.) ;
#20=SHAPE_DEFINITION_REPRESENTATION(#11,#19) ;
#41=VERTEX_POINT('',#40) ;
#43=VERTEX_POINT('',#42) ;
#50=VERTEX_POINT('',#49) ;
#57=VERTEX_POINT('',#56) ;
#81=VERTEX_POINT('',#80) ;
#83=VERTEX_POINT('',#82) ;
#134=VERTEX_POINT('',#133) ;
#141=VERTEX_POINT('',#140) ;
#165=VERTEX_POINT('',#164) ;
#167=VERTEX_POINT('',#166) ;
#233=VERTEX_POINT('',#232) ;
#240=VERTEX_POINT('',#239) ;
#264=VERTEX_POINT('',#263) ;
#266=VERTEX_POINT('',#265) ;
#329=VERTEX_POINT('',#328) ;
#336=VERTEX_POINT('',#335) ;
#379=VERTEX_POINT('',#378) ;
#381=VERTEX_POINT('',#380) ;
#445=VERTEX_POINT('',#444) ;
#447=VERTEX_POINT('',#446) ;
#493=VERTEX_POINT('',#492) ;
#495=VERTEX_POINT('',#494) ;
#12=(LENGTH_UNIT()NAMED_UNIT(*)SI_UNIT(.MILLI.,.METRE.)) ;
#13=(NAMED_UNIT(*)PLANE_ANGLE_UNIT()SI_UNIT($,.RADIAN.)) ;
#14=(NAMED_UNIT(*)SI_UNIT($,.STERADIAN.)SOLID_ANGLE_UNIT()) ;
#16=(GEOMETRIC_REPRESENTATION_CONTEXT(3)GLOBAL_UNCERTAINTY_ASSIGNED_CONTEXT((#15))GLOBAL_UNIT_ASSIGNED_CONTEXT((#12,#13,#14))REPRESENTATION_CONTEXT(' ',' ')) ;
ENDSEC;
END-ISO-10303-21;
