ISO-10303-21;
HEADER;
FILE_DESCRIPTION(('CATIA V5 STEP','CAx-IF Rec.Pracs.--- Model Styling and Organization---1.4--- 2014-01-23'),'2;1');

FILE_NAME ('008428-8_0', '2024-02-16T11:26:26+00:00', ('none'), ('Weidmueller'), 'CATIA Version 5-6 Release 2016 SP3 HF44', 'CATIA V5 STEP AP214', 'none');

FILE_SCHEMA(('AUTOMOTIVE_DESIGN { 1 0 10303 214 1 1 1 1 }'));

ENDSEC;
DATA;
#5=PRODUCT('61803_THM_VIN_101X74_GE-G','','GERAETEMARKIERER',(#2)) ;
#2=PRODUCT_CONTEXT(' ',#1,'mechanical') ;
#1=APPLICATION_CONTEXT('automotive design') ;
#10=PRODUCT_DEFINITION('',' ',#6,#3) ;
#3=PRODUCT_DEFINITION_CONTEXT('part definition',#1,' ') ;
#11=PRODUCT_DEFINITION_SHAPE(' ',' ',#10) ;
#182=MECHANICAL_DESIGN_GEOMETRIC_PRESENTATION_REPRESENTATION(' ',(#29),#16) ;
#19=SHAPE_REPRESENTATION(' ',(#18),#16) ;
#18=AXIS2_PLACEMENT_3D(' ',#17,$,$) ;
#35=AXIS2_PLACEMENT_3D('Plane Axis2P3D',#32,#33,#34) ;
#75=AXIS2_PLACEMENT_3D('Plane Axis2P3D',#72,#73,#74) ;
#106=AXIS2_PLACEMENT_3D('Plane Axis2P3D',#103,#104,#105) ;
#137=AXIS2_PLACEMENT_3D('Plane Axis2P3D',#134,#135,#136) ;
#159=AXIS2_PLACEMENT_3D('Plane Axis2P3D',#156,#157,#158) ;
#171=AXIS2_PLACEMENT_3D('Plane Axis2P3D',#168,#169,#170) ;
#17=CARTESIAN_POINT(' ',(0.,0.,0.)) ;
#32=CARTESIAN_POINT('Axis2P3D Location',(-1.42108547152E-014,74.,0.)) ;
#37=CARTESIAN_POINT('Line Origine',(-1.42108547152E-014,74.,0.038)) ;
#41=CARTESIAN_POINT('Vertex',(-1.42108547152E-014,74.,0.)) ;
#43=CARTESIAN_POINT('Vertex',(-1.42108547152E-014,74.,0.076)) ;
#46=CARTESIAN_POINT('Line Origine',(-1.42108547152E-014,37.,0.)) ;
#50=CARTESIAN_POINT('Vertex',(-1.42108547152E-014,0.,0.)) ;
#53=CARTESIAN_POINT('Line Origine',(-1.42108547152E-014,0.,0.038)) ;
#57=CARTESIAN_POINT('Vertex',(-1.42108547152E-014,0.,0.076)) ;
#60=CARTESIAN_POINT('Line Origine',(-1.42108547152E-014,37.,0.076)) ;
#72=CARTESIAN_POINT('Axis2P3D Location',(101.6,0.,0.)) ;
#77=CARTESIAN_POINT('Line Origine',(50.8,0.,0.)) ;
#81=CARTESIAN_POINT('Vertex',(101.6,0.,0.)) ;
#84=CARTESIAN_POINT('Line Origine',(101.6,0.,0.038)) ;
#88=CARTESIAN_POINT('Vertex',(101.6,0.,0.076)) ;
#91=CARTESIAN_POINT('Line Origine',(50.8,0.,0.076)) ;
#103=CARTESIAN_POINT('Axis2P3D Location',(101.6,0.,0.)) ;
#108=CARTESIAN_POINT('Line Origine',(101.6,37.,0.)) ;
#112=CARTESIAN_POINT('Vertex',(101.6,74.,0.)) ;
#115=CARTESIAN_POINT('Line Origine',(101.6,74.,0.038)) ;
#119=CARTESIAN_POINT('Vertex',(101.6,74.,0.076)) ;
#122=CARTESIAN_POINT('Line Origine',(101.6,37.,0.076)) ;
#134=CARTESIAN_POINT('Axis2P3D Location',(-1.42108547152E-014,74.,0.)) ;
#139=CARTESIAN_POINT('Line Origine',(50.8,74.,0.)) ;
#144=CARTESIAN_POINT('Line Origine',(50.8,74.,0.076)) ;
#156=CARTESIAN_POINT('Axis2P3D Location',(50.8,37.,0.)) ;
#168=CARTESIAN_POINT('Axis2P3D Location',(50.8,37.,0.076)) ;
#33=DIRECTION('Axis2P3D Direction',(-1.,0.,0.)) ;
#34=DIRECTION('Axis2P3D XDirection',(0.,-1.,0.)) ;
#38=DIRECTION('Vector Direction',(0.,0.,1.)) ;
#47=DIRECTION('Vector Direction',(0.,-1.,0.)) ;
#54=DIRECTION('Vector Direction',(0.,0.,1.)) ;
#61=DIRECTION('Vector Direction',(0.,-1.,0.)) ;
#73=DIRECTION('Axis2P3D Direction',(0.,1.,-0.)) ;
#74=DIRECTION('Axis2P3D XDirection',(-1.,0.,0.)) ;
#78=DIRECTION('Vector Direction',(-1.,0.,0.)) ;
#85=DIRECTION('Vector Direction',(0.,0.,1.)) ;
#92=DIRECTION('Vector Direction',(-1.,0.,0.)) ;
#104=DIRECTION('Axis2P3D Direction',(1.,0.,0.)) ;
#105=DIRECTION('Axis2P3D XDirection',(0.,1.,0.)) ;
#109=DIRECTION('Vector Direction',(0.,1.,0.)) ;
#116=DIRECTION('Vector Direction',(0.,0.,1.)) ;
#123=DIRECTION('Vector Direction',(0.,1.,0.)) ;
#135=DIRECTION('Axis2P3D Direction',(0.,-1.,0.)) ;
#136=DIRECTION('Axis2P3D XDirection',(1.,0.,0.)) ;
#140=DIRECTION('Vector Direction',(1.,0.,0.)) ;
#145=DIRECTION('Vector Direction',(1.,0.,0.)) ;
#157=DIRECTION('Axis2P3D Direction',(0.,0.,1.)) ;
#158=DIRECTION('Axis2P3D XDirection',(1.,0.,0.)) ;
#169=DIRECTION('Axis2P3D Direction',(0.,0.,1.)) ;
#170=DIRECTION('Axis2P3D XDirection',(1.,0.,0.)) ;
#30=PRESENTATION_LAYER_ASSIGNMENT('1',' ',(#21)) ;
#8=PRODUCT_RELATED_PRODUCT_CATEGORY('part',$,(#5)) ;
#7=PRODUCT_CATEGORY('part','specification') ;
#29=STYLED_ITEM(' ',(#28),#21) ;
#28=PRESENTATION_STYLE_ASSIGNMENT((#27)) ;
#27=SURFACE_STYLE_USAGE(.BOTH.,#26) ;
#26=SURFACE_SIDE_STYLE(' ',(#25)) ;
#25=SURFACE_STYLE_FILL_AREA(#24) ;
#24=FILL_AREA_STYLE(' ',(#23)) ;
#23=FILL_AREA_STYLE_COLOUR(' ',#22) ;
#39=VECTOR('Line Direction',#38,1.) ;
#48=VECTOR('Line Direction',#47,1.) ;
#55=VECTOR('Line Direction',#54,1.) ;
#62=VECTOR('Line Direction',#61,1.) ;
#79=VECTOR('Line Direction',#78,1.) ;
#86=VECTOR('Line Direction',#85,1.) ;
#93=VECTOR('Line Direction',#92,1.) ;
#110=VECTOR('Line Direction',#109,1.) ;
#117=VECTOR('Line Direction',#116,1.) ;
#124=VECTOR('Line Direction',#123,1.) ;
#141=VECTOR('Line Direction',#140,1.) ;
#146=VECTOR('Line Direction',#145,1.) ;
#15=UNCERTAINTY_MEASURE_WITH_UNIT(LENGTH_MEASURE(0.005),#12,'distance_accuracy_value','CONFUSED CURVE UNCERTAINTY') ;
#181=SHAPE_REPRESENTATION_RELATIONSHIP(' ',' ',#19,#180) ;
#66=ORIENTED_EDGE('',*,*,#45,.F.) ;
#67=ORIENTED_EDGE('',*,*,#52,.T.) ;
#68=ORIENTED_EDGE('',*,*,#59,.T.) ;
#69=ORIENTED_EDGE('',*,*,#64,.F.) ;
#97=ORIENTED_EDGE('',*,*,#59,.F.) ;
#98=ORIENTED_EDGE('',*,*,#83,.T.) ;
#99=ORIENTED_EDGE('',*,*,#90,.T.) ;
#100=ORIENTED_EDGE('',*,*,#95,.F.) ;
#128=ORIENTED_EDGE('',*,*,#90,.F.) ;
#129=ORIENTED_EDGE('',*,*,#114,.T.) ;
#130=ORIENTED_EDGE('',*,*,#121,.T.) ;
#131=ORIENTED_EDGE('',*,*,#126,.F.) ;
#150=ORIENTED_EDGE('',*,*,#121,.F.) ;
#151=ORIENTED_EDGE('',*,*,#143,.T.) ;
#152=ORIENTED_EDGE('',*,*,#45,.T.) ;
#153=ORIENTED_EDGE('',*,*,#148,.F.) ;
#162=ORIENTED_EDGE('',*,*,#143,.F.) ;
#163=ORIENTED_EDGE('',*,*,#114,.F.) ;
#164=ORIENTED_EDGE('',*,*,#83,.F.) ;
#165=ORIENTED_EDGE('',*,*,#52,.F.) ;
#174=ORIENTED_EDGE('',*,*,#64,.T.) ;
#175=ORIENTED_EDGE('',*,*,#95,.T.) ;
#176=ORIENTED_EDGE('',*,*,#126,.T.) ;
#177=ORIENTED_EDGE('',*,*,#148,.T.) ;
#31=CLOSED_SHELL('Closed Shell',(#71,#102,#133,#155,#167,#179)) ;
#180=ADVANCED_BREP_SHAPE_REPRESENTATION('NONE',(#21),#16) ;
#71=ADVANCED_FACE('S3D positioniert',(#70),#36,.T.) ;
#102=ADVANCED_FACE('S3D positioniert',(#101),#76,.F.) ;
#133=ADVANCED_FACE('S3D positioniert',(#132),#107,.T.) ;
#155=ADVANCED_FACE('S3D positioniert',(#154),#138,.F.) ;
#167=ADVANCED_FACE('S3D positioniert',(#166),#160,.F.) ;
#179=ADVANCED_FACE('S3D positioniert',(#178),#172,.T.) ;
#4=APPLICATION_PROTOCOL_DEFINITION('international standard','automotive_design',2001,#1) ;
#21=MANIFOLD_SOLID_BREP('S3D positioniert',#31) ;
#22=DRAUGHTING_PRE_DEFINED_COLOUR('yellow') ;
#45=EDGE_CURVE('',#42,#44,#40,.T.) ;
#52=EDGE_CURVE('',#42,#51,#49,.T.) ;
#59=EDGE_CURVE('',#51,#58,#56,.T.) ;
#64=EDGE_CURVE('',#44,#58,#63,.T.) ;
#83=EDGE_CURVE('',#51,#82,#80,.F.) ;
#90=EDGE_CURVE('',#82,#89,#87,.T.) ;
#95=EDGE_CURVE('',#58,#89,#94,.F.) ;
#114=EDGE_CURVE('',#82,#113,#111,.T.) ;
#121=EDGE_CURVE('',#113,#120,#118,.T.) ;
#126=EDGE_CURVE('',#89,#120,#125,.T.) ;
#143=EDGE_CURVE('',#113,#42,#142,.F.) ;
#148=EDGE_CURVE('',#120,#44,#147,.F.) ;
#65=EDGE_LOOP('',(#66,#67,#68,#69)) ;
#96=EDGE_LOOP('',(#97,#98,#99,#100)) ;
#127=EDGE_LOOP('',(#128,#129,#130,#131)) ;
#149=EDGE_LOOP('',(#150,#151,#152,#153)) ;
#161=EDGE_LOOP('',(#162,#163,#164,#165)) ;
#173=EDGE_LOOP('',(#174,#175,#176,#177)) ;
#70=FACE_OUTER_BOUND('',#65,.T.) ;
#101=FACE_OUTER_BOUND('',#96,.T.) ;
#132=FACE_OUTER_BOUND('',#127,.T.) ;
#154=FACE_OUTER_BOUND('',#149,.T.) ;
#166=FACE_OUTER_BOUND('',#161,.T.) ;
#178=FACE_OUTER_BOUND('',#173,.T.) ;
#40=LINE('Line',#37,#39) ;
#49=LINE('Line',#46,#48) ;
#56=LINE('Line',#53,#55) ;
#63=LINE('Line',#60,#62) ;
#80=LINE('Line',#77,#79) ;
#87=LINE('Line',#84,#86) ;
#94=LINE('Line',#91,#93) ;
#111=LINE('Line',#108,#110) ;
#118=LINE('Line',#115,#117) ;
#125=LINE('Line',#122,#124) ;
#142=LINE('Line',#139,#141) ;
#147=LINE('Line',#144,#146) ;
#36=PLANE('',#35) ;
#76=PLANE('',#75) ;
#107=PLANE('',#106) ;
#138=PLANE('',#137) ;
#160=PLANE('',#159) ;
#172=PLANE('',#171) ;
#9=PRODUCT_CATEGORY_RELATIONSHIP(' ',' ',#7,#8) ;
#6=PRODUCT_DEFINITION_FORMATION_WITH_SPECIFIED_SOURCE('',' ',#5,.NOT_KNOWN.) ;
#20=SHAPE_DEFINITION_REPRESENTATION(#11,#19) ;
#42=VERTEX_POINT('',#41) ;
#44=VERTEX_POINT('',#43) ;
#51=VERTEX_POINT('',#50) ;
#58=VERTEX_POINT('',#57) ;
#82=VERTEX_POINT('',#81) ;
#89=VERTEX_POINT('',#88) ;
#113=VERTEX_POINT('',#112) ;
#120=VERTEX_POINT('',#119) ;
#12=(LENGTH_UNIT()NAMED_UNIT(*)SI_UNIT(.MILLI.,.METRE.)) ;
#13=(NAMED_UNIT(*)PLANE_ANGLE_UNIT()SI_UNIT($,.RADIAN.)) ;
#14=(NAMED_UNIT(*)SI_UNIT($,.STERADIAN.)SOLID_ANGLE_UNIT()) ;
#16=(GEOMETRIC_REPRESENTATION_CONTEXT(3)GLOBAL_UNCERTAINTY_ASSIGNED_CONTEXT((#15))GLOBAL_UNIT_ASSIGNED_CONTEXT((#12,#13,#14))REPRESENTATION_CONTEXT(' ',' ')) ;
ENDSEC;
END-ISO-10303-21;
