ISO-10303-21;
HEADER;
FILE_DESCRIPTION(('CATIA V5R19 STEP'),'2;1');

FILE_NAME ('D1451291_0_1346140000_1346140000.stp','2014-12-01T12:08:06+00:00',('none'),('Weidmueller'),'CATIA Version 5 Release 20 SP 5 (IN-10)','CATIA V5 STEP AP214','none');

FILE_SCHEMA(('AUTOMOTIVE_DESIGN { 1 0 10303 214 1 1 1 1 }'));

ENDSEC;
/* file written by CATIA V5R20 */
DATA;
#5=PRODUCT('WS 8/5 PLUS','','EINZELMARKIERER WS 8/5 PLUS\X2\000A\X0\<Q-CHECKER_SEAL> Q-Checker Version 2.14.8  \X2\000A\X0\CATIA-Version         : Catia V5 R20 SP5 Build Date 01-06-2014.17.15\X2\000A\X0\Model size (in KByte) : 0\X2\000A\X0\Checking date         : 2014-11-28 11:36:37\X2\000A\X0\Checking profile      : ADMIN / Release_2D-3D [CATPart]\X2\000A\X0\Model assessment      : In Ordnung (IO)\X2\000A\X0\Total weight sum      : 0\X2\000A\X0\<CROSS_CHECK_SUM>\X2\000A\X0\  <CHKSUM_DATE> 504386400 </CHKSUM_DATE>\X2\000A\X0\  <CHKSUM_ENTITIES> -961988916 </CHKSUM_ENTITIES>\X2\000A\X0\  <CHKSUM_PROFILE> 1594213346 </CHKSUM_PROFILE>\X2\000A\X0\  <CHKSUM_DIMENSION> -186917087 </CHKSUM_DIMENSION>\X2\000A\X0\  <CHKSUM_PROJINTERSEC> -896974048 </CHKSUM_PROJINTERSEC>\X2\000A\X0\  <CHKSUM_IDENTCRV> -896974048 </CHKSUM_IDENTCRV>\X2\000A\X0\  <CHKSUM_INFINITY> 138018827 </CHKSUM_INFINITY>\X2\000A\X0\</CROSS_CHECK_SUM>\X2\000A\X0\</Q-CHECKER_SEAL> \X2\000A\X0\',(#2)) ;
#2=PRODUCT_CONTEXT(' ',#1,'mechanical') ;
#1=APPLICATION_CONTEXT('automotive design') ;
#10=PRODUCT_DEFINITION('',' ',#6,#3) ;
#3=PRODUCT_DEFINITION_CONTEXT('part definition',#1,' ') ;
#11=PRODUCT_DEFINITION_SHAPE(' ',' ',#10) ;
#574=MECHANICAL_DESIGN_GEOMETRIC_PRESENTATION_REPRESENTATION(' ',(#30),#17) ;
#20=SHAPE_REPRESENTATION(' ',(#19),#17) ;
#19=AXIS2_PLACEMENT_3D(' ',#18,$,$) ;
#36=AXIS2_PLACEMENT_3D('Plane Axis2P3D',#33,#34,#35) ;
#76=AXIS2_PLACEMENT_3D('Plane Axis2P3D',#73,#74,#75) ;
#107=AXIS2_PLACEMENT_3D('Plane Axis2P3D',#104,#105,#106) ;
#195=AXIS2_PLACEMENT_3D('Plane Axis2P3D',#192,#193,#194) ;
#219=AXIS2_PLACEMENT_3D('Plane Axis2P3D',#216,#217,#218) ;
#300=AXIS2_PLACEMENT_3D('Plane Axis2P3D',#297,#298,#299) ;
#334=AXIS2_PLACEMENT_3D('Plane Axis2P3D',#331,#332,#333) ;
#351=AXIS2_PLACEMENT_3D('Plane Axis2P3D',#348,#349,#350) ;
#402=AXIS2_PLACEMENT_3D('Plane Axis2P3D',#399,#400,#401) ;
#431=AXIS2_PLACEMENT_3D('Plane Axis2P3D',#428,#429,#430) ;
#455=AXIS2_PLACEMENT_3D('Plane Axis2P3D',#452,#453,#454) ;
#467=AXIS2_PLACEMENT_3D('Plane Axis2P3D',#464,#465,#466) ;
#498=AXIS2_PLACEMENT_3D('Plane Axis2P3D',#495,#496,#497) ;
#522=AXIS2_PLACEMENT_3D('Plane Axis2P3D',#519,#520,#521) ;
#546=AXIS2_PLACEMENT_3D('Plane Axis2P3D',#543,#544,#545) ;
#563=AXIS2_PLACEMENT_3D('Plane Axis2P3D',#560,#561,#562) ;
#18=CARTESIAN_POINT(' ',(0.,0.,0.)) ;
#33=CARTESIAN_POINT('Axis2P3D Location',(2.5375,2.7,1.785)) ;
#38=CARTESIAN_POINT('Line Origine',(2.5375,2.7,1.785)) ;
#42=CARTESIAN_POINT('Vertex',(4.46250000075,2.7,1.785)) ;
#44=CARTESIAN_POINT('Vertex',(0.612499999255,2.7,1.785)) ;
#47=CARTESIAN_POINT('Line Origine',(4.46250000075,2.50213751368,0.892500000393)) ;
#51=CARTESIAN_POINT('Vertex',(4.46250000075,2.30427502736,7.86291476373E-010)) ;
#54=CARTESIAN_POINT('Line Origine',(2.5375,2.30427502736,7.86291476373E-010)) ;
#58=CARTESIAN_POINT('Vertex',(0.612499999255,2.30427502736,7.86291476373E-010)) ;
#61=CARTESIAN_POINT('Line Origine',(0.612499999255,2.50213751368,0.892500000393)) ;
#73=CARTESIAN_POINT('Axis2P3D Location',(2.5375,3.9,1.785)) ;
#78=CARTESIAN_POINT('Line Origine',(0.612499999255,3.9,1.785)) ;
#82=CARTESIAN_POINT('Vertex',(0.612499999255,5.1,1.785)) ;
#85=CARTESIAN_POINT('Line Origine',(2.5375,5.09999999925,1.785)) ;
#89=CARTESIAN_POINT('Vertex',(4.46250000075,5.1,1.785)) ;
#92=CARTESIAN_POINT('Line Origine',(4.46250000075,3.9,1.785)) ;
#104=CARTESIAN_POINT('Axis2P3D Location',(4.4625,6.9,2.335)) ;
#109=CARTESIAN_POINT('Line Origine',(4.4625,6.50749999993,1.78499999925)) ;
#113=CARTESIAN_POINT('Vertex',(4.4625,6.9,1.78499999925)) ;
#115=CARTESIAN_POINT('Vertex',(4.46250000075,6.115,1.785)) ;
#118=CARTESIAN_POINT('Line Origine',(4.4625,6.9,2.05999999963)) ;
#122=CARTESIAN_POINT('Vertex',(4.46250000075,6.9,2.335)) ;
#125=CARTESIAN_POINT('Line Origine',(4.4625,3.9,2.335)) ;
#129=CARTESIAN_POINT('Vertex',(4.46249999963,0.9,2.335)) ;
#132=CARTESIAN_POINT('Line Origine',(4.4625,0.9,2.05999999963)) ;
#136=CARTESIAN_POINT('Vertex',(4.46249999963,0.9,1.78499999925)) ;
#139=CARTESIAN_POINT('Line Origine',(4.4625,1.29250000007,1.78499999925)) ;
#143=CARTESIAN_POINT('Vertex',(4.46250000075,1.685,1.785)) ;
#146=CARTESIAN_POINT('Line Origine',(4.4625,1.68500000015,0.89249999918)) ;
#150=CARTESIAN_POINT('Vertex',(4.46250000075,1.685,-4.97026380522E-032)) ;
#153=CARTESIAN_POINT('Line Origine',(4.4625,1.99463751409,-8.94069707158E-010)) ;
#158=CARTESIAN_POINT('Line Origine',(4.4625,5.29786248561,0.89249999918)) ;
#162=CARTESIAN_POINT('Vertex',(4.46250000075,5.49572497368,-4.97026380522E-032)) ;
#165=CARTESIAN_POINT('Line Origine',(4.4625,5.80536248591,-8.94069707158E-010)) ;
#169=CARTESIAN_POINT('Vertex',(4.46250000075,6.115,-1.49011691875E-010)) ;
#172=CARTESIAN_POINT('Line Origine',(4.4625,6.11499999985,0.89249999918)) ;
#192=CARTESIAN_POINT('Axis2P3D Location',(2.5375,1.685,0.)) ;
#197=CARTESIAN_POINT('Line Origine',(2.5375,1.685,0.)) ;
#201=CARTESIAN_POINT('Vertex',(0.612499999255,1.685,4.97026380522E-032)) ;
#204=CARTESIAN_POINT('Line Origine',(0.612499999255,1.99463751394,4.97026380522E-032)) ;
#216=CARTESIAN_POINT('Axis2P3D Location',(0.6125,0.9,2.335)) ;
#221=CARTESIAN_POINT('Line Origine',(0.6125,6.11499999985,0.89249999918)) ;
#225=CARTESIAN_POINT('Vertex',(0.612499999255,6.115,-1.49011691875E-010)) ;
#227=CARTESIAN_POINT('Vertex',(0.612499999255,6.115,1.785)) ;
#230=CARTESIAN_POINT('Line Origine',(0.6125,5.80536248591,-8.94069707158E-010)) ;
#234=CARTESIAN_POINT('Vertex',(0.612499999255,5.49572497368,4.97026380522E-032)) ;
#237=CARTESIAN_POINT('Line Origine',(0.6125,5.29786248561,0.89249999918)) ;
#242=CARTESIAN_POINT('Line Origine',(0.6125,1.68500000015,0.89249999918)) ;
#246=CARTESIAN_POINT('Vertex',(0.612499999255,1.685,1.785)) ;
#249=CARTESIAN_POINT('Line Origine',(0.6125,1.29250000007,1.78499999925)) ;
#253=CARTESIAN_POINT('Vertex',(0.6125,0.9,1.78499999925)) ;
#256=CARTESIAN_POINT('Line Origine',(0.6125,0.9,2.05999999963)) ;
#260=CARTESIAN_POINT('Vertex',(0.6125,0.9,2.335)) ;
#263=CARTESIAN_POINT('Line Origine',(0.6125,3.9,2.335)) ;
#267=CARTESIAN_POINT('Vertex',(0.612499999255,6.9,2.335)) ;
#270=CARTESIAN_POINT('Line Origine',(0.6125,6.9,2.05999999963)) ;
#274=CARTESIAN_POINT('Vertex',(0.612500000373,6.9,1.78499999925)) ;
#277=CARTESIAN_POINT('Line Origine',(0.6125,6.50749999993,1.78499999925)) ;
#297=CARTESIAN_POINT('Axis2P3D Location',(2.5375,5.1,1.785)) ;
#302=CARTESIAN_POINT('Line Origine',(2.5375,5.49572497264,7.86291476373E-010)) ;
#314=CARTESIAN_POINT('Line Origine',(2.5375,6.9,1.785)) ;
#319=CARTESIAN_POINT('Line Origine',(2.5375,6.11499999985,1.785)) ;
#331=CARTESIAN_POINT('Axis2P3D Location',(4.4625,6.9,2.335)) ;
#336=CARTESIAN_POINT('Line Origine',(2.53750000019,6.9,2.335)) ;
#348=CARTESIAN_POINT('Axis2P3D Location',(2.5375,3.9,2.335)) ;
#353=CARTESIAN_POINT('Line Origine',(2.5375,7.80000000037,2.335)) ;
#357=CARTESIAN_POINT('Vertex',(4.96250000075,7.80000000037,2.335)) ;
#359=CARTESIAN_POINT('Vertex',(0.112499999255,7.80000000037,2.335)) ;
#362=CARTESIAN_POINT('Line Origine',(4.96250000075,3.9,2.335)) ;
#366=CARTESIAN_POINT('Vertex',(4.96250000075,-3.72529118664E-010,2.335)) ;
#369=CARTESIAN_POINT('Line Origine',(2.5375,-3.72529118664E-010,2.335)) ;
#373=CARTESIAN_POINT('Vertex',(0.112499999255,-3.72529118664E-010,2.335)) ;
#376=CARTESIAN_POINT('Line Origine',(0.112499999255,3.9,2.335)) ;
#387=CARTESIAN_POINT('Line Origine',(2.5375,0.9,2.335)) ;
#399=CARTESIAN_POINT('Axis2P3D Location',(0.6125,0.9,2.335)) ;
#404=CARTESIAN_POINT('Line Origine',(2.53749999981,0.9,1.78499999925)) ;
#416=CARTESIAN_POINT('Line Origine',(2.5375,1.68500000015,1.785)) ;
#428=CARTESIAN_POINT('Axis2P3D Location',(2.5375,1.685,1.785)) ;
#440=CARTESIAN_POINT('Line Origine',(2.5375,6.1149999997,0.)) ;
#452=CARTESIAN_POINT('Axis2P3D Location',(2.5375,6.115,1.785)) ;
#464=CARTESIAN_POINT('Axis2P3D Location',(0.1125,7.8,2.335)) ;
#469=CARTESIAN_POINT('Line Origine',(4.96249999963,7.8,2.73500000037)) ;
#473=CARTESIAN_POINT('Vertex',(4.9625,7.80000000075,3.13500000075)) ;
#476=CARTESIAN_POINT('Line Origine',(0.1125,7.8,2.73500000037)) ;
#480=CARTESIAN_POINT('Vertex',(0.1125,7.8,3.13500000075)) ;
#483=CARTESIAN_POINT('Line Origine',(2.53749999981,7.8,3.13500000075)) ;
#495=CARTESIAN_POINT('Axis2P3D Location',(4.9625,-1.33226762955E-015,2.335)) ;
#500=CARTESIAN_POINT('Line Origine',(4.9625,-1.33226762955E-015,2.73500000037)) ;
#504=CARTESIAN_POINT('Vertex',(4.9625,-4.4408920985E-016,3.13500000075)) ;
#507=CARTESIAN_POINT('Line Origine',(4.9625,3.90000000037,3.13500000075)) ;
#519=CARTESIAN_POINT('Axis2P3D Location',(4.9625,-4.4408920985E-016,2.335)) ;
#524=CARTESIAN_POINT('Line Origine',(0.112500000373,-4.4408920985E-016,2.73500000037)) ;
#528=CARTESIAN_POINT('Vertex',(0.1125,-7.45058237328E-010,3.13500000075)) ;
#531=CARTESIAN_POINT('Line Origine',(2.53750000019,-4.4408920985E-016,3.13500000075)) ;
#543=CARTESIAN_POINT('Axis2P3D Location',(0.1125,7.8,2.335)) ;
#548=CARTESIAN_POINT('Line Origine',(0.1125,3.89999999963,3.13500000075)) ;
#560=CARTESIAN_POINT('Axis2P3D Location',(2.5375,3.9,3.135)) ;
#34=DIRECTION('Axis2P3D Direction',(1.79342667021E-016,0.97629600712,-0.216439613938)) ;
#35=DIRECTION('Axis2P3D XDirection',(-3.97593120627E-017,-0.216439613938,-0.97629600712)) ;
#39=DIRECTION('Vector Direction',(-1.,2.30695693339E-016,0.)) ;
#48=DIRECTION('Vector Direction',(0.,-0.216439613938,-0.97629600712)) ;
#55=DIRECTION('Vector Direction',(-1.,2.30695693339E-016,0.)) ;
#62=DIRECTION('Vector Direction',(0.,-0.216439613938,-0.97629600712)) ;
#74=DIRECTION('Axis2P3D Direction',(0.,0.,-1.)) ;
#75=DIRECTION('Axis2P3D XDirection',(1.,0.,0.)) ;
#79=DIRECTION('Vector Direction',(0.,1.,0.)) ;
#86=DIRECTION('Vector Direction',(-1.,0.,0.)) ;
#93=DIRECTION('Vector Direction',(0.,-1.,0.)) ;
#105=DIRECTION('Axis2P3D Direction',(1.,0.,0.)) ;
#106=DIRECTION('Axis2P3D XDirection',(0.,-1.,0.)) ;
#110=DIRECTION('Vector Direction',(0.,-1.,0.)) ;
#119=DIRECTION('Vector Direction',(0.,0.,-1.)) ;
#126=DIRECTION('Vector Direction',(0.,-1.,0.)) ;
#133=DIRECTION('Vector Direction',(0.,0.,-1.)) ;
#140=DIRECTION('Vector Direction',(0.,-1.,0.)) ;
#147=DIRECTION('Vector Direction',(0.,0.,-1.)) ;
#154=DIRECTION('Vector Direction',(0.,1.,0.)) ;
#159=DIRECTION('Vector Direction',(0.,0.216439613865,-0.976296007136)) ;
#166=DIRECTION('Vector Direction',(0.,1.,0.)) ;
#173=DIRECTION('Vector Direction',(0.,0.,-1.)) ;
#193=DIRECTION('Axis2P3D Direction',(2.58195522249E-032,-4.74297479814E-048,1.)) ;
#194=DIRECTION('Axis2P3D XDirection',(1.83697019872E-016,1.,-0.)) ;
#198=DIRECTION('Vector Direction',(-1.,2.30695693339E-016,2.58195522249E-032)) ;
#205=DIRECTION('Vector Direction',(0.,1.,0.)) ;
#217=DIRECTION('Axis2P3D Direction',(-1.,0.,0.)) ;
#218=DIRECTION('Axis2P3D XDirection',(0.,1.,0.)) ;
#222=DIRECTION('Vector Direction',(0.,0.,-1.)) ;
#231=DIRECTION('Vector Direction',(0.,1.,0.)) ;
#238=DIRECTION('Vector Direction',(0.,0.216439613865,-0.976296007136)) ;
#243=DIRECTION('Vector Direction',(0.,0.,-1.)) ;
#250=DIRECTION('Vector Direction',(0.,1.,0.)) ;
#257=DIRECTION('Vector Direction',(0.,0.,-1.)) ;
#264=DIRECTION('Vector Direction',(0.,1.,0.)) ;
#271=DIRECTION('Vector Direction',(0.,0.,-1.)) ;
#278=DIRECTION('Vector Direction',(0.,1.,0.)) ;
#298=DIRECTION('Axis2P3D Direction',(1.79342667021E-016,0.97629600712,0.216439613938)) ;
#299=DIRECTION('Axis2P3D XDirection',(3.97593120627E-017,0.216439613938,-0.97629600712)) ;
#303=DIRECTION('Vector Direction',(-1.,0.,0.)) ;
#315=DIRECTION('Vector Direction',(-1.,0.,0.)) ;
#320=DIRECTION('Vector Direction',(-1.,0.,0.)) ;
#332=DIRECTION('Axis2P3D Direction',(0.,-1.,0.)) ;
#333=DIRECTION('Axis2P3D XDirection',(-1.,-0.,0.)) ;
#337=DIRECTION('Vector Direction',(-1.,0.,0.)) ;
#349=DIRECTION('Axis2P3D Direction',(0.,0.,1.)) ;
#350=DIRECTION('Axis2P3D XDirection',(1.,0.,0.)) ;
#354=DIRECTION('Vector Direction',(1.,0.,0.)) ;
#363=DIRECTION('Vector Direction',(0.,1.,0.)) ;
#370=DIRECTION('Vector Direction',(-1.,0.,0.)) ;
#377=DIRECTION('Vector Direction',(0.,-1.,0.)) ;
#388=DIRECTION('Vector Direction',(1.,0.,0.)) ;
#400=DIRECTION('Axis2P3D Direction',(-0.,1.,0.)) ;
#401=DIRECTION('Axis2P3D XDirection',(1.,0.,0.)) ;
#405=DIRECTION('Vector Direction',(1.,0.,0.)) ;
#417=DIRECTION('Vector Direction',(-1.,0.,0.)) ;
#429=DIRECTION('Axis2P3D Direction',(1.83697019872E-016,1.,6.40289931324E-060)) ;
#430=DIRECTION('Axis2P3D XDirection',(-2.58195522249E-032,4.74297479815E-048,-1.)) ;
#441=DIRECTION('Vector Direction',(-1.,0.,2.58195522249E-032)) ;
#453=DIRECTION('Axis2P3D Direction',(1.83697019872E-016,1.,6.40289931324E-060)) ;
#454=DIRECTION('Axis2P3D XDirection',(-2.58195522249E-032,4.74297479815E-048,-1.)) ;
#465=DIRECTION('Axis2P3D Direction',(0.,-1.,0.)) ;
#466=DIRECTION('Axis2P3D XDirection',(1.,0.,0.)) ;
#470=DIRECTION('Vector Direction',(0.,0.,1.)) ;
#477=DIRECTION('Vector Direction',(0.,0.,1.)) ;
#484=DIRECTION('Vector Direction',(1.,0.,0.)) ;
#496=DIRECTION('Axis2P3D Direction',(1.,0.,0.)) ;
#497=DIRECTION('Axis2P3D XDirection',(0.,1.,0.)) ;
#501=DIRECTION('Vector Direction',(0.,0.,1.)) ;
#508=DIRECTION('Vector Direction',(0.,1.,0.)) ;
#520=DIRECTION('Axis2P3D Direction',(0.,1.,-0.)) ;
#521=DIRECTION('Axis2P3D XDirection',(-1.,0.,0.)) ;
#525=DIRECTION('Vector Direction',(0.,0.,1.)) ;
#532=DIRECTION('Vector Direction',(-1.,0.,0.)) ;
#544=DIRECTION('Axis2P3D Direction',(-1.,0.,0.)) ;
#545=DIRECTION('Axis2P3D XDirection',(0.,-1.,0.)) ;
#549=DIRECTION('Vector Direction',(0.,-1.,0.)) ;
#561=DIRECTION('Axis2P3D Direction',(0.,0.,1.)) ;
#562=DIRECTION('Axis2P3D XDirection',(1.,0.,0.)) ;
#31=PRESENTATION_LAYER_ASSIGNMENT('1',' ',(#22)) ;
#8=PRODUCT_RELATED_PRODUCT_CATEGORY('part',$,(#5)) ;
#7=PRODUCT_CATEGORY('part','specification') ;
#30=STYLED_ITEM(' ',(#29),#22) ;
#29=PRESENTATION_STYLE_ASSIGNMENT((#28)) ;
#28=SURFACE_STYLE_USAGE(.BOTH.,#27) ;
#27=SURFACE_SIDE_STYLE(' ',(#26)) ;
#26=SURFACE_STYLE_FILL_AREA(#25) ;
#25=FILL_AREA_STYLE(' ',(#24)) ;
#24=FILL_AREA_STYLE_COLOUR(' ',#23) ;
#40=VECTOR('Line Direction',#39,1.) ;
#49=VECTOR('Line Direction',#48,1.) ;
#56=VECTOR('Line Direction',#55,1.) ;
#63=VECTOR('Line Direction',#62,1.) ;
#80=VECTOR('Line Direction',#79,1.) ;
#87=VECTOR('Line Direction',#86,1.) ;
#94=VECTOR('Line Direction',#93,1.) ;
#111=VECTOR('Line Direction',#110,1.) ;
#120=VECTOR('Line Direction',#119,1.) ;
#127=VECTOR('Line Direction',#126,1.) ;
#134=VECTOR('Line Direction',#133,1.) ;
#141=VECTOR('Line Direction',#140,1.) ;
#148=VECTOR('Line Direction',#147,1.) ;
#155=VECTOR('Line Direction',#154,1.) ;
#160=VECTOR('Line Direction',#159,1.) ;
#167=VECTOR('Line Direction',#166,1.) ;
#174=VECTOR('Line Direction',#173,1.) ;
#199=VECTOR('Line Direction',#198,1.) ;
#206=VECTOR('Line Direction',#205,1.) ;
#223=VECTOR('Line Direction',#222,1.) ;
#232=VECTOR('Line Direction',#231,1.) ;
#239=VECTOR('Line Direction',#238,1.) ;
#244=VECTOR('Line Direction',#243,1.) ;
#251=VECTOR('Line Direction',#250,1.) ;
#258=VECTOR('Line Direction',#257,1.) ;
#265=VECTOR('Line Direction',#264,1.) ;
#272=VECTOR('Line Direction',#271,1.) ;
#279=VECTOR('Line Direction',#278,1.) ;
#304=VECTOR('Line Direction',#303,1.) ;
#316=VECTOR('Line Direction',#315,1.) ;
#321=VECTOR('Line Direction',#320,1.) ;
#338=VECTOR('Line Direction',#337,1.) ;
#355=VECTOR('Line Direction',#354,1.) ;
#364=VECTOR('Line Direction',#363,1.) ;
#371=VECTOR('Line Direction',#370,1.) ;
#378=VECTOR('Line Direction',#377,1.) ;
#389=VECTOR('Line Direction',#388,1.) ;
#406=VECTOR('Line Direction',#405,1.) ;
#418=VECTOR('Line Direction',#417,1.) ;
#442=VECTOR('Line Direction',#441,1.) ;
#471=VECTOR('Line Direction',#470,1.) ;
#478=VECTOR('Line Direction',#477,1.) ;
#485=VECTOR('Line Direction',#484,1.) ;
#502=VECTOR('Line Direction',#501,1.) ;
#509=VECTOR('Line Direction',#508,1.) ;
#526=VECTOR('Line Direction',#525,1.) ;
#533=VECTOR('Line Direction',#532,1.) ;
#550=VECTOR('Line Direction',#549,1.) ;
#16=UNCERTAINTY_MEASURE_WITH_UNIT(LENGTH_MEASURE(0.005),#12,'distance_accuracy_value','CONFUSED CURVE UNCERTAINTY') ;
#573=SHAPE_REPRESENTATION_RELATIONSHIP(' ',' ',#20,#572) ;
#67=ORIENTED_EDGE('',*,*,#46,.F.) ;
#68=ORIENTED_EDGE('',*,*,#53,.T.) ;
#69=ORIENTED_EDGE('',*,*,#60,.T.) ;
#70=ORIENTED_EDGE('',*,*,#65,.F.) ;
#98=ORIENTED_EDGE('',*,*,#84,.T.) ;
#99=ORIENTED_EDGE('',*,*,#91,.F.) ;
#100=ORIENTED_EDGE('',*,*,#96,.T.) ;
#101=ORIENTED_EDGE('',*,*,#46,.T.) ;
#178=ORIENTED_EDGE('',*,*,#117,.F.) ;
#179=ORIENTED_EDGE('',*,*,#124,.F.) ;
#180=ORIENTED_EDGE('',*,*,#131,.T.) ;
#181=ORIENTED_EDGE('',*,*,#138,.T.) ;
#182=ORIENTED_EDGE('',*,*,#145,.F.) ;
#183=ORIENTED_EDGE('',*,*,#152,.F.) ;
#184=ORIENTED_EDGE('',*,*,#157,.F.) ;
#185=ORIENTED_EDGE('',*,*,#53,.F.) ;
#186=ORIENTED_EDGE('',*,*,#96,.F.) ;
#187=ORIENTED_EDGE('',*,*,#164,.T.) ;
#188=ORIENTED_EDGE('',*,*,#171,.T.) ;
#189=ORIENTED_EDGE('',*,*,#176,.T.) ;
#210=ORIENTED_EDGE('',*,*,#60,.F.) ;
#211=ORIENTED_EDGE('',*,*,#157,.T.) ;
#212=ORIENTED_EDGE('',*,*,#203,.T.) ;
#213=ORIENTED_EDGE('',*,*,#208,.F.) ;
#283=ORIENTED_EDGE('',*,*,#229,.F.) ;
#284=ORIENTED_EDGE('',*,*,#236,.F.) ;
#285=ORIENTED_EDGE('',*,*,#241,.F.) ;
#286=ORIENTED_EDGE('',*,*,#84,.F.) ;
#287=ORIENTED_EDGE('',*,*,#65,.T.) ;
#288=ORIENTED_EDGE('',*,*,#208,.T.) ;
#289=ORIENTED_EDGE('',*,*,#248,.T.) ;
#290=ORIENTED_EDGE('',*,*,#255,.F.) ;
#291=ORIENTED_EDGE('',*,*,#262,.F.) ;
#292=ORIENTED_EDGE('',*,*,#269,.T.) ;
#293=ORIENTED_EDGE('',*,*,#276,.T.) ;
#294=ORIENTED_EDGE('',*,*,#281,.F.) ;
#308=ORIENTED_EDGE('',*,*,#241,.T.) ;
#309=ORIENTED_EDGE('',*,*,#306,.F.) ;
#310=ORIENTED_EDGE('',*,*,#164,.F.) ;
#311=ORIENTED_EDGE('',*,*,#91,.T.) ;
#325=ORIENTED_EDGE('',*,*,#281,.T.) ;
#326=ORIENTED_EDGE('',*,*,#318,.T.) ;
#327=ORIENTED_EDGE('',*,*,#117,.T.) ;
#328=ORIENTED_EDGE('',*,*,#323,.T.) ;
#342=ORIENTED_EDGE('',*,*,#276,.F.) ;
#343=ORIENTED_EDGE('',*,*,#340,.T.) ;
#344=ORIENTED_EDGE('',*,*,#124,.T.) ;
#345=ORIENTED_EDGE('',*,*,#318,.F.) ;
#382=ORIENTED_EDGE('',*,*,#361,.F.) ;
#383=ORIENTED_EDGE('',*,*,#368,.F.) ;
#384=ORIENTED_EDGE('',*,*,#375,.F.) ;
#385=ORIENTED_EDGE('',*,*,#380,.F.) ;
#393=ORIENTED_EDGE('',*,*,#131,.F.) ;
#394=ORIENTED_EDGE('',*,*,#340,.F.) ;
#395=ORIENTED_EDGE('',*,*,#269,.F.) ;
#396=ORIENTED_EDGE('',*,*,#391,.F.) ;
#410=ORIENTED_EDGE('',*,*,#138,.F.) ;
#411=ORIENTED_EDGE('',*,*,#391,.T.) ;
#412=ORIENTED_EDGE('',*,*,#262,.T.) ;
#413=ORIENTED_EDGE('',*,*,#408,.F.) ;
#422=ORIENTED_EDGE('',*,*,#145,.T.) ;
#423=ORIENTED_EDGE('',*,*,#408,.T.) ;
#424=ORIENTED_EDGE('',*,*,#255,.T.) ;
#425=ORIENTED_EDGE('',*,*,#420,.F.) ;
#434=ORIENTED_EDGE('',*,*,#203,.F.) ;
#435=ORIENTED_EDGE('',*,*,#152,.T.) ;
#436=ORIENTED_EDGE('',*,*,#420,.T.) ;
#437=ORIENTED_EDGE('',*,*,#248,.F.) ;
#446=ORIENTED_EDGE('',*,*,#236,.T.) ;
#447=ORIENTED_EDGE('',*,*,#444,.F.) ;
#448=ORIENTED_EDGE('',*,*,#171,.F.) ;
#449=ORIENTED_EDGE('',*,*,#306,.T.) ;
#458=ORIENTED_EDGE('',*,*,#229,.T.) ;
#459=ORIENTED_EDGE('',*,*,#323,.F.) ;
#460=ORIENTED_EDGE('',*,*,#176,.F.) ;
#461=ORIENTED_EDGE('',*,*,#444,.T.) ;
#489=ORIENTED_EDGE('',*,*,#475,.F.) ;
#490=ORIENTED_EDGE('',*,*,#361,.T.) ;
#491=ORIENTED_EDGE('',*,*,#482,.T.) ;
#492=ORIENTED_EDGE('',*,*,#487,.F.) ;
#513=ORIENTED_EDGE('',*,*,#506,.F.) ;
#514=ORIENTED_EDGE('',*,*,#368,.T.) ;
#515=ORIENTED_EDGE('',*,*,#475,.T.) ;
#516=ORIENTED_EDGE('',*,*,#511,.F.) ;
#537=ORIENTED_EDGE('',*,*,#530,.F.) ;
#538=ORIENTED_EDGE('',*,*,#375,.T.) ;
#539=ORIENTED_EDGE('',*,*,#506,.T.) ;
#540=ORIENTED_EDGE('',*,*,#535,.F.) ;
#554=ORIENTED_EDGE('',*,*,#482,.F.) ;
#555=ORIENTED_EDGE('',*,*,#380,.T.) ;
#556=ORIENTED_EDGE('',*,*,#530,.T.) ;
#557=ORIENTED_EDGE('',*,*,#552,.F.) ;
#566=ORIENTED_EDGE('',*,*,#552,.T.) ;
#567=ORIENTED_EDGE('',*,*,#535,.T.) ;
#568=ORIENTED_EDGE('',*,*,#511,.T.) ;
#569=ORIENTED_EDGE('',*,*,#487,.T.) ;
#397=FACE_BOUND('',#392,.T.) ;
#32=CLOSED_SHELL('Closed Shell',(#72,#103,#191,#215,#296,#313,#330,#347,#398,#415,#427,#439,#451,#463,#494,#518,#542,#559,#571)) ;
#572=ADVANCED_BREP_SHAPE_REPRESENTATION('NONE',(#22),#17) ;
#72=ADVANCED_FACE('S3D - gedreht',(#71),#37,.T.) ;
#103=ADVANCED_FACE('S3D - gedreht',(#102),#77,.T.) ;
#191=ADVANCED_FACE('S3D - gedreht',(#190),#108,.T.) ;
#215=ADVANCED_FACE('S3D - gedreht',(#214),#196,.F.) ;
#296=ADVANCED_FACE('S3D - gedreht',(#295),#220,.T.) ;
#313=ADVANCED_FACE('S3D - gedreht',(#312),#301,.F.) ;
#330=ADVANCED_FACE('S3D - gedreht',(#329),#77,.T.) ;
#347=ADVANCED_FACE('S3D - gedreht',(#346),#335,.F.) ;
#398=ADVANCED_FACE('S3D - gedreht',(#386,#397),#352,.F.) ;
#415=ADVANCED_FACE('S3D - gedreht',(#414),#403,.F.) ;
#427=ADVANCED_FACE('S3D - gedreht',(#426),#77,.T.) ;
#439=ADVANCED_FACE('S3D - gedreht',(#438),#432,.F.) ;
#451=ADVANCED_FACE('S3D - gedreht',(#450),#196,.F.) ;
#463=ADVANCED_FACE('S3D - gedreht',(#462),#456,.T.) ;
#494=ADVANCED_FACE('S3D - gedreht',(#493),#468,.F.) ;
#518=ADVANCED_FACE('S3D - gedreht',(#517),#499,.T.) ;
#542=ADVANCED_FACE('S3D - gedreht',(#541),#523,.F.) ;
#559=ADVANCED_FACE('S3D - gedreht',(#558),#547,.T.) ;
#571=ADVANCED_FACE('S3D - gedreht',(#570),#564,.T.) ;
#4=APPLICATION_PROTOCOL_DEFINITION('international standard','automotive_design',2001,#1) ;
#22=MANIFOLD_SOLID_BREP('S3D - gedreht',#32) ;
#23=DRAUGHTING_PRE_DEFINED_COLOUR('yellow') ;
#46=EDGE_CURVE('',#43,#45,#41,.T.) ;
#53=EDGE_CURVE('',#43,#52,#50,.T.) ;
#60=EDGE_CURVE('',#52,#59,#57,.T.) ;
#65=EDGE_CURVE('',#45,#59,#64,.T.) ;
#84=EDGE_CURVE('',#45,#83,#81,.T.) ;
#91=EDGE_CURVE('',#90,#83,#88,.T.) ;
#96=EDGE_CURVE('',#90,#43,#95,.T.) ;
#117=EDGE_CURVE('',#114,#116,#112,.T.) ;
#124=EDGE_CURVE('',#123,#114,#121,.T.) ;
#131=EDGE_CURVE('',#123,#130,#128,.T.) ;
#138=EDGE_CURVE('',#130,#137,#135,.T.) ;
#145=EDGE_CURVE('',#144,#137,#142,.T.) ;
#152=EDGE_CURVE('',#151,#144,#149,.F.) ;
#157=EDGE_CURVE('',#52,#151,#156,.F.) ;
#164=EDGE_CURVE('',#90,#163,#161,.T.) ;
#171=EDGE_CURVE('',#163,#170,#168,.T.) ;
#176=EDGE_CURVE('',#170,#116,#175,.F.) ;
#203=EDGE_CURVE('',#151,#202,#200,.T.) ;
#208=EDGE_CURVE('',#59,#202,#207,.F.) ;
#229=EDGE_CURVE('',#226,#228,#224,.F.) ;
#236=EDGE_CURVE('',#235,#226,#233,.T.) ;
#241=EDGE_CURVE('',#83,#235,#240,.T.) ;
#248=EDGE_CURVE('',#202,#247,#245,.F.) ;
#255=EDGE_CURVE('',#254,#247,#252,.T.) ;
#262=EDGE_CURVE('',#261,#254,#259,.T.) ;
#269=EDGE_CURVE('',#261,#268,#266,.T.) ;
#276=EDGE_CURVE('',#268,#275,#273,.T.) ;
#281=EDGE_CURVE('',#228,#275,#280,.T.) ;
#306=EDGE_CURVE('',#163,#235,#305,.T.) ;
#318=EDGE_CURVE('',#275,#114,#317,.F.) ;
#323=EDGE_CURVE('',#116,#228,#322,.T.) ;
#340=EDGE_CURVE('',#268,#123,#339,.F.) ;
#361=EDGE_CURVE('',#358,#360,#356,.F.) ;
#368=EDGE_CURVE('',#367,#358,#365,.T.) ;
#375=EDGE_CURVE('',#374,#367,#372,.F.) ;
#380=EDGE_CURVE('',#360,#374,#379,.T.) ;
#391=EDGE_CURVE('',#130,#261,#390,.F.) ;
#408=EDGE_CURVE('',#137,#254,#407,.F.) ;
#420=EDGE_CURVE('',#144,#247,#419,.T.) ;
#444=EDGE_CURVE('',#170,#226,#443,.T.) ;
#475=EDGE_CURVE('',#358,#474,#472,.T.) ;
#482=EDGE_CURVE('',#360,#481,#479,.T.) ;
#487=EDGE_CURVE('',#474,#481,#486,.F.) ;
#506=EDGE_CURVE('',#367,#505,#503,.T.) ;
#511=EDGE_CURVE('',#505,#474,#510,.T.) ;
#530=EDGE_CURVE('',#374,#529,#527,.T.) ;
#535=EDGE_CURVE('',#529,#505,#534,.F.) ;
#552=EDGE_CURVE('',#481,#529,#551,.T.) ;
#66=EDGE_LOOP('',(#67,#68,#69,#70)) ;
#97=EDGE_LOOP('',(#98,#99,#100,#101)) ;
#177=EDGE_LOOP('',(#178,#179,#180,#181,#182,#183,#184,#185,#186,#187,#188,#189)) ;
#209=EDGE_LOOP('',(#210,#211,#212,#213)) ;
#282=EDGE_LOOP('',(#283,#284,#285,#286,#287,#288,#289,#290,#291,#292,#293,#294)) ;
#307=EDGE_LOOP('',(#308,#309,#310,#311)) ;
#324=EDGE_LOOP('',(#325,#326,#327,#328)) ;
#341=EDGE_LOOP('',(#342,#343,#344,#345)) ;
#381=EDGE_LOOP('',(#382,#383,#384,#385)) ;
#392=EDGE_LOOP('',(#393,#394,#395,#396)) ;
#409=EDGE_LOOP('',(#410,#411,#412,#413)) ;
#421=EDGE_LOOP('',(#422,#423,#424,#425)) ;
#433=EDGE_LOOP('',(#434,#435,#436,#437)) ;
#445=EDGE_LOOP('',(#446,#447,#448,#449)) ;
#457=EDGE_LOOP('',(#458,#459,#460,#461)) ;
#488=EDGE_LOOP('',(#489,#490,#491,#492)) ;
#512=EDGE_LOOP('',(#513,#514,#515,#516)) ;
#536=EDGE_LOOP('',(#537,#538,#539,#540)) ;
#553=EDGE_LOOP('',(#554,#555,#556,#557)) ;
#565=EDGE_LOOP('',(#566,#567,#568,#569)) ;
#71=FACE_OUTER_BOUND('',#66,.T.) ;
#102=FACE_OUTER_BOUND('',#97,.T.) ;
#190=FACE_OUTER_BOUND('',#177,.T.) ;
#214=FACE_OUTER_BOUND('',#209,.T.) ;
#295=FACE_OUTER_BOUND('',#282,.T.) ;
#312=FACE_OUTER_BOUND('',#307,.T.) ;
#329=FACE_OUTER_BOUND('',#324,.T.) ;
#346=FACE_OUTER_BOUND('',#341,.T.) ;
#386=FACE_OUTER_BOUND('',#381,.T.) ;
#414=FACE_OUTER_BOUND('',#409,.T.) ;
#426=FACE_OUTER_BOUND('',#421,.T.) ;
#438=FACE_OUTER_BOUND('',#433,.T.) ;
#450=FACE_OUTER_BOUND('',#445,.T.) ;
#462=FACE_OUTER_BOUND('',#457,.T.) ;
#493=FACE_OUTER_BOUND('',#488,.T.) ;
#517=FACE_OUTER_BOUND('',#512,.T.) ;
#541=FACE_OUTER_BOUND('',#536,.T.) ;
#558=FACE_OUTER_BOUND('',#553,.T.) ;
#570=FACE_OUTER_BOUND('',#565,.T.) ;
#41=LINE('Line',#38,#40) ;
#50=LINE('Line',#47,#49) ;
#57=LINE('Line',#54,#56) ;
#64=LINE('Line',#61,#63) ;
#81=LINE('Line',#78,#80) ;
#88=LINE('Line',#85,#87) ;
#95=LINE('Line',#92,#94) ;
#112=LINE('Line',#109,#111) ;
#121=LINE('Line',#118,#120) ;
#128=LINE('Line',#125,#127) ;
#135=LINE('Line',#132,#134) ;
#142=LINE('Line',#139,#141) ;
#149=LINE('Line',#146,#148) ;
#156=LINE('Line',#153,#155) ;
#161=LINE('Line',#158,#160) ;
#168=LINE('Line',#165,#167) ;
#175=LINE('Line',#172,#174) ;
#200=LINE('Line',#197,#199) ;
#207=LINE('Line',#204,#206) ;
#224=LINE('Line',#221,#223) ;
#233=LINE('Line',#230,#232) ;
#240=LINE('Line',#237,#239) ;
#245=LINE('Line',#242,#244) ;
#252=LINE('Line',#249,#251) ;
#259=LINE('Line',#256,#258) ;
#266=LINE('Line',#263,#265) ;
#273=LINE('Line',#270,#272) ;
#280=LINE('Line',#277,#279) ;
#305=LINE('Line',#302,#304) ;
#317=LINE('Line',#314,#316) ;
#322=LINE('Line',#319,#321) ;
#339=LINE('Line',#336,#338) ;
#356=LINE('Line',#353,#355) ;
#365=LINE('Line',#362,#364) ;
#372=LINE('Line',#369,#371) ;
#379=LINE('Line',#376,#378) ;
#390=LINE('Line',#387,#389) ;
#407=LINE('Line',#404,#406) ;
#419=LINE('Line',#416,#418) ;
#443=LINE('Line',#440,#442) ;
#472=LINE('Line',#469,#471) ;
#479=LINE('Line',#476,#478) ;
#486=LINE('Line',#483,#485) ;
#503=LINE('Line',#500,#502) ;
#510=LINE('Line',#507,#509) ;
#527=LINE('Line',#524,#526) ;
#534=LINE('Line',#531,#533) ;
#551=LINE('Line',#548,#550) ;
#37=PLANE('',#36) ;
#77=PLANE('',#76) ;
#108=PLANE('',#107) ;
#196=PLANE('',#195) ;
#220=PLANE('',#219) ;
#301=PLANE('',#300) ;
#335=PLANE('',#334) ;
#352=PLANE('',#351) ;
#403=PLANE('',#402) ;
#432=PLANE('',#431) ;
#456=PLANE('',#455) ;
#468=PLANE('',#467) ;
#499=PLANE('',#498) ;
#523=PLANE('',#522) ;
#547=PLANE('',#546) ;
#564=PLANE('',#563) ;
#14=PLANE_ANGLE_MEASURE_WITH_UNIT(PLANE_ANGLE_MEASURE(0.0174532925199),#13) ;
#9=PRODUCT_CATEGORY_RELATIONSHIP(' ',' ',#7,#8) ;
#6=PRODUCT_DEFINITION_FORMATION_WITH_SPECIFIED_SOURCE('',' ',#5,.NOT_KNOWN.) ;
#21=SHAPE_DEFINITION_REPRESENTATION(#11,#20) ;
#43=VERTEX_POINT('',#42) ;
#45=VERTEX_POINT('',#44) ;
#52=VERTEX_POINT('',#51) ;
#59=VERTEX_POINT('',#58) ;
#83=VERTEX_POINT('',#82) ;
#90=VERTEX_POINT('',#89) ;
#114=VERTEX_POINT('',#113) ;
#116=VERTEX_POINT('',#115) ;
#123=VERTEX_POINT('',#122) ;
#130=VERTEX_POINT('',#129) ;
#137=VERTEX_POINT('',#136) ;
#144=VERTEX_POINT('',#143) ;
#151=VERTEX_POINT('',#150) ;
#163=VERTEX_POINT('',#162) ;
#170=VERTEX_POINT('',#169) ;
#202=VERTEX_POINT('',#201) ;
#226=VERTEX_POINT('',#225) ;
#228=VERTEX_POINT('',#227) ;
#235=VERTEX_POINT('',#234) ;
#247=VERTEX_POINT('',#246) ;
#254=VERTEX_POINT('',#253) ;
#261=VERTEX_POINT('',#260) ;
#268=VERTEX_POINT('',#267) ;
#275=VERTEX_POINT('',#274) ;
#358=VERTEX_POINT('',#357) ;
#360=VERTEX_POINT('',#359) ;
#367=VERTEX_POINT('',#366) ;
#374=VERTEX_POINT('',#373) ;
#474=VERTEX_POINT('',#473) ;
#481=VERTEX_POINT('',#480) ;
#505=VERTEX_POINT('',#504) ;
#529=VERTEX_POINT('',#528) ;
#12=(LENGTH_UNIT()NAMED_UNIT(*)SI_UNIT(.MILLI.,.METRE.)) ;
#13=(NAMED_UNIT(*)PLANE_ANGLE_UNIT()SI_UNIT($,.RADIAN.)) ;
#15=(NAMED_UNIT(*)SI_UNIT($,.STERADIAN.)SOLID_ANGLE_UNIT()) ;
#17=(GEOMETRIC_REPRESENTATION_CONTEXT(3)GLOBAL_UNCERTAINTY_ASSIGNED_CONTEXT((#16))GLOBAL_UNIT_ASSIGNED_CONTEXT((#12,#13,#15))REPRESENTATION_CONTEXT(' ',' ')) ;
ENDSEC;
END-ISO-10303-21;
