ISO-10303-21;
HEADER;
FILE_DESCRIPTION(('CATIA V5 STEP Exchange','CAx-IF Rec.Pracs.--- Model Styling and Organization---1.5--- 2016-08-15','CAx-IF Rec.Pracs.---Supplemental Geometry---1.0---2011-11-01','CAx-IF Rec.Pracs.--- Composite Materials ---1.1---2010-07-15'),'2;1');

FILE_NAME ('D1454764_0', '2025-09-22T05:36:18+00:00', ('none'), ('Weidmueller'), 'CATIA Version 5-6 Release 2024 SP4', 'CATIA V5 STEP AP214 v3', 'none');

FILE_SCHEMA(('AUTOMOTIVE_DESIGN { 1 0 10303 214 1 1 1 1 }'));

ENDSEC;
DATA;
#5=PRODUCT('TM-I 18','','Leitermarkierer TM-I 18\X2\000D\X0\\X2\000A\X0\<Q-CHECKER_SEAL> Q-Checker Version 2.6.2  \X2\000D\X0\\X2\000A\X0\CATIA-Version         : Catia V5 R12 SP7 Build Date 05-11-2004.18.30\X2\000D\X0\\X2\000A\X0\Model size (in KByte) : 0\X2\000D\X0\\X2\000A\X0\Checking date         : 2008-09-29 08:48:38\X2\000D\X0\\X2\000A\X0\Checking profile      : ADMIN / Release_CATDrawings [CATPart]\X2\000D\X0\\X2\000A\X0\Model assessment      : In Ordnung (IO)\X2\000D\X0\\X2\000A\X0\Total weight sum      : 0\X2\000D\X0\\X2\000A\X0\<CROSS_CHECK_SUM>\X2\000D\X0\\X2\000A\X0\  <CHKSUM_DATE> -1575083054 </CHKSUM_DATE>\X2\000D\X0\\X2\000A\X0\  <CHKSUM_ENTITIES> 151821892 </CHKSUM_ENTITIES>\X2\000D\X0\\X2\000A\X0\  <CHKSUM_PROFILE> 1875091983 </CHKSUM_PROFILE>\X2\000D\X0\\X2\000A\X0\  <CHKSUM_DIMENSION> -186917087 </CHKSUM_DIMENSION>\X2\000D\X0\\X2\000A\X0\  <CHKSUM_PROJINTERSEC> -896974048 </CHKSUM_PROJINTERSEC>\X2\000D\X0\\X2\000A\X0\  <CHKSUM_IDENTCRV> -896974048 </CHKSUM_IDENTCRV>\X2\000D\X0\\X2\000A\X0\  <CHKSUM_INFINITY> 138018827 </CHKSUM_INFINITY>\X2\000D\X0\\X2\000A\X0\</CROSS_CHECK_SUM>\X2\000D\X0\\X2\000A\X0\</Q-CHECKER_SEAL> \X2\000D\X0\\X2\000A\X0\',(#2)) ;
#2=PRODUCT_CONTEXT(' ',#1,'mechanical') ;
#1=APPLICATION_CONTEXT('automotive design') ;
#10=PRODUCT_DEFINITION('',' ',#6,#3) ;
#3=PRODUCT_DEFINITION_CONTEXT('part definition',#1,' ') ;
#11=PRODUCT_DEFINITION_SHAPE(' ',' ',#10) ;
#486=MECHANICAL_DESIGN_GEOMETRIC_PRESENTATION_REPRESENTATION(' ',(#29),#16) ;
#19=SHAPE_REPRESENTATION(' ',(#18),#16) ;
#18=AXIS2_PLACEMENT_3D(' ',#17,$,$) ;
#35=AXIS2_PLACEMENT_3D('Cylinder Axis2P3D',#32,#33,#34) ;
#87=AXIS2_PLACEMENT_3D('Plane Axis2P3D',#84,#85,#86) ;
#118=AXIS2_PLACEMENT_3D('Plane Axis2P3D',#115,#116,#117) ;
#131=AXIS2_PLACEMENT_3D('Circle Axis2P3D',#129,#130,$) ;
#145=AXIS2_PLACEMENT_3D('Circle Axis2P3D',#143,#144,$) ;
#159=AXIS2_PLACEMENT_3D('Circle Axis2P3D',#157,#158,$) ;
#173=AXIS2_PLACEMENT_3D('Circle Axis2P3D',#171,#172,$) ;
#226=AXIS2_PLACEMENT_3D('Plane Axis2P3D',#223,#224,#225) ;
#250=AXIS2_PLACEMENT_3D('Plane Axis2P3D',#247,#248,#249) ;
#254=AXIS2_PLACEMENT_3D('Circle Axis2P3D',#252,#253,$) ;
#267=AXIS2_PLACEMENT_3D('Cylinder Axis2P3D',#264,#265,#266) ;
#279=AXIS2_PLACEMENT_3D('Plane Axis2P3D',#276,#277,#278) ;
#310=AXIS2_PLACEMENT_3D('Cylinder Axis2P3D',#307,#308,#309) ;
#314=AXIS2_PLACEMENT_3D('Circle Axis2P3D',#312,#313,$) ;
#334=AXIS2_PLACEMENT_3D('Plane Axis2P3D',#331,#332,#333) ;
#358=AXIS2_PLACEMENT_3D('Cylinder Axis2P3D',#355,#356,#357) ;
#362=AXIS2_PLACEMENT_3D('Circle Axis2P3D',#360,#361,$) ;
#382=AXIS2_PLACEMENT_3D('Plane Axis2P3D',#379,#380,#381) ;
#406=AXIS2_PLACEMENT_3D('Cylinder Axis2P3D',#403,#404,#405) ;
#410=AXIS2_PLACEMENT_3D('Circle Axis2P3D',#408,#409,$) ;
#430=AXIS2_PLACEMENT_3D('Plane Axis2P3D',#427,#428,#429) ;
#454=AXIS2_PLACEMENT_3D('Cylinder Axis2P3D',#451,#452,#453) ;
#458=AXIS2_PLACEMENT_3D('Circle Axis2P3D',#456,#457,$) ;
#471=AXIS2_PLACEMENT_3D('Plane Axis2P3D',#468,#469,#470) ;
#17=CARTESIAN_POINT(' ',(0.,0.,0.)) ;
#32=CARTESIAN_POINT('Axis2P3D Location',(2.,1.725,0.3)) ;
#37=CARTESIAN_POINT('Line Origine',(2.725,1.725,0.300000000745)) ;
#41=CARTESIAN_POINT('Vertex',(2.725,1.725,0.600000000745)) ;
#43=CARTESIAN_POINT('Vertex',(2.725,1.725,-7.45058026401E-10)) ;
#47=CARTESIAN_POINT('Control Point',(2.725,1.725,0.600000000745)) ;
#48=CARTESIAN_POINT('Control Point',(2.725,1.49723453261,0.600000000671)) ;
#49=CARTESIAN_POINT('Control Point',(2.63555671012,1.26946906523,0.600000000596)) ;
#50=CARTESIAN_POINT('Control Point',(2.45553093477,1.08944328988,0.600000000522)) ;
#51=CARTESIAN_POINT('Control Point',(2.,0.910556710115,0.600000000373)) ;
#52=CARTESIAN_POINT('Control Point',(1.54446906523,1.08944328988,0.600000000224)) ;
#53=CARTESIAN_POINT('Control Point',(1.36444328988,1.26946906523,0.600000000149)) ;
#54=CARTESIAN_POINT('Control Point',(1.275,1.49723453261,0.600000000075)) ;
#55=CARTESIAN_POINT('Control Point',(1.275,1.725,0.6)) ;
#56=CARTESIAN_POINT('Vertex',(1.275,1.725,0.6)) ;
#59=CARTESIAN_POINT('Line Origine',(1.275,1.725,0.300000000745)) ;
#63=CARTESIAN_POINT('Vertex',(1.275,1.725,-7.45058115188E-10)) ;
#67=CARTESIAN_POINT('Control Point',(2.725,1.725,-7.45058026401E-10)) ;
#68=CARTESIAN_POINT('Control Point',(2.725,1.49723453261,-6.70552224873E-10)) ;
#69=CARTESIAN_POINT('Control Point',(2.63555671012,1.26946906523,-5.96046428821E-10)) ;
#70=CARTESIAN_POINT('Control Point',(2.45553093477,1.08944328988,-5.21540638316E-10)) ;
#71=CARTESIAN_POINT('Control Point',(2.,0.910556710115,-3.72529063153E-10)) ;
#72=CARTESIAN_POINT('Control Point',(1.54446906523,1.08944328988,-2.23517487989E-10)) ;
#73=CARTESIAN_POINT('Control Point',(1.36444328988,1.26946906523,-1.49011697484E-10)) ;
#74=CARTESIAN_POINT('Control Point',(1.275,1.49723453261,-7.45059014329E-11)) ;
#75=CARTESIAN_POINT('Control Point',(1.275,1.725,-9.99045976988E-17)) ;
#84=CARTESIAN_POINT('Axis2P3D Location',(2.725,1.725,0.6)) ;
#89=CARTESIAN_POINT('Line Origine',(2.725,15.975,0.300000000186)) ;
#93=CARTESIAN_POINT('Vertex',(2.725,15.975,0.6)) ;
#95=CARTESIAN_POINT('Vertex',(2.725,15.975,3.72529007642E-10)) ;
#98=CARTESIAN_POINT('Line Origine',(2.725,8.85,0.6)) ;
#103=CARTESIAN_POINT('Line Origine',(2.725,8.85,3.72529007642E-10)) ;
#115=CARTESIAN_POINT('Axis2P3D Location',(2.,-4.12433940232E-33,0.6)) ;
#120=CARTESIAN_POINT('Line Origine',(4.,8.85000000056,0.6)) ;
#124=CARTESIAN_POINT('Vertex',(4.,0.400000000373,0.6)) ;
#126=CARTESIAN_POINT('Vertex',(4.,17.3000000007,0.6)) ;
#129=CARTESIAN_POINT('Axis2P3D Location',(3.59999999874,0.400000001264,0.6)) ;
#133=CARTESIAN_POINT('Vertex',(3.59999999963,-9.7971743909E-17,0.6)) ;
#136=CARTESIAN_POINT('Line Origine',(2.,0.,0.6)) ;
#140=CARTESIAN_POINT('Vertex',(0.400000000373,1.5348289514E-16,0.6)) ;
#143=CARTESIAN_POINT('Axis2P3D Location',(0.400000001264,0.400000001264,0.6)) ;
#147=CARTESIAN_POINT('Vertex',(0.,0.400000000373,0.6)) ;
#150=CARTESIAN_POINT('Line Origine',(4.4408920985E-16,8.85000000056,0.6)) ;
#154=CARTESIAN_POINT('Vertex',(8.881784197E-16,17.3000000007,0.6)) ;
#157=CARTESIAN_POINT('Axis2P3D Location',(0.399999998085,17.3000000012,0.6)) ;
#161=CARTESIAN_POINT('Vertex',(0.400000000373,17.6999999993,0.6)) ;
#164=CARTESIAN_POINT('Line Origine',(2.,17.6999999993,0.6)) ;
#168=CARTESIAN_POINT('Vertex',(3.59999999963,17.6999999993,0.6)) ;
#171=CARTESIAN_POINT('Axis2P3D Location',(3.60000000192,17.3000000012,0.6)) ;
#187=CARTESIAN_POINT('Control Point',(1.27500000037,15.9749999996,0.6)) ;
#188=CARTESIAN_POINT('Control Point',(1.27500000037,16.0584229886,0.6)) ;
#189=CARTESIAN_POINT('Control Point',(1.28699895894,16.141845101,0.6)) ;
#190=CARTESIAN_POINT('Control Point',(1.31100887733,16.2229911097,0.6)) ;
#191=CARTESIAN_POINT('Control Point',(1.38166379429,16.3760334182,0.6)) ;
#192=CARTESIAN_POINT('Control Point',(1.49258495544,16.5029561966,0.6)) ;
#193=CARTESIAN_POINT('Control Point',(1.55688411481,16.5579722706,0.6)) ;
#194=CARTESIAN_POINT('Control Point',(1.69943994041,16.6479272742,0.6)) ;
#195=CARTESIAN_POINT('Control Point',(1.86156609497,16.6940575957,0.6)) ;
#196=CARTESIAN_POINT('Control Point',(1.94544921652,16.7052277517,0.6)) ;
#197=CARTESIAN_POINT('Control Point',(2.11400086955,16.703128608,0.6)) ;
#198=CARTESIAN_POINT('Control Point',(2.27512499877,16.6536118241,0.6)) ;
#199=CARTESIAN_POINT('Control Point',(2.3515804732,16.6173391054,0.6)) ;
#200=CARTESIAN_POINT('Control Point',(2.49185205271,16.5238616229,0.6)) ;
#201=CARTESIAN_POINT('Control Point',(2.60008992549,16.3946426098,0.6)) ;
#202=CARTESIAN_POINT('Control Point',(2.64449679142,16.3226085618,0.6)) ;
#203=CARTESIAN_POINT('Control Point',(2.69324959242,16.2097022401,0.6)) ;
#204=CARTESIAN_POINT('Control Point',(2.71734365964,16.0901105929,0.6)) ;
#205=CARTESIAN_POINT('Control Point',(2.72247003266,16.0516124601,0.6)) ;
#206=CARTESIAN_POINT('Control Point',(2.72499999963,16.013306222,0.6)) ;
#207=CARTESIAN_POINT('Control Point',(2.72499999963,15.9749999996,0.6)) ;
#208=CARTESIAN_POINT('Vertex',(1.27500000037,15.9749999996,0.6)) ;
#211=CARTESIAN_POINT('Line Origine',(1.27500000037,8.84999999963,0.6)) ;
#223=CARTESIAN_POINT('Axis2P3D Location',(1.275,15.975,0.6)) ;
#228=CARTESIAN_POINT('Line Origine',(1.275,15.975,0.300000000186)) ;
#232=CARTESIAN_POINT('Vertex',(1.275,15.975,3.72529007642E-10)) ;
#235=CARTESIAN_POINT('Line Origine',(1.275,8.85,3.72529007642E-10)) ;
#247=CARTESIAN_POINT('Axis2P3D Location',(2.,-6.37397907631E-33,-2.22044604925E-16)) ;
#252=CARTESIAN_POINT('Axis2P3D Location',(2.,15.9749999996,-2.22044604925E-16)) ;
#264=CARTESIAN_POINT('Axis2P3D Location',(2.,15.975,0.3)) ;
#276=CARTESIAN_POINT('Axis2P3D Location',(4.,17.3,1.7)) ;
#281=CARTESIAN_POINT('Line Origine',(4.,17.3,1.15000000019)) ;
#285=CARTESIAN_POINT('Vertex',(4.,17.3,1.7)) ;
#288=CARTESIAN_POINT('Line Origine',(4.,8.84999999981,1.7)) ;
#292=CARTESIAN_POINT('Vertex',(4.,0.399999999627,1.7)) ;
#295=CARTESIAN_POINT('Line Origine',(4.,0.399999999627,1.15000000019)) ;
#307=CARTESIAN_POINT('Axis2P3D Location',(3.6,0.4,1.15)) ;
#312=CARTESIAN_POINT('Axis2P3D Location',(3.6,0.4,1.70000000075)) ;
#316=CARTESIAN_POINT('Vertex',(3.6,0.,1.70000000075)) ;
#319=CARTESIAN_POINT('Line Origine',(3.6,0.,1.15000000037)) ;
#331=CARTESIAN_POINT('Axis2P3D Location',(0.4,9.79717439318E-17,1.7)) ;
#336=CARTESIAN_POINT('Line Origine',(1.99999999963,2.27708151559E-26,1.7)) ;
#340=CARTESIAN_POINT('Vertex',(0.4,9.79717439318E-17,1.7)) ;
#343=CARTESIAN_POINT('Line Origine',(0.4,9.79717439318E-17,1.15000000019)) ;
#355=CARTESIAN_POINT('Axis2P3D Location',(0.4,0.4,1.15)) ;
#360=CARTESIAN_POINT('Axis2P3D Location',(0.4,0.4,1.70000000075)) ;
#364=CARTESIAN_POINT('Vertex',(-5.55111512313E-17,0.4,1.70000000075)) ;
#367=CARTESIAN_POINT('Line Origine',(0.,0.4,1.15000000037)) ;
#379=CARTESIAN_POINT('Axis2P3D Location',(-1.11022302463E-15,0.4,1.7)) ;
#384=CARTESIAN_POINT('Line Origine',(-5.92809751979E-16,8.85000000019,1.7)) ;
#388=CARTESIAN_POINT('Vertex',(-7.53964793271E-17,17.3000000004,1.7)) ;
#391=CARTESIAN_POINT('Line Origine',(-4.1718692362E-17,17.3000000004,1.15000000019)) ;
#403=CARTESIAN_POINT('Axis2P3D Location',(0.4,17.3,1.15)) ;
#408=CARTESIAN_POINT('Axis2P3D Location',(0.4,17.3,1.70000000075)) ;
#412=CARTESIAN_POINT('Vertex',(0.4,17.7,1.70000000075)) ;
#415=CARTESIAN_POINT('Line Origine',(0.4,17.7,1.15000000037)) ;
#427=CARTESIAN_POINT('Axis2P3D Location',(3.6,17.7,1.7)) ;
#432=CARTESIAN_POINT('Line Origine',(2.00000000037,17.7,1.7)) ;
#436=CARTESIAN_POINT('Vertex',(3.6,17.7,1.7)) ;
#439=CARTESIAN_POINT('Line Origine',(3.6,17.7,1.15000000019)) ;
#451=CARTESIAN_POINT('Axis2P3D Location',(3.6,17.3,1.15)) ;
#456=CARTESIAN_POINT('Axis2P3D Location',(3.6,17.3,1.70000000075)) ;
#468=CARTESIAN_POINT('Axis2P3D Location',(2.,0.,1.7)) ;
#33=DIRECTION('Axis2P3D Direction',(6.12323399574E-17,-3.74939945665E-33,-1.)) ;
#34=DIRECTION('Axis2P3D XDirection',(1.,0.,6.12323399574E-17)) ;
#38=DIRECTION('Vector Direction',(6.12323525218E-17,0.,-1.)) ;
#60=DIRECTION('Vector Direction',(6.12323303173E-17,0.,-1.)) ;
#85=DIRECTION('Axis2P3D Direction',(-1.,6.12323399574E-17,-6.12323399574E-17)) ;
#86=DIRECTION('Axis2P3D XDirection',(6.12323399574E-17,1.,0.)) ;
#90=DIRECTION('Vector Direction',(0.,0.,-1.)) ;
#99=DIRECTION('Vector Direction',(6.23283101544E-17,1.,0.)) ;
#104=DIRECTION('Vector Direction',(6.23283101544E-17,1.,0.)) ;
#116=DIRECTION('Axis2P3D Direction',(-6.12323399574E-17,3.74939945666E-33,1.)) ;
#117=DIRECTION('Axis2P3D XDirection',(-6.12323399574E-17,-1.,0.)) ;
#121=DIRECTION('Vector Direction',(-5.25549360758E-17,-1.,0.)) ;
#130=DIRECTION('Axis2P3D Direction',(-6.12323399574E-17,3.74939945666E-33,1.)) ;
#137=DIRECTION('Vector Direction',(1.,-6.12323399574E-17,6.93889390552E-17)) ;
#144=DIRECTION('Axis2P3D Direction',(-6.12323399574E-17,3.74939945666E-33,1.)) ;
#151=DIRECTION('Vector Direction',(5.25549360758E-17,1.,0.)) ;
#158=DIRECTION('Axis2P3D Direction',(-6.12323399574E-17,3.74939945666E-33,1.)) ;
#165=DIRECTION('Vector Direction',(-1.,0.,-6.93889390552E-17)) ;
#172=DIRECTION('Axis2P3D Direction',(-6.12323399574E-17,3.74939945666E-33,1.)) ;
#212=DIRECTION('Vector Direction',(-6.23283101544E-17,-1.,0.)) ;
#224=DIRECTION('Axis2P3D Direction',(1.,-6.12323399574E-17,6.12323399574E-17)) ;
#225=DIRECTION('Axis2P3D XDirection',(-6.12323399574E-17,-1.,0.)) ;
#229=DIRECTION('Vector Direction',(0.,0.,-1.)) ;
#236=DIRECTION('Vector Direction',(-6.23283101544E-17,-1.,0.)) ;
#248=DIRECTION('Axis2P3D Direction',(6.12323399574E-17,-3.74939945666E-33,-1.)) ;
#249=DIRECTION('Axis2P3D XDirection',(6.12323399574E-17,1.,0.)) ;
#253=DIRECTION('Axis2P3D Direction',(6.12323399574E-17,-3.74939945666E-33,-1.)) ;
#265=DIRECTION('Axis2P3D Direction',(6.12323399574E-17,-3.74939945665E-33,-1.)) ;
#266=DIRECTION('Axis2P3D XDirection',(-1.,-1.22464679915E-16,-6.12323399574E-17)) ;
#277=DIRECTION('Axis2P3D Direction',(1.,-6.12323399574E-17,6.12323399574E-17)) ;
#278=DIRECTION('Axis2P3D XDirection',(-6.12323399574E-17,-1.,0.)) ;
#282=DIRECTION('Vector Direction',(0.,0.,-1.)) ;
#289=DIRECTION('Vector Direction',(-5.25549360758E-17,-1.,0.)) ;
#296=DIRECTION('Vector Direction',(0.,0.,-1.)) ;
#308=DIRECTION('Axis2P3D Direction',(-6.12323399574E-17,3.74939945644E-33,1.)) ;
#309=DIRECTION('Axis2P3D XDirection',(1.04899068467E-15,-1.,6.79815536723E-32)) ;
#313=DIRECTION('Axis2P3D Direction',(-6.12323399574E-17,3.74939945644E-33,1.)) ;
#320=DIRECTION('Vector Direction',(-6.12323525218E-17,0.,1.)) ;
#332=DIRECTION('Axis2P3D Direction',(6.12323399574E-17,1.,0.)) ;
#333=DIRECTION('Axis2P3D XDirection',(1.,-6.12323399574E-17,6.12323399574E-17)) ;
#337=DIRECTION('Vector Direction',(1.,-6.12323399574E-17,6.93889390552E-17)) ;
#344=DIRECTION('Vector Direction',(5.04646829546E-17,0.,-1.)) ;
#356=DIRECTION('Axis2P3D Direction',(-6.12323399574E-17,3.74939945665E-33,1.)) ;
#357=DIRECTION('Axis2P3D XDirection',(-1.,2.44929359829E-16,-6.12323399574E-17)) ;
#361=DIRECTION('Axis2P3D Direction',(-6.12323399574E-17,3.74939945665E-33,1.)) ;
#368=DIRECTION('Vector Direction',(-6.12323414195E-17,0.,1.)) ;
#380=DIRECTION('Axis2P3D Direction',(-1.,6.12323399574E-17,-6.12323399574E-17)) ;
#381=DIRECTION('Axis2P3D XDirection',(6.12323399574E-17,1.,0.)) ;
#385=DIRECTION('Vector Direction',(6.12323399574E-17,1.,0.)) ;
#392=DIRECTION('Vector Direction',(6.12323399574E-17,0.,-1.)) ;
#404=DIRECTION('Axis2P3D Direction',(-6.12323399574E-17,3.74939945665E-33,1.)) ;
#405=DIRECTION('Axis2P3D XDirection',(1.83697019872E-16,1.,7.49879891331E-33)) ;
#409=DIRECTION('Axis2P3D Direction',(-6.12323399574E-17,3.74939945665E-33,1.)) ;
#416=DIRECTION('Vector Direction',(-6.12323414195E-17,0.,1.)) ;
#428=DIRECTION('Axis2P3D Direction',(-6.12323399574E-17,-1.,0.)) ;
#429=DIRECTION('Axis2P3D XDirection',(-1.,6.12323399574E-17,-6.12323399574E-17)) ;
#433=DIRECTION('Vector Direction',(-1.,0.,-6.93889390552E-17)) ;
#440=DIRECTION('Vector Direction',(0.,0.,-1.)) ;
#452=DIRECTION('Axis2P3D Direction',(-6.12323399574E-17,3.74939945665E-33,1.)) ;
#453=DIRECTION('Axis2P3D XDirection',(1.,-1.22464679915E-16,6.12323399574E-17)) ;
#457=DIRECTION('Axis2P3D Direction',(-6.12323399574E-17,3.74939945665E-33,1.)) ;
#469=DIRECTION('Axis2P3D Direction',(-6.12323399574E-17,3.74939945666E-33,1.)) ;
#470=DIRECTION('Axis2P3D XDirection',(-6.12323399574E-17,-1.,0.)) ;
#30=PRESENTATION_LAYER_ASSIGNMENT('1',' ',(#21)) ;
#8=PRODUCT_RELATED_PRODUCT_CATEGORY('part',$,(#5)) ;
#7=PRODUCT_CATEGORY('part','specification') ;
#29=STYLED_ITEM(' ',(#28),#21) ;
#28=PRESENTATION_STYLE_ASSIGNMENT((#27)) ;
#27=SURFACE_STYLE_USAGE(.BOTH.,#26) ;
#26=SURFACE_SIDE_STYLE(' ',(#25)) ;
#25=SURFACE_STYLE_FILL_AREA(#24) ;
#24=FILL_AREA_STYLE(' ',(#23)) ;
#23=FILL_AREA_STYLE_COLOUR(' ',#22) ;
#39=VECTOR('Line Direction',#38,1.) ;
#61=VECTOR('Line Direction',#60,1.) ;
#91=VECTOR('Line Direction',#90,1.) ;
#100=VECTOR('Line Direction',#99,1.) ;
#105=VECTOR('Line Direction',#104,1.) ;
#122=VECTOR('Line Direction',#121,1.) ;
#138=VECTOR('Line Direction',#137,1.) ;
#152=VECTOR('Line Direction',#151,1.) ;
#166=VECTOR('Line Direction',#165,1.) ;
#213=VECTOR('Line Direction',#212,1.) ;
#230=VECTOR('Line Direction',#229,1.) ;
#237=VECTOR('Line Direction',#236,1.) ;
#283=VECTOR('Line Direction',#282,1.) ;
#290=VECTOR('Line Direction',#289,1.) ;
#297=VECTOR('Line Direction',#296,1.) ;
#321=VECTOR('Line Direction',#320,1.) ;
#338=VECTOR('Line Direction',#337,1.) ;
#345=VECTOR('Line Direction',#344,1.) ;
#369=VECTOR('Line Direction',#368,1.) ;
#386=VECTOR('Line Direction',#385,1.) ;
#393=VECTOR('Line Direction',#392,1.) ;
#417=VECTOR('Line Direction',#416,1.) ;
#434=VECTOR('Line Direction',#433,1.) ;
#441=VECTOR('Line Direction',#440,1.) ;
#15=UNCERTAINTY_MEASURE_WITH_UNIT(LENGTH_MEASURE(0.005),#12,'distance_accuracy_value','CONFUSED CURVE UNCERTAINTY') ;
#485=SHAPE_REPRESENTATION_RELATIONSHIP(' ',' ',#19,#484) ;
#78=ORIENTED_EDGE('',*,*,#45,.F.) ;
#79=ORIENTED_EDGE('',*,*,#58,.T.) ;
#80=ORIENTED_EDGE('',*,*,#65,.T.) ;
#81=ORIENTED_EDGE('',*,*,#76,.F.) ;
#109=ORIENTED_EDGE('',*,*,#97,.F.) ;
#110=ORIENTED_EDGE('',*,*,#102,.T.) ;
#111=ORIENTED_EDGE('',*,*,#45,.T.) ;
#112=ORIENTED_EDGE('',*,*,#107,.F.) ;
#177=ORIENTED_EDGE('',*,*,#128,.F.) ;
#178=ORIENTED_EDGE('',*,*,#135,.F.) ;
#179=ORIENTED_EDGE('',*,*,#142,.F.) ;
#180=ORIENTED_EDGE('',*,*,#149,.F.) ;
#181=ORIENTED_EDGE('',*,*,#156,.F.) ;
#182=ORIENTED_EDGE('',*,*,#163,.F.) ;
#183=ORIENTED_EDGE('',*,*,#170,.F.) ;
#184=ORIENTED_EDGE('',*,*,#175,.F.) ;
#217=ORIENTED_EDGE('',*,*,#210,.F.) ;
#218=ORIENTED_EDGE('',*,*,#215,.F.) ;
#219=ORIENTED_EDGE('',*,*,#58,.F.) ;
#220=ORIENTED_EDGE('',*,*,#102,.F.) ;
#241=ORIENTED_EDGE('',*,*,#65,.F.) ;
#242=ORIENTED_EDGE('',*,*,#215,.T.) ;
#243=ORIENTED_EDGE('',*,*,#234,.T.) ;
#244=ORIENTED_EDGE('',*,*,#239,.F.) ;
#258=ORIENTED_EDGE('',*,*,#76,.T.) ;
#259=ORIENTED_EDGE('',*,*,#239,.T.) ;
#260=ORIENTED_EDGE('',*,*,#256,.T.) ;
#261=ORIENTED_EDGE('',*,*,#107,.T.) ;
#270=ORIENTED_EDGE('',*,*,#234,.F.) ;
#271=ORIENTED_EDGE('',*,*,#210,.T.) ;
#272=ORIENTED_EDGE('',*,*,#97,.T.) ;
#273=ORIENTED_EDGE('',*,*,#256,.F.) ;
#301=ORIENTED_EDGE('',*,*,#128,.T.) ;
#302=ORIENTED_EDGE('',*,*,#287,.F.) ;
#303=ORIENTED_EDGE('',*,*,#294,.F.) ;
#304=ORIENTED_EDGE('',*,*,#299,.T.) ;
#325=ORIENTED_EDGE('',*,*,#135,.T.) ;
#326=ORIENTED_EDGE('',*,*,#299,.F.) ;
#327=ORIENTED_EDGE('',*,*,#318,.F.) ;
#328=ORIENTED_EDGE('',*,*,#323,.T.) ;
#349=ORIENTED_EDGE('',*,*,#142,.T.) ;
#350=ORIENTED_EDGE('',*,*,#323,.F.) ;
#351=ORIENTED_EDGE('',*,*,#342,.F.) ;
#352=ORIENTED_EDGE('',*,*,#347,.T.) ;
#373=ORIENTED_EDGE('',*,*,#149,.T.) ;
#374=ORIENTED_EDGE('',*,*,#347,.F.) ;
#375=ORIENTED_EDGE('',*,*,#366,.F.) ;
#376=ORIENTED_EDGE('',*,*,#371,.T.) ;
#397=ORIENTED_EDGE('',*,*,#156,.T.) ;
#398=ORIENTED_EDGE('',*,*,#371,.F.) ;
#399=ORIENTED_EDGE('',*,*,#390,.F.) ;
#400=ORIENTED_EDGE('',*,*,#395,.T.) ;
#421=ORIENTED_EDGE('',*,*,#163,.T.) ;
#422=ORIENTED_EDGE('',*,*,#395,.F.) ;
#423=ORIENTED_EDGE('',*,*,#414,.F.) ;
#424=ORIENTED_EDGE('',*,*,#419,.T.) ;
#445=ORIENTED_EDGE('',*,*,#170,.T.) ;
#446=ORIENTED_EDGE('',*,*,#419,.F.) ;
#447=ORIENTED_EDGE('',*,*,#438,.F.) ;
#448=ORIENTED_EDGE('',*,*,#443,.T.) ;
#462=ORIENTED_EDGE('',*,*,#175,.T.) ;
#463=ORIENTED_EDGE('',*,*,#443,.F.) ;
#464=ORIENTED_EDGE('',*,*,#460,.F.) ;
#465=ORIENTED_EDGE('',*,*,#287,.T.) ;
#474=ORIENTED_EDGE('',*,*,#460,.T.) ;
#475=ORIENTED_EDGE('',*,*,#438,.T.) ;
#476=ORIENTED_EDGE('',*,*,#414,.T.) ;
#477=ORIENTED_EDGE('',*,*,#390,.T.) ;
#478=ORIENTED_EDGE('',*,*,#366,.T.) ;
#479=ORIENTED_EDGE('',*,*,#342,.T.) ;
#480=ORIENTED_EDGE('',*,*,#318,.T.) ;
#481=ORIENTED_EDGE('',*,*,#294,.T.) ;
#221=FACE_BOUND('',#216,.T.) ;
#31=CLOSED_SHELL('Closed Shell',(#83,#114,#222,#246,#263,#275,#306,#330,#354,#378,#402,#426,#450,#467,#483)) ;
#484=ADVANCED_BREP_SHAPE_REPRESENTATION('NONE',(#21),#16) ;
#83=ADVANCED_FACE('S3D gedreht',(#82),#36,.T.) ;
#114=ADVANCED_FACE('S3D gedreht',(#113),#88,.F.) ;
#222=ADVANCED_FACE('S3D gedreht',(#185,#221),#119,.F.) ;
#246=ADVANCED_FACE('S3D gedreht',(#245),#227,.F.) ;
#263=ADVANCED_FACE('S3D gedreht',(#262),#251,.T.) ;
#275=ADVANCED_FACE('S3D gedreht',(#274),#268,.T.) ;
#306=ADVANCED_FACE('S3D gedreht',(#305),#280,.T.) ;
#330=ADVANCED_FACE('S3D gedreht',(#329),#311,.T.) ;
#354=ADVANCED_FACE('S3D gedreht',(#353),#335,.F.) ;
#378=ADVANCED_FACE('S3D gedreht',(#377),#359,.T.) ;
#402=ADVANCED_FACE('S3D gedreht',(#401),#383,.T.) ;
#426=ADVANCED_FACE('S3D gedreht',(#425),#407,.T.) ;
#450=ADVANCED_FACE('S3D gedreht',(#449),#431,.F.) ;
#467=ADVANCED_FACE('S3D gedreht',(#466),#455,.T.) ;
#483=ADVANCED_FACE('S3D gedreht',(#482),#472,.T.) ;
#4=APPLICATION_PROTOCOL_DEFINITION('international standard','automotive_design',2001,#1) ;
#46=B_SPLINE_CURVE_WITH_KNOTS('',5,(#47,#48,#49,#50,#51,#52,#53,#54,#55),.UNSPECIFIED.,.F.,.U.,(6,3,6),(-1.13882733693,0.,1.13882733693),.UNSPECIFIED.) ;
#66=B_SPLINE_CURVE_WITH_KNOTS('',5,(#67,#68,#69,#70,#71,#72,#73,#74,#75),.UNSPECIFIED.,.F.,.U.,(6,3,6),(-1.13882733693,0.,1.13882733693),.UNSPECIFIED.) ;
#186=B_SPLINE_CURVE_WITH_KNOTS('',5,(#187,#188,#189,#190,#191,#192,#193,#194,#195,#196,#197,#198,#199,#200,#201,#202,#203,#204,#205,#206,#207),.UNSPECIFIED.,.F.,.U.,(6,3,3,3,3,3,6),(0.,0.591843014102,1.18368603132,1.77552905991,2.36737208094,2.95921697876,3.23097983877),.UNSPECIFIED.) ;
#21=MANIFOLD_SOLID_BREP('S3D gedreht',#31) ;
#132=CIRCLE('generated circle',#131,0.400000001264) ;
#146=CIRCLE('generated circle',#145,0.400000001264) ;
#160=CIRCLE('generated circle',#159,0.399999998085) ;
#174=CIRCLE('generated circle',#173,0.399999998085) ;
#255=CIRCLE('generated circle',#254,0.724999999627) ;
#315=CIRCLE('generated circle',#314,0.4) ;
#363=CIRCLE('generated circle',#362,0.4) ;
#411=CIRCLE('generated circle',#410,0.4) ;
#459=CIRCLE('generated circle',#458,0.4) ;
#36=CYLINDRICAL_SURFACE('generated cylinder',#35,0.725) ;
#268=CYLINDRICAL_SURFACE('generated cylinder',#267,0.725) ;
#311=CYLINDRICAL_SURFACE('generated cylinder',#310,0.4) ;
#359=CYLINDRICAL_SURFACE('generated cylinder',#358,0.4) ;
#407=CYLINDRICAL_SURFACE('generated cylinder',#406,0.4) ;
#455=CYLINDRICAL_SURFACE('generated cylinder',#454,0.4) ;
#22=DRAUGHTING_PRE_DEFINED_COLOUR('yellow') ;
#45=EDGE_CURVE('',#42,#44,#40,.T.) ;
#58=EDGE_CURVE('',#42,#57,#46,.T.) ;
#65=EDGE_CURVE('',#57,#64,#62,.T.) ;
#76=EDGE_CURVE('',#44,#64,#66,.T.) ;
#97=EDGE_CURVE('',#94,#96,#92,.T.) ;
#102=EDGE_CURVE('',#94,#42,#101,.F.) ;
#107=EDGE_CURVE('',#96,#44,#106,.F.) ;
#128=EDGE_CURVE('',#125,#127,#123,.F.) ;
#135=EDGE_CURVE('',#134,#125,#132,.T.) ;
#142=EDGE_CURVE('',#141,#134,#139,.T.) ;
#149=EDGE_CURVE('',#148,#141,#146,.T.) ;
#156=EDGE_CURVE('',#155,#148,#153,.F.) ;
#163=EDGE_CURVE('',#162,#155,#160,.T.) ;
#170=EDGE_CURVE('',#169,#162,#167,.T.) ;
#175=EDGE_CURVE('',#127,#169,#174,.T.) ;
#210=EDGE_CURVE('',#209,#94,#186,.T.) ;
#215=EDGE_CURVE('',#57,#209,#214,.F.) ;
#234=EDGE_CURVE('',#209,#233,#231,.T.) ;
#239=EDGE_CURVE('',#64,#233,#238,.F.) ;
#256=EDGE_CURVE('',#233,#96,#255,.T.) ;
#287=EDGE_CURVE('',#286,#127,#284,.T.) ;
#294=EDGE_CURVE('',#293,#286,#291,.F.) ;
#299=EDGE_CURVE('',#293,#125,#298,.T.) ;
#318=EDGE_CURVE('',#317,#293,#315,.T.) ;
#323=EDGE_CURVE('',#317,#134,#322,.F.) ;
#342=EDGE_CURVE('',#341,#317,#339,.T.) ;
#347=EDGE_CURVE('',#341,#141,#346,.T.) ;
#366=EDGE_CURVE('',#365,#341,#363,.T.) ;
#371=EDGE_CURVE('',#365,#148,#370,.F.) ;
#390=EDGE_CURVE('',#389,#365,#387,.F.) ;
#395=EDGE_CURVE('',#389,#155,#394,.T.) ;
#414=EDGE_CURVE('',#413,#389,#411,.T.) ;
#419=EDGE_CURVE('',#413,#162,#418,.F.) ;
#438=EDGE_CURVE('',#437,#413,#435,.T.) ;
#443=EDGE_CURVE('',#437,#169,#442,.T.) ;
#460=EDGE_CURVE('',#286,#437,#459,.T.) ;
#77=EDGE_LOOP('',(#78,#79,#80,#81)) ;
#108=EDGE_LOOP('',(#109,#110,#111,#112)) ;
#176=EDGE_LOOP('',(#177,#178,#179,#180,#181,#182,#183,#184)) ;
#216=EDGE_LOOP('',(#217,#218,#219,#220)) ;
#240=EDGE_LOOP('',(#241,#242,#243,#244)) ;
#257=EDGE_LOOP('',(#258,#259,#260,#261)) ;
#269=EDGE_LOOP('',(#270,#271,#272,#273)) ;
#300=EDGE_LOOP('',(#301,#302,#303,#304)) ;
#324=EDGE_LOOP('',(#325,#326,#327,#328)) ;
#348=EDGE_LOOP('',(#349,#350,#351,#352)) ;
#372=EDGE_LOOP('',(#373,#374,#375,#376)) ;
#396=EDGE_LOOP('',(#397,#398,#399,#400)) ;
#420=EDGE_LOOP('',(#421,#422,#423,#424)) ;
#444=EDGE_LOOP('',(#445,#446,#447,#448)) ;
#461=EDGE_LOOP('',(#462,#463,#464,#465)) ;
#473=EDGE_LOOP('',(#474,#475,#476,#477,#478,#479,#480,#481)) ;
#82=FACE_OUTER_BOUND('',#77,.T.) ;
#113=FACE_OUTER_BOUND('',#108,.T.) ;
#185=FACE_OUTER_BOUND('',#176,.T.) ;
#245=FACE_OUTER_BOUND('',#240,.T.) ;
#262=FACE_OUTER_BOUND('',#257,.T.) ;
#274=FACE_OUTER_BOUND('',#269,.T.) ;
#305=FACE_OUTER_BOUND('',#300,.T.) ;
#329=FACE_OUTER_BOUND('',#324,.T.) ;
#353=FACE_OUTER_BOUND('',#348,.T.) ;
#377=FACE_OUTER_BOUND('',#372,.T.) ;
#401=FACE_OUTER_BOUND('',#396,.T.) ;
#425=FACE_OUTER_BOUND('',#420,.T.) ;
#449=FACE_OUTER_BOUND('',#444,.T.) ;
#466=FACE_OUTER_BOUND('',#461,.T.) ;
#482=FACE_OUTER_BOUND('',#473,.T.) ;
#40=LINE('Line',#37,#39) ;
#62=LINE('Line',#59,#61) ;
#92=LINE('Line',#89,#91) ;
#101=LINE('Line',#98,#100) ;
#106=LINE('Line',#103,#105) ;
#123=LINE('Line',#120,#122) ;
#139=LINE('Line',#136,#138) ;
#153=LINE('Line',#150,#152) ;
#167=LINE('Line',#164,#166) ;
#214=LINE('Line',#211,#213) ;
#231=LINE('Line',#228,#230) ;
#238=LINE('Line',#235,#237) ;
#284=LINE('Line',#281,#283) ;
#291=LINE('Line',#288,#290) ;
#298=LINE('Line',#295,#297) ;
#322=LINE('Line',#319,#321) ;
#339=LINE('Line',#336,#338) ;
#346=LINE('Line',#343,#345) ;
#370=LINE('Line',#367,#369) ;
#387=LINE('Line',#384,#386) ;
#394=LINE('Line',#391,#393) ;
#418=LINE('Line',#415,#417) ;
#435=LINE('Line',#432,#434) ;
#442=LINE('Line',#439,#441) ;
#88=PLANE('',#87) ;
#119=PLANE('',#118) ;
#227=PLANE('',#226) ;
#251=PLANE('',#250) ;
#280=PLANE('',#279) ;
#335=PLANE('',#334) ;
#383=PLANE('',#382) ;
#431=PLANE('',#430) ;
#472=PLANE('',#471) ;
#9=PRODUCT_CATEGORY_RELATIONSHIP(' ',' ',#7,#8) ;
#6=PRODUCT_DEFINITION_FORMATION_WITH_SPECIFIED_SOURCE('',' ',#5,.NOT_KNOWN.) ;
#20=SHAPE_DEFINITION_REPRESENTATION(#11,#19) ;
#42=VERTEX_POINT('',#41) ;
#44=VERTEX_POINT('',#43) ;
#57=VERTEX_POINT('',#56) ;
#64=VERTEX_POINT('',#63) ;
#94=VERTEX_POINT('',#93) ;
#96=VERTEX_POINT('',#95) ;
#125=VERTEX_POINT('',#124) ;
#127=VERTEX_POINT('',#126) ;
#134=VERTEX_POINT('',#133) ;
#141=VERTEX_POINT('',#140) ;
#148=VERTEX_POINT('',#147) ;
#155=VERTEX_POINT('',#154) ;
#162=VERTEX_POINT('',#161) ;
#169=VERTEX_POINT('',#168) ;
#209=VERTEX_POINT('',#208) ;
#233=VERTEX_POINT('',#232) ;
#286=VERTEX_POINT('',#285) ;
#293=VERTEX_POINT('',#292) ;
#317=VERTEX_POINT('',#316) ;
#341=VERTEX_POINT('',#340) ;
#365=VERTEX_POINT('',#364) ;
#389=VERTEX_POINT('',#388) ;
#413=VERTEX_POINT('',#412) ;
#437=VERTEX_POINT('',#436) ;
#12=(LENGTH_UNIT()NAMED_UNIT(*)SI_UNIT(.MILLI.,.METRE.)) ;
#13=(NAMED_UNIT(*)PLANE_ANGLE_UNIT()SI_UNIT($,.RADIAN.)) ;
#14=(NAMED_UNIT(*)SI_UNIT($,.STERADIAN.)SOLID_ANGLE_UNIT()) ;
#16=(GEOMETRIC_REPRESENTATION_CONTEXT(3)GLOBAL_UNCERTAINTY_ASSIGNED_CONTEXT((#15))GLOBAL_UNIT_ASSIGNED_CONTEXT((#12,#13,#14))REPRESENTATION_CONTEXT(' ',' ')) ;
ENDSEC;
END-ISO-10303-21;
