ISO-10303-21;
HEADER;
FILE_DESCRIPTION(('CATIA V5 STEP Exchange','CAx-IF Rec.Pracs.--- Model Styling and Organization---1.4--- 2014-01-23'),'2;1');

FILE_NAME ('001168-2_0_0194300000_0194300000_S.stp','2021-05-07T11:49:06+00:00',('none'),('Weidmueller'),'CATIA Version 5-6 Release 2016 SP3 HF44','CATIA V5 STEP AP214','none');

FILE_SCHEMA(('AUTOMOTIVE_DESIGN { 1 0 10303 214 1 1 1 1 }'));

ENDSEC;
DATA;
#5=PRODUCT('CATPart8','','',(#2)) ;
#2=PRODUCT_CONTEXT(' ',#1,'mechanical') ;
#1=APPLICATION_CONTEXT('automotive design') ;
#10=PRODUCT_DEFINITION('',' ',#6,#3) ;
#3=PRODUCT_DEFINITION_CONTEXT('part definition',#1,' ') ;
#11=PRODUCT_DEFINITION_SHAPE(' ',' ',#10) ;
#483=MECHANICAL_DESIGN_GEOMETRIC_PRESENTATION_REPRESENTATION(' ',(#29),#16) ;
#484=MECHANICAL_DESIGN_GEOMETRIC_PRESENTATION_REPRESENTATION(' ',(#480),#16) ;
#19=SHAPE_REPRESENTATION(' ',(#18),#16) ;
#18=AXIS2_PLACEMENT_3D(' ',#17,$,$) ;
#35=AXIS2_PLACEMENT_3D('Plane Axis2P3D',#32,#33,#34) ;
#75=AXIS2_PLACEMENT_3D('Plane Axis2P3D',#72,#73,#74) ;
#106=AXIS2_PLACEMENT_3D('Plane Axis2P3D',#103,#104,#105) ;
#128=AXIS2_PLACEMENT_3D('Circle Axis2P3D',#126,#127,$) ;
#137=AXIS2_PLACEMENT_3D('Circle Axis2P3D',#135,#136,$) ;
#151=AXIS2_PLACEMENT_3D('Circle Axis2P3D',#149,#150,$) ;
#179=AXIS2_PLACEMENT_3D('Circle Axis2P3D',#177,#178,$) ;
#193=AXIS2_PLACEMENT_3D('Circle Axis2P3D',#191,#192,$) ;
#206=AXIS2_PLACEMENT_3D('Plane Axis2P3D',#203,#204,#205) ;
#230=AXIS2_PLACEMENT_3D('Plane Axis2P3D',#227,#228,#229) ;
#254=AXIS2_PLACEMENT_3D('Circle Axis2P3D',#252,#253,$) ;
#268=AXIS2_PLACEMENT_3D('Circle Axis2P3D',#266,#267,$) ;
#275=AXIS2_PLACEMENT_3D('Circle Axis2P3D',#273,#274,$) ;
#287=AXIS2_PLACEMENT_3D('Circle Axis2P3D',#285,#286,$) ;
#303=AXIS2_PLACEMENT_3D('Circle Axis2P3D',#301,#302,$) ;
#323=AXIS2_PLACEMENT_3D('Plane Axis2P3D',#320,#321,#322) ;
#335=AXIS2_PLACEMENT_3D('Cylinder Axis2P3D',#332,#333,#334) ;
#357=AXIS2_PLACEMENT_3D('Plane Axis2P3D',#354,#355,#356) ;
#374=AXIS2_PLACEMENT_3D('Plane Axis2P3D',#371,#372,#373) ;
#391=AXIS2_PLACEMENT_3D('Cylinder Axis2P3D',#388,#389,#390) ;
#403=AXIS2_PLACEMENT_3D('Cylinder Axis2P3D',#400,#401,#402) ;
#425=AXIS2_PLACEMENT_3D('Cylinder Axis2P3D',#422,#423,#424) ;
#475=AXIS2_PLACEMENT_3D('Axis System.1',#472,#473,#474) ;
#17=CARTESIAN_POINT(' ',(0.,0.,0.)) ;
#32=CARTESIAN_POINT('Axis2P3D Location',(0.,0.,0.)) ;
#37=CARTESIAN_POINT('Line Origine',(0.,0.,0.5)) ;
#41=CARTESIAN_POINT('Vertex',(0.,0.,0.)) ;
#43=CARTESIAN_POINT('Vertex',(0.,0.,1.)) ;
#46=CARTESIAN_POINT('Line Origine',(6.95,0.,0.)) ;
#50=CARTESIAN_POINT('Vertex',(13.9,0.,0.)) ;
#53=CARTESIAN_POINT('Line Origine',(13.9,0.,0.5)) ;
#57=CARTESIAN_POINT('Vertex',(13.9,0.,1.)) ;
#60=CARTESIAN_POINT('Line Origine',(6.95,0.,1.)) ;
#72=CARTESIAN_POINT('Axis2P3D Location',(0.,6.,0.)) ;
#77=CARTESIAN_POINT('Line Origine',(0.,6.,0.5)) ;
#81=CARTESIAN_POINT('Vertex',(0.,6.,0.)) ;
#83=CARTESIAN_POINT('Vertex',(0.,6.,1.)) ;
#86=CARTESIAN_POINT('Line Origine',(0.,3.,0.)) ;
#91=CARTESIAN_POINT('Line Origine',(0.,3.,1.)) ;
#103=CARTESIAN_POINT('Axis2P3D Location',(0.,0.,0.)) ;
#108=CARTESIAN_POINT('Line Origine',(6.95,6.,0.)) ;
#112=CARTESIAN_POINT('Vertex',(13.9,6.,0.)) ;
#115=CARTESIAN_POINT('Line Origine',(13.9,3.,0.)) ;
#126=CARTESIAN_POINT('Axis2P3D Location',(3.,3.,0.)) ;
#130=CARTESIAN_POINT('Vertex',(4.4437364718,1.475,0.)) ;
#132=CARTESIAN_POINT('Vertex',(5.1,3.,0.)) ;
#135=CARTESIAN_POINT('Axis2P3D Location',(3.,3.,0.)) ;
#139=CARTESIAN_POINT('Vertex',(4.4437364718,4.525,0.)) ;
#142=CARTESIAN_POINT('Line Origine',(3.,4.525,0.)) ;
#146=CARTESIAN_POINT('Vertex',(1.5562635282,4.525,0.)) ;
#149=CARTESIAN_POINT('Axis2P3D Location',(3.,3.,0.)) ;
#153=CARTESIAN_POINT('Vertex',(1.5562635282,1.475,0.)) ;
#156=CARTESIAN_POINT('Line Origine',(3.,1.475,0.)) ;
#168=CARTESIAN_POINT('Line Origine',(10.9,4.525,0.)) ;
#172=CARTESIAN_POINT('Vertex',(12.3437364718,4.525,0.)) ;
#174=CARTESIAN_POINT('Vertex',(9.4562635282,4.525,0.)) ;
#177=CARTESIAN_POINT('Axis2P3D Location',(10.9,3.,0.)) ;
#181=CARTESIAN_POINT('Vertex',(9.4562635282,1.475,0.)) ;
#184=CARTESIAN_POINT('Line Origine',(10.9,1.475,0.)) ;
#188=CARTESIAN_POINT('Vertex',(12.3437364718,1.475,0.)) ;
#191=CARTESIAN_POINT('Axis2P3D Location',(10.9,3.,0.)) ;
#203=CARTESIAN_POINT('Axis2P3D Location',(13.9,-2.55002532011E-015,0.)) ;
#208=CARTESIAN_POINT('Line Origine',(13.9,6.,0.5)) ;
#212=CARTESIAN_POINT('Vertex',(13.9,6.,1.)) ;
#215=CARTESIAN_POINT('Line Origine',(13.9,3.,1.)) ;
#227=CARTESIAN_POINT('Axis2P3D Location',(0.,0.,1.)) ;
#232=CARTESIAN_POINT('Line Origine',(6.95,6.,1.)) ;
#243=CARTESIAN_POINT('Line Origine',(3.,1.475,1.)) ;
#247=CARTESIAN_POINT('Vertex',(1.5562635282,1.475,1.)) ;
#249=CARTESIAN_POINT('Vertex',(4.4437364718,1.475,1.)) ;
#252=CARTESIAN_POINT('Axis2P3D Location',(3.,3.,1.)) ;
#256=CARTESIAN_POINT('Vertex',(1.5562635282,4.525,1.)) ;
#259=CARTESIAN_POINT('Line Origine',(3.,4.525,1.)) ;
#263=CARTESIAN_POINT('Vertex',(4.4437364718,4.525,1.)) ;
#266=CARTESIAN_POINT('Axis2P3D Location',(3.,3.,1.)) ;
#270=CARTESIAN_POINT('Vertex',(5.1,3.,1.)) ;
#273=CARTESIAN_POINT('Axis2P3D Location',(3.,3.,1.)) ;
#285=CARTESIAN_POINT('Axis2P3D Location',(10.9,3.,1.)) ;
#289=CARTESIAN_POINT('Vertex',(12.3437364718,1.475,1.)) ;
#291=CARTESIAN_POINT('Vertex',(12.3437364718,4.525,1.)) ;
#294=CARTESIAN_POINT('Line Origine',(10.9,1.475,1.)) ;
#298=CARTESIAN_POINT('Vertex',(9.4562635282,1.475,1.)) ;
#301=CARTESIAN_POINT('Axis2P3D Location',(10.9,3.,1.)) ;
#305=CARTESIAN_POINT('Vertex',(9.4562635282,4.525,1.)) ;
#308=CARTESIAN_POINT('Line Origine',(10.9,4.525,1.)) ;
#320=CARTESIAN_POINT('Axis2P3D Location',(13.9,6.,0.)) ;
#332=CARTESIAN_POINT('Axis2P3D Location',(10.9,3.,0.5)) ;
#337=CARTESIAN_POINT('Line Origine',(9.4562635282,1.475,0.5)) ;
#342=CARTESIAN_POINT('Line Origine',(9.4562635282,4.525,0.5)) ;
#354=CARTESIAN_POINT('Axis2P3D Location',(1.5562635282,4.525,0.)) ;
#359=CARTESIAN_POINT('Line Origine',(12.3437364718,4.525,0.5)) ;
#371=CARTESIAN_POINT('Axis2P3D Location',(1.5562635282,1.475,0.)) ;
#376=CARTESIAN_POINT('Line Origine',(12.3437364718,1.475,0.5)) ;
#388=CARTESIAN_POINT('Axis2P3D Location',(10.9,3.,0.5)) ;
#400=CARTESIAN_POINT('Axis2P3D Location',(3.,3.,0.5)) ;
#405=CARTESIAN_POINT('Line Origine',(4.4437364718,4.525,0.5)) ;
#410=CARTESIAN_POINT('Line Origine',(5.1,3.,0.5)) ;
#422=CARTESIAN_POINT('Axis2P3D Location',(3.,3.,0.5)) ;
#427=CARTESIAN_POINT('Line Origine',(4.4437364718,1.475,0.5)) ;
#439=CARTESIAN_POINT('Line Origine',(1.5562635282,4.525,0.5)) ;
#451=CARTESIAN_POINT('Line Origine',(1.5562635282,1.475,0.5)) ;
#472=CARTESIAN_POINT('Axis2P3D Location',(0.,0.,0.)) ;
#33=DIRECTION('Axis2P3D Direction',(0.,-1.,0.)) ;
#34=DIRECTION('Axis2P3D XDirection',(1.,0.,0.)) ;
#38=DIRECTION('Vector Direction',(0.,0.,1.)) ;
#47=DIRECTION('Vector Direction',(1.,0.,0.)) ;
#54=DIRECTION('Vector Direction',(0.,0.,1.)) ;
#61=DIRECTION('Vector Direction',(1.,0.,0.)) ;
#73=DIRECTION('Axis2P3D Direction',(-1.,0.,0.)) ;
#74=DIRECTION('Axis2P3D XDirection',(0.,-1.,0.)) ;
#78=DIRECTION('Vector Direction',(0.,0.,1.)) ;
#87=DIRECTION('Vector Direction',(0.,-1.,0.)) ;
#92=DIRECTION('Vector Direction',(0.,-1.,0.)) ;
#104=DIRECTION('Axis2P3D Direction',(0.,0.,1.)) ;
#105=DIRECTION('Axis2P3D XDirection',(1.,0.,0.)) ;
#109=DIRECTION('Vector Direction',(-1.,0.,0.)) ;
#116=DIRECTION('Vector Direction',(0.,1.,0.)) ;
#127=DIRECTION('Axis2P3D Direction',(0.,0.,1.)) ;
#136=DIRECTION('Axis2P3D Direction',(0.,0.,1.)) ;
#143=DIRECTION('Vector Direction',(1.,0.,0.)) ;
#150=DIRECTION('Axis2P3D Direction',(0.,0.,1.)) ;
#157=DIRECTION('Vector Direction',(1.,0.,0.)) ;
#169=DIRECTION('Vector Direction',(1.,0.,0.)) ;
#178=DIRECTION('Axis2P3D Direction',(0.,0.,1.)) ;
#185=DIRECTION('Vector Direction',(1.,0.,0.)) ;
#192=DIRECTION('Axis2P3D Direction',(0.,0.,1.)) ;
#204=DIRECTION('Axis2P3D Direction',(1.,0.,0.)) ;
#205=DIRECTION('Axis2P3D XDirection',(0.,1.,0.)) ;
#209=DIRECTION('Vector Direction',(0.,0.,1.)) ;
#216=DIRECTION('Vector Direction',(0.,1.,0.)) ;
#228=DIRECTION('Axis2P3D Direction',(0.,0.,1.)) ;
#229=DIRECTION('Axis2P3D XDirection',(1.,0.,0.)) ;
#233=DIRECTION('Vector Direction',(-1.,0.,0.)) ;
#244=DIRECTION('Vector Direction',(1.,0.,0.)) ;
#253=DIRECTION('Axis2P3D Direction',(0.,0.,1.)) ;
#260=DIRECTION('Vector Direction',(1.,0.,0.)) ;
#267=DIRECTION('Axis2P3D Direction',(0.,0.,1.)) ;
#274=DIRECTION('Axis2P3D Direction',(0.,0.,1.)) ;
#286=DIRECTION('Axis2P3D Direction',(0.,0.,1.)) ;
#295=DIRECTION('Vector Direction',(1.,0.,0.)) ;
#302=DIRECTION('Axis2P3D Direction',(0.,0.,1.)) ;
#309=DIRECTION('Vector Direction',(1.,0.,0.)) ;
#321=DIRECTION('Axis2P3D Direction',(0.,1.,-0.)) ;
#322=DIRECTION('Axis2P3D XDirection',(-1.,0.,0.)) ;
#333=DIRECTION('Axis2P3D Direction',(0.,0.,1.)) ;
#334=DIRECTION('Axis2P3D XDirection',(-0.687493557999,0.72619047619,0.)) ;
#338=DIRECTION('Vector Direction',(0.,0.,1.)) ;
#343=DIRECTION('Vector Direction',(0.,0.,1.)) ;
#355=DIRECTION('Axis2P3D Direction',(0.,-1.,0.)) ;
#356=DIRECTION('Axis2P3D XDirection',(1.,0.,0.)) ;
#360=DIRECTION('Vector Direction',(0.,0.,1.)) ;
#372=DIRECTION('Axis2P3D Direction',(0.,-1.,0.)) ;
#373=DIRECTION('Axis2P3D XDirection',(1.,0.,0.)) ;
#377=DIRECTION('Vector Direction',(0.,0.,1.)) ;
#389=DIRECTION('Axis2P3D Direction',(0.,0.,1.)) ;
#390=DIRECTION('Axis2P3D XDirection',(0.687493557999,-0.72619047619,0.)) ;
#401=DIRECTION('Axis2P3D Direction',(0.,0.,1.)) ;
#402=DIRECTION('Axis2P3D XDirection',(1.,0.,0.)) ;
#406=DIRECTION('Vector Direction',(0.,0.,1.)) ;
#411=DIRECTION('Vector Direction',(0.,0.,1.)) ;
#423=DIRECTION('Axis2P3D Direction',(0.,0.,1.)) ;
#424=DIRECTION('Axis2P3D XDirection',(-0.687493557999,0.72619047619,0.)) ;
#428=DIRECTION('Vector Direction',(0.,0.,1.)) ;
#440=DIRECTION('Vector Direction',(0.,0.,1.)) ;
#452=DIRECTION('Vector Direction',(0.,0.,1.)) ;
#473=DIRECTION('Axis2P3D Direction',(0.,0.,1.)) ;
#474=DIRECTION('Axis2P3D XDirection',(1.,0.,0.)) ;
#30=PRESENTATION_LAYER_ASSIGNMENT('1',' ',(#21)) ;
#8=PRODUCT_RELATED_PRODUCT_CATEGORY('part',$,(#5)) ;
#7=PRODUCT_CATEGORY('part','specification') ;
#29=STYLED_ITEM(' ',(#28),#21) ;
#480=STYLED_ITEM(' ',(#479),#475) ;
#28=PRESENTATION_STYLE_ASSIGNMENT((#27)) ;
#479=PRESENTATION_STYLE_ASSIGNMENT((#478)) ;
#478=CURVE_STYLE(' ',#476,POSITIVE_LENGTH_MEASURE(0.129999995232),#477) ;
#27=SURFACE_STYLE_USAGE(.BOTH.,#26) ;
#26=SURFACE_SIDE_STYLE(' ',(#25)) ;
#25=SURFACE_STYLE_FILL_AREA(#24) ;
#24=FILL_AREA_STYLE(' ',(#23)) ;
#23=FILL_AREA_STYLE_COLOUR(' ',#22) ;
#39=VECTOR('Line Direction',#38,1.) ;
#48=VECTOR('Line Direction',#47,1.) ;
#55=VECTOR('Line Direction',#54,1.) ;
#62=VECTOR('Line Direction',#61,1.) ;
#79=VECTOR('Line Direction',#78,1.) ;
#88=VECTOR('Line Direction',#87,1.) ;
#93=VECTOR('Line Direction',#92,1.) ;
#110=VECTOR('Line Direction',#109,1.) ;
#117=VECTOR('Line Direction',#116,1.) ;
#144=VECTOR('Line Direction',#143,1.) ;
#158=VECTOR('Line Direction',#157,1.) ;
#170=VECTOR('Line Direction',#169,1.) ;
#186=VECTOR('Line Direction',#185,1.) ;
#210=VECTOR('Line Direction',#209,1.) ;
#217=VECTOR('Line Direction',#216,1.) ;
#234=VECTOR('Line Direction',#233,1.) ;
#245=VECTOR('Line Direction',#244,1.) ;
#261=VECTOR('Line Direction',#260,1.) ;
#296=VECTOR('Line Direction',#295,1.) ;
#310=VECTOR('Line Direction',#309,1.) ;
#339=VECTOR('Line Direction',#338,1.) ;
#344=VECTOR('Line Direction',#343,1.) ;
#361=VECTOR('Line Direction',#360,1.) ;
#378=VECTOR('Line Direction',#377,1.) ;
#407=VECTOR('Line Direction',#406,1.) ;
#412=VECTOR('Line Direction',#411,1.) ;
#429=VECTOR('Line Direction',#428,1.) ;
#441=VECTOR('Line Direction',#440,1.) ;
#453=VECTOR('Line Direction',#452,1.) ;
#15=UNCERTAINTY_MEASURE_WITH_UNIT(LENGTH_MEASURE(0.005),#12,'distance_accuracy_value','CONFUSED CURVE UNCERTAINTY') ;
#471=SHAPE_REPRESENTATION_RELATIONSHIP(' ',' ',#19,#470) ;
#66=ORIENTED_EDGE('',*,*,#45,.F.) ;
#67=ORIENTED_EDGE('',*,*,#52,.T.) ;
#68=ORIENTED_EDGE('',*,*,#59,.T.) ;
#69=ORIENTED_EDGE('',*,*,#64,.F.) ;
#97=ORIENTED_EDGE('',*,*,#85,.F.) ;
#98=ORIENTED_EDGE('',*,*,#90,.T.) ;
#99=ORIENTED_EDGE('',*,*,#45,.T.) ;
#100=ORIENTED_EDGE('',*,*,#95,.F.) ;
#121=ORIENTED_EDGE('',*,*,#90,.F.) ;
#122=ORIENTED_EDGE('',*,*,#114,.F.) ;
#123=ORIENTED_EDGE('',*,*,#119,.F.) ;
#124=ORIENTED_EDGE('',*,*,#52,.F.) ;
#162=ORIENTED_EDGE('',*,*,#134,.T.) ;
#163=ORIENTED_EDGE('',*,*,#141,.T.) ;
#164=ORIENTED_EDGE('',*,*,#148,.T.) ;
#165=ORIENTED_EDGE('',*,*,#155,.T.) ;
#166=ORIENTED_EDGE('',*,*,#160,.T.) ;
#197=ORIENTED_EDGE('',*,*,#176,.T.) ;
#198=ORIENTED_EDGE('',*,*,#183,.T.) ;
#199=ORIENTED_EDGE('',*,*,#190,.T.) ;
#200=ORIENTED_EDGE('',*,*,#195,.T.) ;
#221=ORIENTED_EDGE('',*,*,#59,.F.) ;
#222=ORIENTED_EDGE('',*,*,#119,.T.) ;
#223=ORIENTED_EDGE('',*,*,#214,.T.) ;
#224=ORIENTED_EDGE('',*,*,#219,.F.) ;
#238=ORIENTED_EDGE('',*,*,#64,.T.) ;
#239=ORIENTED_EDGE('',*,*,#219,.T.) ;
#240=ORIENTED_EDGE('',*,*,#236,.T.) ;
#241=ORIENTED_EDGE('',*,*,#95,.T.) ;
#279=ORIENTED_EDGE('',*,*,#251,.F.) ;
#280=ORIENTED_EDGE('',*,*,#258,.F.) ;
#281=ORIENTED_EDGE('',*,*,#265,.F.) ;
#282=ORIENTED_EDGE('',*,*,#272,.F.) ;
#283=ORIENTED_EDGE('',*,*,#277,.F.) ;
#314=ORIENTED_EDGE('',*,*,#293,.F.) ;
#315=ORIENTED_EDGE('',*,*,#300,.F.) ;
#316=ORIENTED_EDGE('',*,*,#307,.F.) ;
#317=ORIENTED_EDGE('',*,*,#312,.F.) ;
#326=ORIENTED_EDGE('',*,*,#214,.F.) ;
#327=ORIENTED_EDGE('',*,*,#114,.T.) ;
#328=ORIENTED_EDGE('',*,*,#85,.T.) ;
#329=ORIENTED_EDGE('',*,*,#236,.F.) ;
#348=ORIENTED_EDGE('',*,*,#307,.T.) ;
#349=ORIENTED_EDGE('',*,*,#341,.F.) ;
#350=ORIENTED_EDGE('',*,*,#183,.F.) ;
#351=ORIENTED_EDGE('',*,*,#346,.T.) ;
#365=ORIENTED_EDGE('',*,*,#312,.T.) ;
#366=ORIENTED_EDGE('',*,*,#346,.F.) ;
#367=ORIENTED_EDGE('',*,*,#176,.F.) ;
#368=ORIENTED_EDGE('',*,*,#363,.T.) ;
#382=ORIENTED_EDGE('',*,*,#300,.T.) ;
#383=ORIENTED_EDGE('',*,*,#380,.F.) ;
#384=ORIENTED_EDGE('',*,*,#190,.F.) ;
#385=ORIENTED_EDGE('',*,*,#341,.T.) ;
#394=ORIENTED_EDGE('',*,*,#293,.T.) ;
#395=ORIENTED_EDGE('',*,*,#363,.F.) ;
#396=ORIENTED_EDGE('',*,*,#195,.F.) ;
#397=ORIENTED_EDGE('',*,*,#380,.T.) ;
#416=ORIENTED_EDGE('',*,*,#272,.T.) ;
#417=ORIENTED_EDGE('',*,*,#409,.F.) ;
#418=ORIENTED_EDGE('',*,*,#141,.F.) ;
#419=ORIENTED_EDGE('',*,*,#414,.T.) ;
#433=ORIENTED_EDGE('',*,*,#277,.T.) ;
#434=ORIENTED_EDGE('',*,*,#414,.F.) ;
#435=ORIENTED_EDGE('',*,*,#134,.F.) ;
#436=ORIENTED_EDGE('',*,*,#431,.T.) ;
#445=ORIENTED_EDGE('',*,*,#265,.T.) ;
#446=ORIENTED_EDGE('',*,*,#443,.F.) ;
#447=ORIENTED_EDGE('',*,*,#148,.F.) ;
#448=ORIENTED_EDGE('',*,*,#409,.T.) ;
#457=ORIENTED_EDGE('',*,*,#251,.T.) ;
#458=ORIENTED_EDGE('',*,*,#431,.F.) ;
#459=ORIENTED_EDGE('',*,*,#160,.F.) ;
#460=ORIENTED_EDGE('',*,*,#455,.T.) ;
#464=ORIENTED_EDGE('',*,*,#258,.T.) ;
#465=ORIENTED_EDGE('',*,*,#455,.F.) ;
#466=ORIENTED_EDGE('',*,*,#155,.F.) ;
#467=ORIENTED_EDGE('',*,*,#443,.T.) ;
#167=FACE_BOUND('',#161,.T.) ;
#201=FACE_BOUND('',#196,.T.) ;
#284=FACE_BOUND('',#278,.T.) ;
#318=FACE_BOUND('',#313,.T.) ;
#31=CLOSED_SHELL('Closed Shell',(#71,#102,#202,#226,#319,#331,#353,#370,#387,#399,#421,#438,#450,#462,#469)) ;
#470=ADVANCED_BREP_SHAPE_REPRESENTATION('NONE',(#21),#16) ;
#71=ADVANCED_FACE('Body.3',(#70),#36,.T.) ;
#102=ADVANCED_FACE('Body.3',(#101),#76,.T.) ;
#202=ADVANCED_FACE('Body.3',(#125,#167,#201),#107,.F.) ;
#226=ADVANCED_FACE('Body.3',(#225),#207,.T.) ;
#319=ADVANCED_FACE('Body.3',(#242,#284,#318),#231,.T.) ;
#331=ADVANCED_FACE('Body.3',(#330),#324,.T.) ;
#353=ADVANCED_FACE('Body.3',(#352),#336,.F.) ;
#370=ADVANCED_FACE('Body.3',(#369),#358,.T.) ;
#387=ADVANCED_FACE('Body.3',(#386),#375,.F.) ;
#399=ADVANCED_FACE('Body.3',(#398),#392,.F.) ;
#421=ADVANCED_FACE('Body.3',(#420),#404,.F.) ;
#438=ADVANCED_FACE('Body.3',(#437),#426,.F.) ;
#450=ADVANCED_FACE('Body.3',(#449),#358,.T.) ;
#462=ADVANCED_FACE('Body.3',(#461),#375,.F.) ;
#469=ADVANCED_FACE('Body.3',(#468),#426,.F.) ;
#4=APPLICATION_PROTOCOL_DEFINITION('international standard','automotive_design',2001,#1) ;
#21=MANIFOLD_SOLID_BREP('Body.3',#31) ;
#129=CIRCLE('generated circle',#128,2.1) ;
#138=CIRCLE('generated circle',#137,2.1) ;
#152=CIRCLE('generated circle',#151,2.1) ;
#180=CIRCLE('generated circle',#179,2.1) ;
#194=CIRCLE('generated circle',#193,2.1) ;
#255=CIRCLE('generated circle',#254,2.1) ;
#269=CIRCLE('generated circle',#268,2.1) ;
#276=CIRCLE('generated circle',#275,2.1) ;
#288=CIRCLE('generated circle',#287,2.1) ;
#304=CIRCLE('generated circle',#303,2.1) ;
#22=COLOUR_RGB('Colour',0.823529411765,0.823529411765,1.) ;
#481=CONSTRUCTIVE_GEOMETRY_REPRESENTATION('supplemental geometry',(#475),#16) ;
#482=CONSTRUCTIVE_GEOMETRY_REPRESENTATION_RELATIONSHIP('supplemental geometry','',#19,#481) ;
#336=CYLINDRICAL_SURFACE('generated cylinder',#335,2.1) ;
#392=CYLINDRICAL_SURFACE('generated cylinder',#391,2.1) ;
#404=CYLINDRICAL_SURFACE('generated cylinder',#403,2.1) ;
#426=CYLINDRICAL_SURFACE('generated cylinder',#425,2.1) ;
#477=DRAUGHTING_PRE_DEFINED_COLOUR('white') ;
#476=DRAUGHTING_PRE_DEFINED_CURVE_FONT('continuous') ;
#45=EDGE_CURVE('',#42,#44,#40,.T.) ;
#52=EDGE_CURVE('',#42,#51,#49,.T.) ;
#59=EDGE_CURVE('',#51,#58,#56,.T.) ;
#64=EDGE_CURVE('',#44,#58,#63,.T.) ;
#85=EDGE_CURVE('',#82,#84,#80,.T.) ;
#90=EDGE_CURVE('',#82,#42,#89,.T.) ;
#95=EDGE_CURVE('',#84,#44,#94,.T.) ;
#114=EDGE_CURVE('',#113,#82,#111,.T.) ;
#119=EDGE_CURVE('',#51,#113,#118,.T.) ;
#134=EDGE_CURVE('',#131,#133,#129,.T.) ;
#141=EDGE_CURVE('',#133,#140,#138,.T.) ;
#148=EDGE_CURVE('',#140,#147,#145,.F.) ;
#155=EDGE_CURVE('',#147,#154,#152,.T.) ;
#160=EDGE_CURVE('',#154,#131,#159,.T.) ;
#176=EDGE_CURVE('',#173,#175,#171,.F.) ;
#183=EDGE_CURVE('',#175,#182,#180,.T.) ;
#190=EDGE_CURVE('',#182,#189,#187,.T.) ;
#195=EDGE_CURVE('',#189,#173,#194,.T.) ;
#214=EDGE_CURVE('',#113,#213,#211,.T.) ;
#219=EDGE_CURVE('',#58,#213,#218,.T.) ;
#236=EDGE_CURVE('',#213,#84,#235,.T.) ;
#251=EDGE_CURVE('',#248,#250,#246,.T.) ;
#258=EDGE_CURVE('',#257,#248,#255,.T.) ;
#265=EDGE_CURVE('',#264,#257,#262,.F.) ;
#272=EDGE_CURVE('',#271,#264,#269,.T.) ;
#277=EDGE_CURVE('',#250,#271,#276,.T.) ;
#293=EDGE_CURVE('',#290,#292,#288,.T.) ;
#300=EDGE_CURVE('',#299,#290,#297,.T.) ;
#307=EDGE_CURVE('',#306,#299,#304,.T.) ;
#312=EDGE_CURVE('',#292,#306,#311,.F.) ;
#341=EDGE_CURVE('',#182,#299,#340,.T.) ;
#346=EDGE_CURVE('',#175,#306,#345,.T.) ;
#363=EDGE_CURVE('',#173,#292,#362,.T.) ;
#380=EDGE_CURVE('',#189,#290,#379,.T.) ;
#409=EDGE_CURVE('',#140,#264,#408,.T.) ;
#414=EDGE_CURVE('',#133,#271,#413,.T.) ;
#431=EDGE_CURVE('',#131,#250,#430,.T.) ;
#443=EDGE_CURVE('',#147,#257,#442,.T.) ;
#455=EDGE_CURVE('',#154,#248,#454,.T.) ;
#65=EDGE_LOOP('',(#66,#67,#68,#69)) ;
#96=EDGE_LOOP('',(#97,#98,#99,#100)) ;
#120=EDGE_LOOP('',(#121,#122,#123,#124)) ;
#161=EDGE_LOOP('',(#162,#163,#164,#165,#166)) ;
#196=EDGE_LOOP('',(#197,#198,#199,#200)) ;
#220=EDGE_LOOP('',(#221,#222,#223,#224)) ;
#237=EDGE_LOOP('',(#238,#239,#240,#241)) ;
#278=EDGE_LOOP('',(#279,#280,#281,#282,#283)) ;
#313=EDGE_LOOP('',(#314,#315,#316,#317)) ;
#325=EDGE_LOOP('',(#326,#327,#328,#329)) ;
#347=EDGE_LOOP('',(#348,#349,#350,#351)) ;
#364=EDGE_LOOP('',(#365,#366,#367,#368)) ;
#381=EDGE_LOOP('',(#382,#383,#384,#385)) ;
#393=EDGE_LOOP('',(#394,#395,#396,#397)) ;
#415=EDGE_LOOP('',(#416,#417,#418,#419)) ;
#432=EDGE_LOOP('',(#433,#434,#435,#436)) ;
#444=EDGE_LOOP('',(#445,#446,#447,#448)) ;
#456=EDGE_LOOP('',(#457,#458,#459,#460)) ;
#463=EDGE_LOOP('',(#464,#465,#466,#467)) ;
#70=FACE_OUTER_BOUND('',#65,.T.) ;
#101=FACE_OUTER_BOUND('',#96,.T.) ;
#125=FACE_OUTER_BOUND('',#120,.T.) ;
#225=FACE_OUTER_BOUND('',#220,.T.) ;
#242=FACE_OUTER_BOUND('',#237,.T.) ;
#330=FACE_OUTER_BOUND('',#325,.T.) ;
#352=FACE_OUTER_BOUND('',#347,.T.) ;
#369=FACE_OUTER_BOUND('',#364,.T.) ;
#386=FACE_OUTER_BOUND('',#381,.T.) ;
#398=FACE_OUTER_BOUND('',#393,.T.) ;
#420=FACE_OUTER_BOUND('',#415,.T.) ;
#437=FACE_OUTER_BOUND('',#432,.T.) ;
#449=FACE_OUTER_BOUND('',#444,.T.) ;
#461=FACE_OUTER_BOUND('',#456,.T.) ;
#468=FACE_OUTER_BOUND('',#463,.T.) ;
#40=LINE('Line',#37,#39) ;
#49=LINE('Line',#46,#48) ;
#56=LINE('Line',#53,#55) ;
#63=LINE('Line',#60,#62) ;
#80=LINE('Line',#77,#79) ;
#89=LINE('Line',#86,#88) ;
#94=LINE('Line',#91,#93) ;
#111=LINE('Line',#108,#110) ;
#118=LINE('Line',#115,#117) ;
#145=LINE('Line',#142,#144) ;
#159=LINE('Line',#156,#158) ;
#171=LINE('Line',#168,#170) ;
#187=LINE('Line',#184,#186) ;
#211=LINE('Line',#208,#210) ;
#218=LINE('Line',#215,#217) ;
#235=LINE('Line',#232,#234) ;
#246=LINE('Line',#243,#245) ;
#262=LINE('Line',#259,#261) ;
#297=LINE('Line',#294,#296) ;
#311=LINE('Line',#308,#310) ;
#340=LINE('Line',#337,#339) ;
#345=LINE('Line',#342,#344) ;
#362=LINE('Line',#359,#361) ;
#379=LINE('Line',#376,#378) ;
#408=LINE('Line',#405,#407) ;
#413=LINE('Line',#410,#412) ;
#430=LINE('Line',#427,#429) ;
#442=LINE('Line',#439,#441) ;
#454=LINE('Line',#451,#453) ;
#36=PLANE('',#35) ;
#76=PLANE('',#75) ;
#107=PLANE('',#106) ;
#207=PLANE('',#206) ;
#231=PLANE('',#230) ;
#324=PLANE('',#323) ;
#358=PLANE('',#357) ;
#375=PLANE('',#374) ;
#9=PRODUCT_CATEGORY_RELATIONSHIP(' ',' ',#7,#8) ;
#6=PRODUCT_DEFINITION_FORMATION_WITH_SPECIFIED_SOURCE('',' ',#5,.NOT_KNOWN.) ;
#20=SHAPE_DEFINITION_REPRESENTATION(#11,#19) ;
#42=VERTEX_POINT('',#41) ;
#44=VERTEX_POINT('',#43) ;
#51=VERTEX_POINT('',#50) ;
#58=VERTEX_POINT('',#57) ;
#82=VERTEX_POINT('',#81) ;
#84=VERTEX_POINT('',#83) ;
#113=VERTEX_POINT('',#112) ;
#131=VERTEX_POINT('',#130) ;
#133=VERTEX_POINT('',#132) ;
#140=VERTEX_POINT('',#139) ;
#147=VERTEX_POINT('',#146) ;
#154=VERTEX_POINT('',#153) ;
#173=VERTEX_POINT('',#172) ;
#175=VERTEX_POINT('',#174) ;
#182=VERTEX_POINT('',#181) ;
#189=VERTEX_POINT('',#188) ;
#213=VERTEX_POINT('',#212) ;
#248=VERTEX_POINT('',#247) ;
#250=VERTEX_POINT('',#249) ;
#257=VERTEX_POINT('',#256) ;
#264=VERTEX_POINT('',#263) ;
#271=VERTEX_POINT('',#270) ;
#290=VERTEX_POINT('',#289) ;
#292=VERTEX_POINT('',#291) ;
#299=VERTEX_POINT('',#298) ;
#306=VERTEX_POINT('',#305) ;
#12=(LENGTH_UNIT()NAMED_UNIT(*)SI_UNIT(.MILLI.,.METRE.)) ;
#13=(NAMED_UNIT(*)PLANE_ANGLE_UNIT()SI_UNIT($,.RADIAN.)) ;
#14=(NAMED_UNIT(*)SI_UNIT($,.STERADIAN.)SOLID_ANGLE_UNIT()) ;
#16=(GEOMETRIC_REPRESENTATION_CONTEXT(3)GLOBAL_UNCERTAINTY_ASSIGNED_CONTEXT((#15))GLOBAL_UNIT_ASSIGNED_CONTEXT((#12,#13,#14))REPRESENTATION_CONTEXT(' ',' ')) ;
ENDSEC;
END-ISO-10303-21;
