ISO-10303-21;
HEADER;
FILE_DESCRIPTION(('CATIA V5R24 STEP','CAx-IF Rec.Pracs.--- Model Styling and Organization---1.2---2011-12-15'),'2;1');

FILE_NAME ('D1455431_0', '2015-12-02T09:31:29+00:00', ('Weidmueller Interface'), ('Weidmueller'), 'CATIA Version 5-6 Release 2014 SP4', 'CATIA V5 STEP AP214', 'none');

FILE_SCHEMA(('AUTOMOTIVE_DESIGN { 1 0 10303 214 1 1 1 1 }'));

ENDSEC;
DATA;
#5=PRODUCT('THM MT30X 26/10','','',(#2)) ;
#2=PRODUCT_CONTEXT(' ',#1,'mechanical') ;
#1=APPLICATION_CONTEXT('automotive design') ;
#10=PRODUCT_DEFINITION('',' ',#6,#3) ;
#3=PRODUCT_DEFINITION_CONTEXT('part definition',#1,' ') ;
#11=PRODUCT_DEFINITION_SHAPE(' ',' ',#10) ;
#195=MECHANICAL_DESIGN_GEOMETRIC_PRESENTATION_REPRESENTATION(' ',(#79,#111,#136,#161,#179,#192,#29),#16) ;
#19=SHAPE_REPRESENTATION(' ',(#18),#16) ;
#18=AXIS2_PLACEMENT_3D(' ',#17,$,$) ;
#35=AXIS2_PLACEMENT_3D('Plane Axis2P3D',#32,#33,#34) ;
#83=AXIS2_PLACEMENT_3D('Plane Axis2P3D',#80,#81,#82) ;
#115=AXIS2_PLACEMENT_3D('Plane Axis2P3D',#112,#113,#114) ;
#140=AXIS2_PLACEMENT_3D('Plane Axis2P3D',#137,#138,#139) ;
#165=AXIS2_PLACEMENT_3D('Plane Axis2P3D',#162,#163,#164) ;
#183=AXIS2_PLACEMENT_3D('Plane Axis2P3D',#180,#181,#182) ;
#17=CARTESIAN_POINT(' ',(0.,0.,0.)) ;
#32=CARTESIAN_POINT('Axis2P3D Location',(-1.55431223448E-015,10.,0.)) ;
#37=CARTESIAN_POINT('Line Origine',(-1.55431223448E-015,10.,0.0250000003725)) ;
#41=CARTESIAN_POINT('Vertex',(-1.55431223448E-015,10.,0.)) ;
#43=CARTESIAN_POINT('Vertex',(-1.55431223448E-015,10.,0.0500000007451)) ;
#46=CARTESIAN_POINT('Line Origine',(-1.55431223448E-015,5.,0.)) ;
#50=CARTESIAN_POINT('Vertex',(-1.55431223448E-015,0.,0.)) ;
#53=CARTESIAN_POINT('Line Origine',(-1.55431223448E-015,0.,0.0250000003725)) ;
#57=CARTESIAN_POINT('Vertex',(-1.55431223448E-015,0.,0.0500000007451)) ;
#60=CARTESIAN_POINT('Line Origine',(-1.55431223448E-015,5.,0.0500000007451)) ;
#80=CARTESIAN_POINT('Axis2P3D Location',(-1.55431223448E-015,10.,0.)) ;
#85=CARTESIAN_POINT('Line Origine',(26.,10.,0.0250000003725)) ;
#89=CARTESIAN_POINT('Vertex',(26.,10.,0.)) ;
#91=CARTESIAN_POINT('Vertex',(26.,10.,0.0500000007451)) ;
#94=CARTESIAN_POINT('Line Origine',(13.,10.,0.)) ;
#99=CARTESIAN_POINT('Line Origine',(13.,10.,0.0500000007451)) ;
#112=CARTESIAN_POINT('Axis2P3D Location',(0.,0.,0.)) ;
#117=CARTESIAN_POINT('Line Origine',(26.,5.,0.)) ;
#121=CARTESIAN_POINT('Vertex',(26.,-2.22044604925E-015,0.)) ;
#124=CARTESIAN_POINT('Line Origine',(13.,0.,0.)) ;
#137=CARTESIAN_POINT('Axis2P3D Location',(26.,-2.22044604925E-015,0.)) ;
#142=CARTESIAN_POINT('Line Origine',(26.,-2.22044604925E-015,0.0250000003725)) ;
#146=CARTESIAN_POINT('Vertex',(26.,-2.22044604925E-015,0.0500000007451)) ;
#149=CARTESIAN_POINT('Line Origine',(13.,-2.22044604925E-015,0.0500000007451)) ;
#162=CARTESIAN_POINT('Axis2P3D Location',(0.,0.,0.05)) ;
#167=CARTESIAN_POINT('Line Origine',(26.,5.,0.05)) ;
#180=CARTESIAN_POINT('Axis2P3D Location',(26.,0.,0.)) ;
#33=DIRECTION('Axis2P3D Direction',(-1.,0.,0.)) ;
#34=DIRECTION('Axis2P3D XDirection',(0.,-1.,0.)) ;
#38=DIRECTION('Vector Direction',(0.,0.,1.)) ;
#47=DIRECTION('Vector Direction',(0.,-1.,0.)) ;
#54=DIRECTION('Vector Direction',(0.,0.,1.)) ;
#61=DIRECTION('Vector Direction',(0.,-1.,0.)) ;
#81=DIRECTION('Axis2P3D Direction',(0.,-1.,0.)) ;
#82=DIRECTION('Axis2P3D XDirection',(1.,0.,0.)) ;
#86=DIRECTION('Vector Direction',(0.,0.,1.)) ;
#95=DIRECTION('Vector Direction',(1.,0.,0.)) ;
#100=DIRECTION('Vector Direction',(1.,0.,0.)) ;
#113=DIRECTION('Axis2P3D Direction',(0.,0.,1.)) ;
#114=DIRECTION('Axis2P3D XDirection',(1.,0.,0.)) ;
#118=DIRECTION('Vector Direction',(0.,1.,0.)) ;
#125=DIRECTION('Vector Direction',(-1.,0.,0.)) ;
#138=DIRECTION('Axis2P3D Direction',(0.,1.,-0.)) ;
#139=DIRECTION('Axis2P3D XDirection',(-1.,0.,0.)) ;
#143=DIRECTION('Vector Direction',(0.,0.,1.)) ;
#150=DIRECTION('Vector Direction',(-1.,0.,0.)) ;
#163=DIRECTION('Axis2P3D Direction',(0.,0.,1.)) ;
#164=DIRECTION('Axis2P3D XDirection',(1.,0.,0.)) ;
#168=DIRECTION('Vector Direction',(0.,1.,0.)) ;
#181=DIRECTION('Axis2P3D Direction',(1.,0.,0.)) ;
#182=DIRECTION('Axis2P3D XDirection',(0.,1.,0.)) ;
#30=PRESENTATION_LAYER_ASSIGNMENT('1',' ',(#21)) ;
#8=PRODUCT_RELATED_PRODUCT_CATEGORY('part',$,(#5)) ;
#7=PRODUCT_CATEGORY('part','specification') ;
#29=STYLED_ITEM(' ',(#28),#21) ;
#28=PRESENTATION_STYLE_ASSIGNMENT((#27)) ;
#78=PRESENTATION_STYLE_ASSIGNMENT((#77)) ;
#27=SURFACE_STYLE_USAGE(.BOTH.,#26) ;
#77=SURFACE_STYLE_USAGE(.BOTH.,#76) ;
#26=SURFACE_SIDE_STYLE(' ',(#25)) ;
#76=SURFACE_SIDE_STYLE(' ',(#75)) ;
#25=SURFACE_STYLE_FILL_AREA(#24) ;
#75=SURFACE_STYLE_FILL_AREA(#74) ;
#24=FILL_AREA_STYLE(' ',(#23)) ;
#74=FILL_AREA_STYLE(' ',(#73)) ;
#23=FILL_AREA_STYLE_COLOUR(' ',#22) ;
#73=FILL_AREA_STYLE_COLOUR(' ',#72) ;
#39=VECTOR('Line Direction',#38,1.) ;
#48=VECTOR('Line Direction',#47,1.) ;
#55=VECTOR('Line Direction',#54,1.) ;
#62=VECTOR('Line Direction',#61,1.) ;
#87=VECTOR('Line Direction',#86,1.) ;
#96=VECTOR('Line Direction',#95,1.) ;
#101=VECTOR('Line Direction',#100,1.) ;
#119=VECTOR('Line Direction',#118,1.) ;
#126=VECTOR('Line Direction',#125,1.) ;
#144=VECTOR('Line Direction',#143,1.) ;
#151=VECTOR('Line Direction',#150,1.) ;
#169=VECTOR('Line Direction',#168,1.) ;
#15=UNCERTAINTY_MEASURE_WITH_UNIT(LENGTH_MEASURE(0.005),#12,'distance_accuracy_value','CONFUSED CURVE UNCERTAINTY') ;
#194=SHAPE_REPRESENTATION_RELATIONSHIP(' ',' ',#19,#193) ;
#66=ORIENTED_EDGE('',*,*,#45,.F.) ;
#67=ORIENTED_EDGE('',*,*,#52,.T.) ;
#68=ORIENTED_EDGE('',*,*,#59,.T.) ;
#69=ORIENTED_EDGE('',*,*,#64,.F.) ;
#105=ORIENTED_EDGE('',*,*,#93,.F.) ;
#106=ORIENTED_EDGE('',*,*,#98,.T.) ;
#107=ORIENTED_EDGE('',*,*,#45,.T.) ;
#108=ORIENTED_EDGE('',*,*,#103,.F.) ;
#130=ORIENTED_EDGE('',*,*,#98,.F.) ;
#131=ORIENTED_EDGE('',*,*,#123,.F.) ;
#132=ORIENTED_EDGE('',*,*,#128,.F.) ;
#133=ORIENTED_EDGE('',*,*,#52,.F.) ;
#155=ORIENTED_EDGE('',*,*,#59,.F.) ;
#156=ORIENTED_EDGE('',*,*,#128,.T.) ;
#157=ORIENTED_EDGE('',*,*,#148,.T.) ;
#158=ORIENTED_EDGE('',*,*,#153,.F.) ;
#173=ORIENTED_EDGE('',*,*,#64,.T.) ;
#174=ORIENTED_EDGE('',*,*,#153,.T.) ;
#175=ORIENTED_EDGE('',*,*,#171,.T.) ;
#176=ORIENTED_EDGE('',*,*,#103,.T.) ;
#186=ORIENTED_EDGE('',*,*,#148,.F.) ;
#187=ORIENTED_EDGE('',*,*,#123,.T.) ;
#188=ORIENTED_EDGE('',*,*,#93,.T.) ;
#189=ORIENTED_EDGE('',*,*,#171,.F.) ;
#31=CLOSED_SHELL('Closed Shell',(#71,#110,#135,#160,#178,#191)) ;
#193=ADVANCED_BREP_SHAPE_REPRESENTATION('NONE',(#21),#16) ;
#71=ADVANCED_FACE('S3D',(#70),#36,.T.) ;
#110=ADVANCED_FACE('S3D',(#109),#84,.F.) ;
#135=ADVANCED_FACE('S3D',(#134),#116,.F.) ;
#160=ADVANCED_FACE('S3D',(#159),#141,.F.) ;
#178=ADVANCED_FACE('S3D',(#177),#166,.T.) ;
#191=ADVANCED_FACE('S3D',(#190),#184,.T.) ;
#4=APPLICATION_PROTOCOL_DEFINITION('international standard','automotive_design',2001,#1) ;
#21=MANIFOLD_SOLID_BREP('S3D',#31) ;
#22=COLOUR_RGB('Colour',0.823529411765,0.823529411765,1.) ;
#79=OVER_RIDING_STYLED_ITEM(' ',(#78),#71,#29) ;
#111=OVER_RIDING_STYLED_ITEM(' ',(#78),#110,#29) ;
#136=OVER_RIDING_STYLED_ITEM(' ',(#78),#135,#29) ;
#161=OVER_RIDING_STYLED_ITEM(' ',(#78),#160,#29) ;
#179=OVER_RIDING_STYLED_ITEM(' ',(#78),#178,#29) ;
#192=OVER_RIDING_STYLED_ITEM(' ',(#78),#191,#29) ;
#72=DRAUGHTING_PRE_DEFINED_COLOUR('yellow') ;
#45=EDGE_CURVE('',#42,#44,#40,.T.) ;
#52=EDGE_CURVE('',#42,#51,#49,.T.) ;
#59=EDGE_CURVE('',#51,#58,#56,.T.) ;
#64=EDGE_CURVE('',#44,#58,#63,.T.) ;
#93=EDGE_CURVE('',#90,#92,#88,.T.) ;
#98=EDGE_CURVE('',#90,#42,#97,.F.) ;
#103=EDGE_CURVE('',#92,#44,#102,.F.) ;
#123=EDGE_CURVE('',#122,#90,#120,.T.) ;
#128=EDGE_CURVE('',#51,#122,#127,.F.) ;
#148=EDGE_CURVE('',#122,#147,#145,.T.) ;
#153=EDGE_CURVE('',#58,#147,#152,.F.) ;
#171=EDGE_CURVE('',#147,#92,#170,.T.) ;
#65=EDGE_LOOP('',(#66,#67,#68,#69)) ;
#104=EDGE_LOOP('',(#105,#106,#107,#108)) ;
#129=EDGE_LOOP('',(#130,#131,#132,#133)) ;
#154=EDGE_LOOP('',(#155,#156,#157,#158)) ;
#172=EDGE_LOOP('',(#173,#174,#175,#176)) ;
#185=EDGE_LOOP('',(#186,#187,#188,#189)) ;
#70=FACE_OUTER_BOUND('',#65,.T.) ;
#109=FACE_OUTER_BOUND('',#104,.T.) ;
#134=FACE_OUTER_BOUND('',#129,.T.) ;
#159=FACE_OUTER_BOUND('',#154,.T.) ;
#177=FACE_OUTER_BOUND('',#172,.T.) ;
#190=FACE_OUTER_BOUND('',#185,.T.) ;
#40=LINE('Line',#37,#39) ;
#49=LINE('Line',#46,#48) ;
#56=LINE('Line',#53,#55) ;
#63=LINE('Line',#60,#62) ;
#88=LINE('Line',#85,#87) ;
#97=LINE('Line',#94,#96) ;
#102=LINE('Line',#99,#101) ;
#120=LINE('Line',#117,#119) ;
#127=LINE('Line',#124,#126) ;
#145=LINE('Line',#142,#144) ;
#152=LINE('Line',#149,#151) ;
#170=LINE('Line',#167,#169) ;
#36=PLANE('',#35) ;
#84=PLANE('',#83) ;
#116=PLANE('',#115) ;
#141=PLANE('',#140) ;
#166=PLANE('',#165) ;
#184=PLANE('',#183) ;
#9=PRODUCT_CATEGORY_RELATIONSHIP(' ',' ',#7,#8) ;
#6=PRODUCT_DEFINITION_FORMATION_WITH_SPECIFIED_SOURCE('',' ',#5,.BOUGHT.) ;
#20=SHAPE_DEFINITION_REPRESENTATION(#11,#19) ;
#42=VERTEX_POINT('',#41) ;
#44=VERTEX_POINT('',#43) ;
#51=VERTEX_POINT('',#50) ;
#58=VERTEX_POINT('',#57) ;
#90=VERTEX_POINT('',#89) ;
#92=VERTEX_POINT('',#91) ;
#122=VERTEX_POINT('',#121) ;
#147=VERTEX_POINT('',#146) ;
#12=(LENGTH_UNIT()NAMED_UNIT(*)SI_UNIT(.MILLI.,.METRE.)) ;
#13=(NAMED_UNIT(*)PLANE_ANGLE_UNIT()SI_UNIT($,.RADIAN.)) ;
#14=(NAMED_UNIT(*)SI_UNIT($,.STERADIAN.)SOLID_ANGLE_UNIT()) ;
#16=(GEOMETRIC_REPRESENTATION_CONTEXT(3)GLOBAL_UNCERTAINTY_ASSIGNED_CONTEXT((#15))GLOBAL_UNIT_ASSIGNED_CONTEXT((#12,#13,#14))REPRESENTATION_CONTEXT(' ',' ')) ;
ENDSEC;
END-ISO-10303-21;
