ISO-10303-21;
HEADER;
FILE_DESCRIPTION(('CATIA V5 STEP Exchange','CAx-IF Rec.Pracs.--- Model Styling and Organization---1.5--- 2016-08-15','CAx-IF Rec.Pracs.---Supplemental Geometry---1.0---2011-11-01','CAx-IF Rec.Pracs.--- Composite Materials ---1.1---2010-07-15'),'2;1');

FILE_NAME ('D1457565_0', '2025-09-22T05:25:30+00:00', ('none'), ('Weidmueller'), 'CATIA Version 5-6 Release 2024 SP4', 'CATIA V5 STEP AP214 v3', 'none');

FILE_SCHEMA(('AUTOMOTIVE_DESIGN { 1 0 10303 214 1 1 1 1 }'));

ENDSEC;
DATA;
#5=PRODUCT('DEK 5/5 PLUS','','<Q-CHECKER_SEAL> Q-Checker Version 2.14.8  \X2\000A\X0\CATIA-Version         : Catia V5 R20 SP5 Build Date 01-14-2011.22.00\X2\000A\X0\Model size (in KByte) : 0\X2\000A\X0\Checking date         : 2012-03-08 13:40:22\X2\000A\X0\Checking profile      : ADMIN / Release_2D-3D [CATPart]\X2\000A\X0\Model assessment      : In Ordnung (IO)\X2\000A\X0\Total weight sum      : 0\X2\000A\X0\<CROSS_CHECK_SUM>\X2\000A\X0\  <CHKSUM_DATE> 1612138398 </CHKSUM_DATE>\X2\000A\X0\  <CHKSUM_ENTITIES> 841455538 </CHKSUM_ENTITIES>\X2\000A\X0\  <CHKSUM_PROFILE> 1594213346 </CHKSUM_PROFILE>\X2\000A\X0\  <CHKSUM_DIMENSION> -186917087 </CHKSUM_DIMENSION>\X2\000A\X0\  <CHKSUM_PROJINTERSEC> -896974048 </CHKSUM_PROJINTERSEC>\X2\000A\X0\  <CHKSUM_IDENTCRV> -896974048 </CHKSUM_IDENTCRV>\X2\000A\X0\  <CHKSUM_INFINITY> 138018827 </CHKSUM_INFINITY>\X2\000A\X0\</CROSS_CHECK_SUM>\X2\000A\X0\</Q-CHECKER_SEAL> \X2\000A\X0\ \X2\000A\X0\ \X2\000A\X0\',(#2)) ;
#2=PRODUCT_CONTEXT(' ',#1,'mechanical') ;
#1=APPLICATION_CONTEXT('automotive design') ;
#10=PRODUCT_DEFINITION('',' ',#6,#3) ;
#3=PRODUCT_DEFINITION_CONTEXT('part definition',#1,' ') ;
#11=PRODUCT_DEFINITION_SHAPE(' ',' ',#10) ;
#450=MECHANICAL_DESIGN_GEOMETRIC_PRESENTATION_REPRESENTATION(' ',(#29),#16) ;
#19=SHAPE_REPRESENTATION(' ',(#18),#16) ;
#18=AXIS2_PLACEMENT_3D(' ',#17,$,$) ;
#34=AXIS2_PLACEMENT_3D('Plane Axis2P3D',#31,#32,#33) ;
#74=AXIS2_PLACEMENT_3D('Plane Axis2P3D',#71,#72,#73) ;
#173=AXIS2_PLACEMENT_3D('Plane Axis2P3D',#170,#171,#172) ;
#197=AXIS2_PLACEMENT_3D('Plane Axis2P3D',#194,#195,#196) ;
#221=AXIS2_PLACEMENT_3D('Plane Axis2P3D',#218,#219,#220) ;
#238=AXIS2_PLACEMENT_3D('Plane Axis2P3D',#235,#236,#237) ;
#269=AXIS2_PLACEMENT_3D('Plane Axis2P3D',#266,#267,#268) ;
#293=AXIS2_PLACEMENT_3D('Plane Axis2P3D',#290,#291,#292) ;
#317=AXIS2_PLACEMENT_3D('Plane Axis2P3D',#314,#315,#316) ;
#334=AXIS2_PLACEMENT_3D('Plane Axis2P3D',#331,#332,#333) ;
#346=AXIS2_PLACEMENT_3D('Plane Axis2P3D',#343,#344,#345) ;
#396=AXIS2_PLACEMENT_3D('Plane Axis2P3D',#393,#394,#395) ;
#432=AXIS2_PLACEMENT_3D('Plane Axis2P3D',#429,#430,#431) ;
#17=CARTESIAN_POINT(' ',(0.,0.,0.)) ;
#31=CARTESIAN_POINT('Axis2P3D Location',(2.45,0.385,1.785)) ;
#36=CARTESIAN_POINT('Line Origine',(2.45,0.385,1.785)) ;
#40=CARTESIAN_POINT('Vertex',(0.45,0.385,1.785)) ;
#42=CARTESIAN_POINT('Vertex',(4.45,0.385,1.785)) ;
#45=CARTESIAN_POINT('Line Origine',(0.45,0.385,0.892499999925)) ;
#49=CARTESIAN_POINT('Vertex',(0.45,0.385,-1.49011814339E-10)) ;
#52=CARTESIAN_POINT('Line Origine',(2.45,0.385,-1.49011691875E-10)) ;
#56=CARTESIAN_POINT('Vertex',(4.45,0.385,-1.4901156941E-10)) ;
#59=CARTESIAN_POINT('Line Origine',(4.45,0.385,0.892499999925)) ;
#71=CARTESIAN_POINT('Axis2P3D Location',(2.45,0.,1.785)) ;
#76=CARTESIAN_POINT('Line Origine',(4.89999999925,2.59999999963,1.785)) ;
#80=CARTESIAN_POINT('Vertex',(4.89999999925,5.19999999925,1.785)) ;
#82=CARTESIAN_POINT('Vertex',(4.89999999925,-1.5001923285E-16,1.785)) ;
#85=CARTESIAN_POINT('Line Origine',(2.45,0.,1.785)) ;
#89=CARTESIAN_POINT('Vertex',(7.45057793239E-10,1.5001923285E-16,1.785)) ;
#92=CARTESIAN_POINT('Line Origine',(7.45058015283E-10,2.59999999963,1.785)) ;
#96=CARTESIAN_POINT('Vertex',(7.45058237328E-10,5.19999999925,1.785)) ;
#99=CARTESIAN_POINT('Line Origine',(2.45,5.19999999925,1.785)) ;
#110=CARTESIAN_POINT('Line Origine',(4.45,0.946135687642,1.785)) ;
#114=CARTESIAN_POINT('Vertex',(4.45,1.50727137588,1.78499999925)) ;
#117=CARTESIAN_POINT('Line Origine',(2.45,1.50727137551,1.785)) ;
#121=CARTESIAN_POINT('Vertex',(0.45,1.50727137588,1.78499999925)) ;
#124=CARTESIAN_POINT('Line Origine',(0.45,0.946135687642,1.785)) ;
#135=CARTESIAN_POINT('Line Origine',(2.45,4.81499999948,1.785)) ;
#139=CARTESIAN_POINT('Vertex',(0.45,4.81499999985,1.78499999925)) ;
#141=CARTESIAN_POINT('Vertex',(4.45,4.81499999985,1.78499999925)) ;
#144=CARTESIAN_POINT('Line Origine',(0.45,4.25386431161,1.785)) ;
#148=CARTESIAN_POINT('Vertex',(0.45,3.69272862389,1.78500000041)) ;
#151=CARTESIAN_POINT('Line Origine',(2.45,3.69272862375,1.785)) ;
#155=CARTESIAN_POINT('Vertex',(4.45,3.69272862389,1.78500000041)) ;
#158=CARTESIAN_POINT('Line Origine',(4.45,4.25386431161,1.785)) ;
#170=CARTESIAN_POINT('Axis2P3D Location',(0.45,2.6,2.585)) ;
#175=CARTESIAN_POINT('Line Origine',(0.45,1.25303606354,0.89249999918)) ;
#179=CARTESIAN_POINT('Vertex',(0.45,0.998800751194,-8.94069707158E-10)) ;
#182=CARTESIAN_POINT('Line Origine',(0.45,0.691900375672,-8.94069707158E-10)) ;
#194=CARTESIAN_POINT('Axis2P3D Location',(2.45,0.385,0.)) ;
#199=CARTESIAN_POINT('Line Origine',(2.45,0.998800751045,0.)) ;
#203=CARTESIAN_POINT('Vertex',(4.45,0.998800751045,1.22464679915E-16)) ;
#206=CARTESIAN_POINT('Line Origine',(4.45,0.691900375523,1.22464679915E-16)) ;
#218=CARTESIAN_POINT('Axis2P3D Location',(4.45,2.6,2.585)) ;
#223=CARTESIAN_POINT('Line Origine',(4.45,1.25303606354,0.89249999918)) ;
#235=CARTESIAN_POINT('Axis2P3D Location',(4.9,2.6,2.585)) ;
#240=CARTESIAN_POINT('Line Origine',(4.9,3.72529118664E-10,2.18499999963)) ;
#244=CARTESIAN_POINT('Vertex',(4.9,3.72529118664E-10,2.585)) ;
#247=CARTESIAN_POINT('Line Origine',(4.9,5.19999999963,2.18499999963)) ;
#251=CARTESIAN_POINT('Vertex',(4.9,5.19999999963,2.585)) ;
#254=CARTESIAN_POINT('Line Origine',(4.9,2.6,2.585)) ;
#266=CARTESIAN_POINT('Axis2P3D Location',(2.45,0.,2.585)) ;
#271=CARTESIAN_POINT('Line Origine',(2.45,0.,2.585)) ;
#275=CARTESIAN_POINT('Vertex',(-3.67370900984E-16,3.72529118664E-10,2.585)) ;
#278=CARTESIAN_POINT('Line Origine',(7.45057793239E-10,1.5001923285E-16,2.18499999963)) ;
#290=CARTESIAN_POINT('Axis2P3D Location',(-2.08166817117E-16,2.6,2.585)) ;
#295=CARTESIAN_POINT('Line Origine',(-2.08166817117E-16,2.6,2.585)) ;
#299=CARTESIAN_POINT('Vertex',(-4.89627332508E-17,5.19999999963,2.585)) ;
#302=CARTESIAN_POINT('Line Origine',(-2.4469797245E-17,5.19999999963,2.18499999963)) ;
#314=CARTESIAN_POINT('Axis2P3D Location',(2.45,5.2,1.785)) ;
#319=CARTESIAN_POINT('Line Origine',(2.45,5.2,2.58500000075)) ;
#331=CARTESIAN_POINT('Axis2P3D Location',(2.45,0.998800750362,0.)) ;
#343=CARTESIAN_POINT('Axis2P3D Location',(2.45,4.815,1.785)) ;
#348=CARTESIAN_POINT('Line Origine',(4.45,4.815,0.892499999925)) ;
#352=CARTESIAN_POINT('Vertex',(4.45,4.8149999997,1.22464679915E-16)) ;
#355=CARTESIAN_POINT('Line Origine',(2.45,4.815,-1.49011691875E-10)) ;
#359=CARTESIAN_POINT('Vertex',(0.45,4.8149999997,-1.22464679915E-16)) ;
#362=CARTESIAN_POINT('Line Origine',(0.45,4.815,0.892499999925)) ;
#374=CARTESIAN_POINT('Line Origine',(0.45,4.50809962433,-8.94069707158E-10)) ;
#378=CARTESIAN_POINT('Vertex',(0.45,4.20119924964,-1.22464679915E-16)) ;
#381=CARTESIAN_POINT('Line Origine',(0.45,3.94696393646,0.89249999918)) ;
#393=CARTESIAN_POINT('Axis2P3D Location',(2.45,4.20119924964,0.)) ;
#398=CARTESIAN_POINT('Line Origine',(4.45,3.94696393676,0.892500000203)) ;
#402=CARTESIAN_POINT('Vertex',(4.45,4.20119924964,1.22464679915E-16)) ;
#405=CARTESIAN_POINT('Line Origine',(2.45,4.20119924964,0.)) ;
#417=CARTESIAN_POINT('Line Origine',(4.45,4.50809962433,-8.94069707158E-10)) ;
#429=CARTESIAN_POINT('Axis2P3D Location',(2.45,0.,2.585)) ;
#32=DIRECTION('Axis2P3D Direction',(-6.12323399574E-17,-1.,-8.60484838249E-45)) ;
#33=DIRECTION('Axis2P3D XDirection',(6.12323399574E-17,-3.74939945665E-33,-1.)) ;
#37=DIRECTION('Vector Direction',(1.,-5.55111512313E-17,1.11022302463E-16)) ;
#46=DIRECTION('Vector Direction',(0.,0.,-1.)) ;
#53=DIRECTION('Vector Direction',(1.,-5.55111512313E-17,6.12323399538E-17)) ;
#60=DIRECTION('Vector Direction',(0.,0.,-1.)) ;
#72=DIRECTION('Axis2P3D Direction',(6.12323399574E-17,-3.74939945666E-33,-1.)) ;
#73=DIRECTION('Axis2P3D XDirection',(6.12323399574E-17,1.,0.)) ;
#77=DIRECTION('Vector Direction',(1.70803542274E-16,1.,0.)) ;
#86=DIRECTION('Vector Direction',(1.,-6.12323399574E-17,9.06304510174E-17)) ;
#93=DIRECTION('Vector Direction',(8.54017711372E-17,1.,0.)) ;
#100=DIRECTION('Vector Direction',(1.,0.,9.06304510174E-17)) ;
#111=DIRECTION('Vector Direction',(0.,-1.,0.)) ;
#118=DIRECTION('Vector Direction',(1.,-1.11022302463E-16,1.11022302463E-16)) ;
#125=DIRECTION('Vector Direction',(0.,-1.,0.)) ;
#136=DIRECTION('Vector Direction',(1.,0.,1.11022302463E-16)) ;
#145=DIRECTION('Vector Direction',(0.,1.,0.)) ;
#152=DIRECTION('Vector Direction',(1.,0.,1.11022302463E-16)) ;
#159=DIRECTION('Vector Direction',(0.,1.,0.)) ;
#171=DIRECTION('Axis2P3D Direction',(1.,-6.12323399574E-17,6.12323399574E-17)) ;
#172=DIRECTION('Axis2P3D XDirection',(6.12323399574E-17,1.,0.)) ;
#176=DIRECTION('Vector Direction',(-2.99088892342E-17,0.273959218198,0.96174130969)) ;
#183=DIRECTION('Vector Direction',(0.,1.,0.)) ;
#195=DIRECTION('Axis2P3D Direction',(6.12323399574E-17,-3.74939945666E-33,-1.)) ;
#196=DIRECTION('Axis2P3D XDirection',(6.12323399574E-17,1.,0.)) ;
#200=DIRECTION('Vector Direction',(1.,-5.55111512313E-17,6.12323399574E-17)) ;
#207=DIRECTION('Vector Direction',(0.,1.,0.)) ;
#219=DIRECTION('Axis2P3D Direction',(1.,-6.12323399574E-17,6.12323399574E-17)) ;
#220=DIRECTION('Axis2P3D XDirection',(6.12323399574E-17,1.,0.)) ;
#224=DIRECTION('Vector Direction',(0.,0.273959218198,0.96174130969)) ;
#236=DIRECTION('Axis2P3D Direction',(1.,-6.12323399574E-17,6.12323399574E-17)) ;
#237=DIRECTION('Axis2P3D XDirection',(6.12323399574E-17,1.,0.)) ;
#241=DIRECTION('Vector Direction',(0.,0.,-1.)) ;
#248=DIRECTION('Vector Direction',(0.,0.,1.)) ;
#255=DIRECTION('Vector Direction',(0.,1.,0.)) ;
#267=DIRECTION('Axis2P3D Direction',(-6.12323399574E-17,-1.,-8.60484838249E-45)) ;
#268=DIRECTION('Axis2P3D XDirection',(6.12323399574E-17,-3.74939945665E-33,-1.)) ;
#272=DIRECTION('Vector Direction',(1.,-6.12323399574E-17,0.)) ;
#279=DIRECTION('Vector Direction',(0.,0.,-1.)) ;
#291=DIRECTION('Axis2P3D Direction',(1.,-6.12323399574E-17,6.12323399574E-17)) ;
#292=DIRECTION('Axis2P3D XDirection',(6.12323399574E-17,1.,0.)) ;
#296=DIRECTION('Vector Direction',(6.12323399574E-17,1.,0.)) ;
#303=DIRECTION('Vector Direction',(-6.12323399574E-17,0.,1.)) ;
#315=DIRECTION('Axis2P3D Direction',(6.12323399574E-17,1.,8.60484838249E-45)) ;
#316=DIRECTION('Axis2P3D XDirection',(-6.12323399574E-17,3.74939945665E-33,1.)) ;
#320=DIRECTION('Vector Direction',(1.,0.,0.)) ;
#332=DIRECTION('Axis2P3D Direction',(7.56648348308E-17,0.961741309549,-0.273959218692)) ;
#333=DIRECTION('Axis2P3D XDirection',(-4.21145068039E-17,0.273959218692,0.961741309549)) ;
#344=DIRECTION('Axis2P3D Direction',(-6.12323399574E-17,-1.,-8.60484838249E-45)) ;
#345=DIRECTION('Axis2P3D XDirection',(6.12323399574E-17,-3.74939945665E-33,-1.)) ;
#349=DIRECTION('Vector Direction',(0.,0.,-1.)) ;
#356=DIRECTION('Vector Direction',(1.,0.,6.12323399538E-17)) ;
#363=DIRECTION('Vector Direction',(0.,0.,-1.)) ;
#375=DIRECTION('Vector Direction',(0.,-1.,0.)) ;
#382=DIRECTION('Vector Direction',(-8.97266677027E-17,-0.273959218198,0.96174130969)) ;
#394=DIRECTION('Axis2P3D Direction',(4.21145068039E-17,0.961741309549,0.273959218692)) ;
#395=DIRECTION('Axis2P3D XDirection',(-7.56648348308E-17,-0.273959218692,0.961741309549)) ;
#399=DIRECTION('Vector Direction',(0.,-0.273959218692,0.961741309549)) ;
#406=DIRECTION('Vector Direction',(1.,0.,6.12323399574E-17)) ;
#418=DIRECTION('Vector Direction',(0.,-1.,0.)) ;
#430=DIRECTION('Axis2P3D Direction',(6.12323399574E-17,-3.74939945666E-33,-1.)) ;
#431=DIRECTION('Axis2P3D XDirection',(6.12323399574E-17,1.,0.)) ;
#8=PRODUCT_RELATED_PRODUCT_CATEGORY('part',$,(#5)) ;
#7=PRODUCT_CATEGORY('part','specification') ;
#29=STYLED_ITEM(' ',(#28),#21) ;
#28=PRESENTATION_STYLE_ASSIGNMENT((#27)) ;
#27=SURFACE_STYLE_USAGE(.BOTH.,#26) ;
#26=SURFACE_SIDE_STYLE(' ',(#25)) ;
#25=SURFACE_STYLE_FILL_AREA(#24) ;
#24=FILL_AREA_STYLE(' ',(#23)) ;
#23=FILL_AREA_STYLE_COLOUR(' ',#22) ;
#38=VECTOR('Line Direction',#37,1.) ;
#47=VECTOR('Line Direction',#46,1.) ;
#54=VECTOR('Line Direction',#53,1.) ;
#61=VECTOR('Line Direction',#60,1.) ;
#78=VECTOR('Line Direction',#77,1.) ;
#87=VECTOR('Line Direction',#86,1.) ;
#94=VECTOR('Line Direction',#93,1.) ;
#101=VECTOR('Line Direction',#100,1.) ;
#112=VECTOR('Line Direction',#111,1.) ;
#119=VECTOR('Line Direction',#118,1.) ;
#126=VECTOR('Line Direction',#125,1.) ;
#137=VECTOR('Line Direction',#136,1.) ;
#146=VECTOR('Line Direction',#145,1.) ;
#153=VECTOR('Line Direction',#152,1.) ;
#160=VECTOR('Line Direction',#159,1.) ;
#177=VECTOR('Line Direction',#176,1.) ;
#184=VECTOR('Line Direction',#183,1.) ;
#201=VECTOR('Line Direction',#200,1.) ;
#208=VECTOR('Line Direction',#207,1.) ;
#225=VECTOR('Line Direction',#224,1.) ;
#242=VECTOR('Line Direction',#241,1.) ;
#249=VECTOR('Line Direction',#248,1.) ;
#256=VECTOR('Line Direction',#255,1.) ;
#273=VECTOR('Line Direction',#272,1.) ;
#280=VECTOR('Line Direction',#279,1.) ;
#297=VECTOR('Line Direction',#296,1.) ;
#304=VECTOR('Line Direction',#303,1.) ;
#321=VECTOR('Line Direction',#320,1.) ;
#350=VECTOR('Line Direction',#349,1.) ;
#357=VECTOR('Line Direction',#356,1.) ;
#364=VECTOR('Line Direction',#363,1.) ;
#376=VECTOR('Line Direction',#375,1.) ;
#383=VECTOR('Line Direction',#382,1.) ;
#400=VECTOR('Line Direction',#399,1.) ;
#407=VECTOR('Line Direction',#406,1.) ;
#419=VECTOR('Line Direction',#418,1.) ;
#15=UNCERTAINTY_MEASURE_WITH_UNIT(LENGTH_MEASURE(0.005),#12,'distance_accuracy_value','CONFUSED CURVE UNCERTAINTY') ;
#449=SHAPE_REPRESENTATION_RELATIONSHIP(' ',' ',#19,#448) ;
#65=ORIENTED_EDGE('',*,*,#44,.F.) ;
#66=ORIENTED_EDGE('',*,*,#51,.T.) ;
#67=ORIENTED_EDGE('',*,*,#58,.T.) ;
#68=ORIENTED_EDGE('',*,*,#63,.F.) ;
#105=ORIENTED_EDGE('',*,*,#84,.T.) ;
#106=ORIENTED_EDGE('',*,*,#91,.F.) ;
#107=ORIENTED_EDGE('',*,*,#98,.F.) ;
#108=ORIENTED_EDGE('',*,*,#103,.T.) ;
#130=ORIENTED_EDGE('',*,*,#116,.F.) ;
#131=ORIENTED_EDGE('',*,*,#123,.F.) ;
#132=ORIENTED_EDGE('',*,*,#128,.T.) ;
#133=ORIENTED_EDGE('',*,*,#44,.T.) ;
#164=ORIENTED_EDGE('',*,*,#143,.F.) ;
#165=ORIENTED_EDGE('',*,*,#150,.F.) ;
#166=ORIENTED_EDGE('',*,*,#157,.T.) ;
#167=ORIENTED_EDGE('',*,*,#162,.T.) ;
#188=ORIENTED_EDGE('',*,*,#128,.F.) ;
#189=ORIENTED_EDGE('',*,*,#181,.F.) ;
#190=ORIENTED_EDGE('',*,*,#186,.F.) ;
#191=ORIENTED_EDGE('',*,*,#51,.F.) ;
#212=ORIENTED_EDGE('',*,*,#58,.F.) ;
#213=ORIENTED_EDGE('',*,*,#186,.T.) ;
#214=ORIENTED_EDGE('',*,*,#205,.T.) ;
#215=ORIENTED_EDGE('',*,*,#210,.F.) ;
#229=ORIENTED_EDGE('',*,*,#63,.T.) ;
#230=ORIENTED_EDGE('',*,*,#210,.T.) ;
#231=ORIENTED_EDGE('',*,*,#227,.T.) ;
#232=ORIENTED_EDGE('',*,*,#116,.T.) ;
#260=ORIENTED_EDGE('',*,*,#246,.F.) ;
#261=ORIENTED_EDGE('',*,*,#84,.F.) ;
#262=ORIENTED_EDGE('',*,*,#253,.F.) ;
#263=ORIENTED_EDGE('',*,*,#258,.F.) ;
#284=ORIENTED_EDGE('',*,*,#246,.T.) ;
#285=ORIENTED_EDGE('',*,*,#277,.F.) ;
#286=ORIENTED_EDGE('',*,*,#282,.F.) ;
#287=ORIENTED_EDGE('',*,*,#91,.T.) ;
#308=ORIENTED_EDGE('',*,*,#301,.T.) ;
#309=ORIENTED_EDGE('',*,*,#306,.T.) ;
#310=ORIENTED_EDGE('',*,*,#98,.T.) ;
#311=ORIENTED_EDGE('',*,*,#282,.T.) ;
#325=ORIENTED_EDGE('',*,*,#253,.T.) ;
#326=ORIENTED_EDGE('',*,*,#103,.F.) ;
#327=ORIENTED_EDGE('',*,*,#306,.F.) ;
#328=ORIENTED_EDGE('',*,*,#323,.T.) ;
#337=ORIENTED_EDGE('',*,*,#205,.F.) ;
#338=ORIENTED_EDGE('',*,*,#181,.T.) ;
#339=ORIENTED_EDGE('',*,*,#123,.T.) ;
#340=ORIENTED_EDGE('',*,*,#227,.F.) ;
#368=ORIENTED_EDGE('',*,*,#354,.T.) ;
#369=ORIENTED_EDGE('',*,*,#361,.F.) ;
#370=ORIENTED_EDGE('',*,*,#366,.F.) ;
#371=ORIENTED_EDGE('',*,*,#143,.T.) ;
#387=ORIENTED_EDGE('',*,*,#150,.T.) ;
#388=ORIENTED_EDGE('',*,*,#366,.T.) ;
#389=ORIENTED_EDGE('',*,*,#380,.T.) ;
#390=ORIENTED_EDGE('',*,*,#385,.T.) ;
#411=ORIENTED_EDGE('',*,*,#404,.T.) ;
#412=ORIENTED_EDGE('',*,*,#157,.F.) ;
#413=ORIENTED_EDGE('',*,*,#385,.F.) ;
#414=ORIENTED_EDGE('',*,*,#409,.T.) ;
#423=ORIENTED_EDGE('',*,*,#404,.F.) ;
#424=ORIENTED_EDGE('',*,*,#421,.F.) ;
#425=ORIENTED_EDGE('',*,*,#354,.F.) ;
#426=ORIENTED_EDGE('',*,*,#162,.F.) ;
#435=ORIENTED_EDGE('',*,*,#258,.T.) ;
#436=ORIENTED_EDGE('',*,*,#323,.F.) ;
#437=ORIENTED_EDGE('',*,*,#301,.F.) ;
#438=ORIENTED_EDGE('',*,*,#277,.T.) ;
#442=ORIENTED_EDGE('',*,*,#421,.T.) ;
#443=ORIENTED_EDGE('',*,*,#409,.F.) ;
#444=ORIENTED_EDGE('',*,*,#380,.F.) ;
#445=ORIENTED_EDGE('',*,*,#361,.T.) ;
#134=FACE_BOUND('',#129,.T.) ;
#168=FACE_BOUND('',#163,.T.) ;
#30=CLOSED_SHELL('Closed Shell',(#70,#169,#193,#217,#234,#265,#289,#313,#330,#342,#373,#392,#416,#428,#440,#447)) ;
#448=ADVANCED_BREP_SHAPE_REPRESENTATION('NONE',(#21),#16) ;
#70=ADVANCED_FACE('S3D - gedreht',(#69),#35,.T.) ;
#169=ADVANCED_FACE('S3D - gedreht',(#109,#134,#168),#75,.T.) ;
#193=ADVANCED_FACE('S3D - gedreht',(#192),#174,.F.) ;
#217=ADVANCED_FACE('S3D - gedreht',(#216),#198,.T.) ;
#234=ADVANCED_FACE('S3D - gedreht',(#233),#222,.T.) ;
#265=ADVANCED_FACE('S3D - gedreht',(#264),#239,.T.) ;
#289=ADVANCED_FACE('S3D - gedreht',(#288),#270,.T.) ;
#313=ADVANCED_FACE('S3D - gedreht',(#312),#294,.F.) ;
#330=ADVANCED_FACE('S3D - gedreht',(#329),#318,.T.) ;
#342=ADVANCED_FACE('S3D - gedreht',(#341),#335,.T.) ;
#373=ADVANCED_FACE('S3D - gedreht',(#372),#347,.F.) ;
#392=ADVANCED_FACE('S3D - gedreht',(#391),#174,.F.) ;
#416=ADVANCED_FACE('S3D - gedreht',(#415),#397,.F.) ;
#428=ADVANCED_FACE('S3D - gedreht',(#427),#222,.T.) ;
#440=ADVANCED_FACE('S3D - gedreht',(#439),#433,.F.) ;
#447=ADVANCED_FACE('S3D - gedreht',(#446),#198,.T.) ;
#4=APPLICATION_PROTOCOL_DEFINITION('international standard','automotive_design',2001,#1) ;
#21=MANIFOLD_SOLID_BREP('S3D - gedreht',#30) ;
#22=DRAUGHTING_PRE_DEFINED_COLOUR('white') ;
#44=EDGE_CURVE('',#41,#43,#39,.T.) ;
#51=EDGE_CURVE('',#41,#50,#48,.T.) ;
#58=EDGE_CURVE('',#50,#57,#55,.T.) ;
#63=EDGE_CURVE('',#43,#57,#62,.T.) ;
#84=EDGE_CURVE('',#81,#83,#79,.F.) ;
#91=EDGE_CURVE('',#90,#83,#88,.T.) ;
#98=EDGE_CURVE('',#97,#90,#95,.F.) ;
#103=EDGE_CURVE('',#97,#81,#102,.T.) ;
#116=EDGE_CURVE('',#115,#43,#113,.T.) ;
#123=EDGE_CURVE('',#122,#115,#120,.T.) ;
#128=EDGE_CURVE('',#122,#41,#127,.T.) ;
#143=EDGE_CURVE('',#140,#142,#138,.T.) ;
#150=EDGE_CURVE('',#149,#140,#147,.T.) ;
#157=EDGE_CURVE('',#149,#156,#154,.T.) ;
#162=EDGE_CURVE('',#156,#142,#161,.T.) ;
#181=EDGE_CURVE('',#180,#122,#178,.T.) ;
#186=EDGE_CURVE('',#50,#180,#185,.T.) ;
#205=EDGE_CURVE('',#180,#204,#202,.T.) ;
#210=EDGE_CURVE('',#57,#204,#209,.T.) ;
#227=EDGE_CURVE('',#204,#115,#226,.T.) ;
#246=EDGE_CURVE('',#83,#245,#243,.F.) ;
#253=EDGE_CURVE('',#252,#81,#250,.F.) ;
#258=EDGE_CURVE('',#245,#252,#257,.T.) ;
#277=EDGE_CURVE('',#276,#245,#274,.T.) ;
#282=EDGE_CURVE('',#90,#276,#281,.F.) ;
#301=EDGE_CURVE('',#276,#300,#298,.T.) ;
#306=EDGE_CURVE('',#300,#97,#305,.F.) ;
#323=EDGE_CURVE('',#300,#252,#322,.T.) ;
#354=EDGE_CURVE('',#142,#353,#351,.T.) ;
#361=EDGE_CURVE('',#360,#353,#358,.T.) ;
#366=EDGE_CURVE('',#140,#360,#365,.T.) ;
#380=EDGE_CURVE('',#360,#379,#377,.T.) ;
#385=EDGE_CURVE('',#379,#149,#384,.T.) ;
#404=EDGE_CURVE('',#403,#156,#401,.T.) ;
#409=EDGE_CURVE('',#379,#403,#408,.T.) ;
#421=EDGE_CURVE('',#353,#403,#420,.T.) ;
#64=EDGE_LOOP('',(#65,#66,#67,#68)) ;
#104=EDGE_LOOP('',(#105,#106,#107,#108)) ;
#129=EDGE_LOOP('',(#130,#131,#132,#133)) ;
#163=EDGE_LOOP('',(#164,#165,#166,#167)) ;
#187=EDGE_LOOP('',(#188,#189,#190,#191)) ;
#211=EDGE_LOOP('',(#212,#213,#214,#215)) ;
#228=EDGE_LOOP('',(#229,#230,#231,#232)) ;
#259=EDGE_LOOP('',(#260,#261,#262,#263)) ;
#283=EDGE_LOOP('',(#284,#285,#286,#287)) ;
#307=EDGE_LOOP('',(#308,#309,#310,#311)) ;
#324=EDGE_LOOP('',(#325,#326,#327,#328)) ;
#336=EDGE_LOOP('',(#337,#338,#339,#340)) ;
#367=EDGE_LOOP('',(#368,#369,#370,#371)) ;
#386=EDGE_LOOP('',(#387,#388,#389,#390)) ;
#410=EDGE_LOOP('',(#411,#412,#413,#414)) ;
#422=EDGE_LOOP('',(#423,#424,#425,#426)) ;
#434=EDGE_LOOP('',(#435,#436,#437,#438)) ;
#441=EDGE_LOOP('',(#442,#443,#444,#445)) ;
#69=FACE_OUTER_BOUND('',#64,.T.) ;
#109=FACE_OUTER_BOUND('',#104,.T.) ;
#192=FACE_OUTER_BOUND('',#187,.T.) ;
#216=FACE_OUTER_BOUND('',#211,.T.) ;
#233=FACE_OUTER_BOUND('',#228,.T.) ;
#264=FACE_OUTER_BOUND('',#259,.T.) ;
#288=FACE_OUTER_BOUND('',#283,.T.) ;
#312=FACE_OUTER_BOUND('',#307,.T.) ;
#329=FACE_OUTER_BOUND('',#324,.T.) ;
#341=FACE_OUTER_BOUND('',#336,.T.) ;
#372=FACE_OUTER_BOUND('',#367,.T.) ;
#391=FACE_OUTER_BOUND('',#386,.T.) ;
#415=FACE_OUTER_BOUND('',#410,.T.) ;
#427=FACE_OUTER_BOUND('',#422,.T.) ;
#439=FACE_OUTER_BOUND('',#434,.T.) ;
#446=FACE_OUTER_BOUND('',#441,.T.) ;
#39=LINE('Line',#36,#38) ;
#48=LINE('Line',#45,#47) ;
#55=LINE('Line',#52,#54) ;
#62=LINE('Line',#59,#61) ;
#79=LINE('Line',#76,#78) ;
#88=LINE('Line',#85,#87) ;
#95=LINE('Line',#92,#94) ;
#102=LINE('Line',#99,#101) ;
#113=LINE('Line',#110,#112) ;
#120=LINE('Line',#117,#119) ;
#127=LINE('Line',#124,#126) ;
#138=LINE('Line',#135,#137) ;
#147=LINE('Line',#144,#146) ;
#154=LINE('Line',#151,#153) ;
#161=LINE('Line',#158,#160) ;
#178=LINE('Line',#175,#177) ;
#185=LINE('Line',#182,#184) ;
#202=LINE('Line',#199,#201) ;
#209=LINE('Line',#206,#208) ;
#226=LINE('Line',#223,#225) ;
#243=LINE('Line',#240,#242) ;
#250=LINE('Line',#247,#249) ;
#257=LINE('Line',#254,#256) ;
#274=LINE('Line',#271,#273) ;
#281=LINE('Line',#278,#280) ;
#298=LINE('Line',#295,#297) ;
#305=LINE('Line',#302,#304) ;
#322=LINE('Line',#319,#321) ;
#351=LINE('Line',#348,#350) ;
#358=LINE('Line',#355,#357) ;
#365=LINE('Line',#362,#364) ;
#377=LINE('Line',#374,#376) ;
#384=LINE('Line',#381,#383) ;
#401=LINE('Line',#398,#400) ;
#408=LINE('Line',#405,#407) ;
#420=LINE('Line',#417,#419) ;
#35=PLANE('',#34) ;
#75=PLANE('',#74) ;
#174=PLANE('',#173) ;
#198=PLANE('',#197) ;
#222=PLANE('',#221) ;
#239=PLANE('',#238) ;
#270=PLANE('',#269) ;
#294=PLANE('',#293) ;
#318=PLANE('',#317) ;
#335=PLANE('',#334) ;
#347=PLANE('',#346) ;
#397=PLANE('',#396) ;
#433=PLANE('',#432) ;
#9=PRODUCT_CATEGORY_RELATIONSHIP(' ',' ',#7,#8) ;
#6=PRODUCT_DEFINITION_FORMATION_WITH_SPECIFIED_SOURCE('',' ',#5,.NOT_KNOWN.) ;
#20=SHAPE_DEFINITION_REPRESENTATION(#11,#19) ;
#41=VERTEX_POINT('',#40) ;
#43=VERTEX_POINT('',#42) ;
#50=VERTEX_POINT('',#49) ;
#57=VERTEX_POINT('',#56) ;
#81=VERTEX_POINT('',#80) ;
#83=VERTEX_POINT('',#82) ;
#90=VERTEX_POINT('',#89) ;
#97=VERTEX_POINT('',#96) ;
#115=VERTEX_POINT('',#114) ;
#122=VERTEX_POINT('',#121) ;
#140=VERTEX_POINT('',#139) ;
#142=VERTEX_POINT('',#141) ;
#149=VERTEX_POINT('',#148) ;
#156=VERTEX_POINT('',#155) ;
#180=VERTEX_POINT('',#179) ;
#204=VERTEX_POINT('',#203) ;
#245=VERTEX_POINT('',#244) ;
#252=VERTEX_POINT('',#251) ;
#276=VERTEX_POINT('',#275) ;
#300=VERTEX_POINT('',#299) ;
#353=VERTEX_POINT('',#352) ;
#360=VERTEX_POINT('',#359) ;
#379=VERTEX_POINT('',#378) ;
#403=VERTEX_POINT('',#402) ;
#12=(LENGTH_UNIT()NAMED_UNIT(*)SI_UNIT(.MILLI.,.METRE.)) ;
#13=(NAMED_UNIT(*)PLANE_ANGLE_UNIT()SI_UNIT($,.RADIAN.)) ;
#14=(NAMED_UNIT(*)SI_UNIT($,.STERADIAN.)SOLID_ANGLE_UNIT()) ;
#16=(GEOMETRIC_REPRESENTATION_CONTEXT(3)GLOBAL_UNCERTAINTY_ASSIGNED_CONTEXT((#15))GLOBAL_UNIT_ASSIGNED_CONTEXT((#12,#13,#14))REPRESENTATION_CONTEXT(' ',' ')) ;
ENDSEC;
END-ISO-10303-21;
