ISO-10303-21;
HEADER;
FILE_DESCRIPTION(('CATIA V5 STEP Exchange','CAx-IF Rec.Pracs.--- Model Styling and Organization---1.4--- 2014-01-23'),'2;1');

FILE_NAME ('029562-1_1', '2019-11-21T06:44:26+00:00', ('none'), ('Weidmueller'), 'CATIA Version 5-6 Release 2016 SP3 HF44', 'CATIA V5 STEP AP214', 'none');

FILE_SCHEMA(('AUTOMOTIVE_DESIGN { 1 0 10303 214 1 1 1 1 }'));

ENDSEC;
DATA;
#5=PRODUCT('1995860000','','',(#2)) ;
#2=PRODUCT_CONTEXT(' ',#1,'mechanical') ;
#1=APPLICATION_CONTEXT('automotive design') ;
#10=PRODUCT_DEFINITION('',' ',#6,#3) ;
#3=PRODUCT_DEFINITION_CONTEXT('part definition',#1,' ') ;
#11=PRODUCT_DEFINITION_SHAPE(' ',' ',#10) ;
#495=MECHANICAL_DESIGN_GEOMETRIC_PRESENTATION_REPRESENTATION(' ',(#29),#16) ;
#19=SHAPE_REPRESENTATION(' ',(#18),#16) ;
#18=AXIS2_PLACEMENT_3D(' ',#17,$,$) ;
#34=AXIS2_PLACEMENT_3D('Cylinder Axis2P3D',#31,#32,#33) ;
#38=AXIS2_PLACEMENT_3D('Circle Axis2P3D',#36,#37,$) ;
#54=AXIS2_PLACEMENT_3D('Circle Axis2P3D',#52,#53,$) ;
#74=AXIS2_PLACEMENT_3D('Cone Axis2P3D',#71,#72,#73) ;
#78=AXIS2_PLACEMENT_3D('Circle Axis2P3D',#76,#77,$) ;
#105=AXIS2_PLACEMENT_3D('Cylinder Axis2P3D',#102,#103,#104) ;
#109=AXIS2_PLACEMENT_3D('Circle Axis2P3D',#107,#108,$) ;
#114=AXIS2_PLACEMENT_3D('Circle Axis2P3D',#112,#113,$) ;
#127=AXIS2_PLACEMENT_3D('Plane Axis2P3D',#124,#125,#126) ;
#137=AXIS2_PLACEMENT_3D('Cylinder Axis2P3D',#134,#135,#136) ;
#141=AXIS2_PLACEMENT_3D('Circle Axis2P3D',#139,#140,$) ;
#168=AXIS2_PLACEMENT_3D('Cone Axis2P3D',#165,#166,#167) ;
#172=AXIS2_PLACEMENT_3D('Circle Axis2P3D',#170,#171,$) ;
#185=AXIS2_PLACEMENT_3D('Cone Axis2P3D',#182,#183,#184) ;
#189=AXIS2_PLACEMENT_3D('Circle Axis2P3D',#187,#188,$) ;
#216=AXIS2_PLACEMENT_3D('Cylinder Axis2P3D',#213,#214,#215) ;
#239=AXIS2_PLACEMENT_3D('Cylinder Axis2P3D',#236,#237,#238) ;
#243=AXIS2_PLACEMENT_3D('Circle Axis2P3D',#241,#242,$) ;
#270=AXIS2_PLACEMENT_3D('Cone Axis2P3D',#267,#268,#269) ;
#274=AXIS2_PLACEMENT_3D('Circle Axis2P3D',#272,#273,$) ;
#287=AXIS2_PLACEMENT_3D('Plane Axis2P3D',#284,#285,#286) ;
#291=AXIS2_PLACEMENT_3D('Circle Axis2P3D',#289,#290,$) ;
#300=AXIS2_PLACEMENT_3D('Circle Axis2P3D',#298,#299,$) ;
#309=AXIS2_PLACEMENT_3D('Circle Axis2P3D',#307,#308,$) ;
#320=AXIS2_PLACEMENT_3D('Cylinder Axis2P3D',#317,#318,#319) ;
#332=AXIS2_PLACEMENT_3D('Cylinder Axis2P3D',#329,#330,#331) ;
#336=AXIS2_PLACEMENT_3D('Circle Axis2P3D',#334,#335,$) ;
#363=AXIS2_PLACEMENT_3D('Cylinder Axis2P3D',#360,#361,#362) ;
#367=AXIS2_PLACEMENT_3D('Circle Axis2P3D',#365,#366,$) ;
#380=AXIS2_PLACEMENT_3D('Plane Axis2P3D',#377,#378,#379) ;
#438=AXIS2_PLACEMENT_3D('Cylinder Axis2P3D',#435,#436,#437) ;
#456=AXIS2_PLACEMENT_3D('Circle Axis2P3D',#454,#455,$) ;
#469=AXIS2_PLACEMENT_3D('Cylinder Axis2P3D',#466,#467,#468) ;
#473=AXIS2_PLACEMENT_3D('Circle Axis2P3D',#471,#472,$) ;
#486=AXIS2_PLACEMENT_3D('Plane Axis2P3D',#483,#484,#485) ;
#17=CARTESIAN_POINT(' ',(0.,0.,0.)) ;
#31=CARTESIAN_POINT('Axis2P3D Location',(1.2,1.2,16.5)) ;
#36=CARTESIAN_POINT('Axis2P3D Location',(1.2,1.2,14.5)) ;
#40=CARTESIAN_POINT('Vertex',(1.2,0.,14.5)) ;
#42=CARTESIAN_POINT('Vertex',(1.2,2.4,14.5)) ;
#45=CARTESIAN_POINT('Line Origine',(1.2,2.4,16.5)) ;
#49=CARTESIAN_POINT('Vertex',(1.2,2.4,16.5)) ;
#52=CARTESIAN_POINT('Axis2P3D Location',(1.2,1.2,16.5)) ;
#56=CARTESIAN_POINT('Vertex',(1.2,0.,16.5)) ;
#59=CARTESIAN_POINT('Line Origine',(1.2,0.,16.5)) ;
#71=CARTESIAN_POINT('Axis2P3D Location',(1.2,1.2,14.5)) ;
#76=CARTESIAN_POINT('Axis2P3D Location',(1.2,1.2,14.3)) ;
#80=CARTESIAN_POINT('Vertex',(1.2,0.2,14.3)) ;
#82=CARTESIAN_POINT('Vertex',(1.2,2.2,14.3)) ;
#85=CARTESIAN_POINT('Line Origine',(1.20000000004,353555.190593,353567.290593)) ;
#90=CARTESIAN_POINT('Line Origine',(1.2,-353552.790593,353567.290593)) ;
#102=CARTESIAN_POINT('Axis2P3D Location',(1.2,1.2,16.5)) ;
#107=CARTESIAN_POINT('Axis2P3D Location',(1.2,1.2,14.5)) ;
#112=CARTESIAN_POINT('Axis2P3D Location',(1.2,1.2,16.5)) ;
#124=CARTESIAN_POINT('Axis2P3D Location',(2.4,1.2,16.5)) ;
#134=CARTESIAN_POINT('Axis2P3D Location',(1.2,1.2,16.5)) ;
#139=CARTESIAN_POINT('Axis2P3D Location',(1.2,1.2,11.6500000004)) ;
#143=CARTESIAN_POINT('Vertex',(1.2,0.2,11.6500000004)) ;
#145=CARTESIAN_POINT('Vertex',(1.2,2.2,11.6500000004)) ;
#148=CARTESIAN_POINT('Line Origine',(1.2,2.2,16.5)) ;
#153=CARTESIAN_POINT('Line Origine',(1.2,0.2,16.5)) ;
#165=CARTESIAN_POINT('Axis2P3D Location',(1.2,1.2,14.5)) ;
#170=CARTESIAN_POINT('Axis2P3D Location',(1.2,1.2,14.3)) ;
#182=CARTESIAN_POINT('Axis2P3D Location',(1.2,1.2,11.65)) ;
#187=CARTESIAN_POINT('Axis2P3D Location',(1.2,1.2,11.25)) ;
#191=CARTESIAN_POINT('Vertex',(1.2,0.6,11.25)) ;
#193=CARTESIAN_POINT('Vertex',(1.2,1.8,11.25)) ;
#196=CARTESIAN_POINT('Line Origine',(1.20000000004,353555.090593,353564.540593)) ;
#201=CARTESIAN_POINT('Line Origine',(1.2,-353552.690593,353564.540593)) ;
#213=CARTESIAN_POINT('Axis2P3D Location',(1.2,1.2,16.5)) ;
#219=CARTESIAN_POINT('Control Point',(1.2,2.2,11.65)) ;
#220=CARTESIAN_POINT('Control Point',(0.885840734641,2.2,11.65)) ;
#221=CARTESIAN_POINT('Control Point',(0.571681469282,2.07662994499,11.6500000001)) ;
#222=CARTESIAN_POINT('Control Point',(0.323370055014,1.82831853072,11.6500000001)) ;
#223=CARTESIAN_POINT('Control Point',(0.0766299449864,1.2,11.6500000002)) ;
#224=CARTESIAN_POINT('Control Point',(0.323370055014,0.571681469282,11.6500000003)) ;
#225=CARTESIAN_POINT('Control Point',(0.571681469282,0.323370055014,11.6500000003)) ;
#226=CARTESIAN_POINT('Control Point',(0.885840734641,0.2,11.6500000003)) ;
#227=CARTESIAN_POINT('Control Point',(1.2,0.2,11.6500000004)) ;
#236=CARTESIAN_POINT('Axis2P3D Location',(1.2,1.2,16.5)) ;
#241=CARTESIAN_POINT('Axis2P3D Location',(1.2,1.2,9.80000000075)) ;
#245=CARTESIAN_POINT('Vertex',(1.2,0.6,9.80000000075)) ;
#247=CARTESIAN_POINT('Vertex',(1.2,1.8,9.80000000075)) ;
#250=CARTESIAN_POINT('Line Origine',(1.2,1.8,16.5)) ;
#255=CARTESIAN_POINT('Line Origine',(1.2,0.6,16.5)) ;
#267=CARTESIAN_POINT('Axis2P3D Location',(1.2,1.2,11.65)) ;
#272=CARTESIAN_POINT('Axis2P3D Location',(1.2,1.2,11.25)) ;
#284=CARTESIAN_POINT('Axis2P3D Location',(2.2,1.2,9.8)) ;
#289=CARTESIAN_POINT('Axis2P3D Location',(1.2,1.2,9.8)) ;
#293=CARTESIAN_POINT('Vertex',(1.2,0.2,9.80000000075)) ;
#295=CARTESIAN_POINT('Vertex',(1.2,2.2,9.80000000075)) ;
#298=CARTESIAN_POINT('Axis2P3D Location',(1.2,1.2,9.8)) ;
#307=CARTESIAN_POINT('Axis2P3D Location',(1.2,1.2,9.8)) ;
#317=CARTESIAN_POINT('Axis2P3D Location',(1.2,1.2,16.5)) ;
#329=CARTESIAN_POINT('Axis2P3D Location',(1.2,1.2,16.5)) ;
#334=CARTESIAN_POINT('Axis2P3D Location',(1.2,1.2,0.)) ;
#338=CARTESIAN_POINT('Vertex',(1.2,0.2,0.)) ;
#340=CARTESIAN_POINT('Vertex',(1.2,2.2,0.)) ;
#343=CARTESIAN_POINT('Line Origine',(1.2,2.2,16.5)) ;
#348=CARTESIAN_POINT('Line Origine',(1.2,0.2,16.5)) ;
#360=CARTESIAN_POINT('Axis2P3D Location',(1.2,1.2,16.5)) ;
#365=CARTESIAN_POINT('Axis2P3D Location',(1.2,1.2,0.)) ;
#377=CARTESIAN_POINT('Axis2P3D Location',(1.7,1.2,0.)) ;
#387=CARTESIAN_POINT('Control Point',(1.2,0.7,0.)) ;
#388=CARTESIAN_POINT('Control Point',(1.26927937741,0.7,0.)) ;
#389=CARTESIAN_POINT('Control Point',(1.33855790636,0.711999080297,0.)) ;
#390=CARTESIAN_POINT('Control Point',(1.40507660512,0.736009431687,0.)) ;
#391=CARTESIAN_POINT('Control Point',(1.52701948934,0.806044022679,0.)) ;
#392=CARTESIAN_POINT('Control Point',(1.61830404027,0.913007106223,0.)) ;
#393=CARTESIAN_POINT('Control Point',(1.65415105062,0.973967957493,0.)) ;
#394=CARTESIAN_POINT('Control Point',(1.70324794366,1.10574202923,0.)) ;
#395=CARTESIAN_POINT('Control Point',(1.70516826208,1.24634886668,0.)) ;
#396=CARTESIAN_POINT('Control Point',(1.69381436894,1.31615089831,0.)) ;
#397=CARTESIAN_POINT('Control Point',(1.64742646869,1.44890282058,0.)) ;
#398=CARTESIAN_POINT('Control Point',(1.55909708852,1.55831895398,0.)) ;
#399=CARTESIAN_POINT('Control Point',(1.50577761544,1.60477612443,0.)) ;
#400=CARTESIAN_POINT('Control Point',(1.41342758455,1.66036047846,0.)) ;
#401=CARTESIAN_POINT('Control Point',(1.3108741123,1.68965679142,0.)) ;
#402=CARTESIAN_POINT('Control Point',(1.27385159036,1.69659123639,0.)) ;
#403=CARTESIAN_POINT('Control Point',(1.23692567466,1.7,0.)) ;
#404=CARTESIAN_POINT('Control Point',(1.2,1.7,0.)) ;
#405=CARTESIAN_POINT('Vertex',(1.2,0.7,0.)) ;
#407=CARTESIAN_POINT('Vertex',(1.2,1.7,0.)) ;
#411=CARTESIAN_POINT('Control Point',(1.2,1.7,0.)) ;
#412=CARTESIAN_POINT('Control Point',(1.13072062259,1.7,0.)) ;
#413=CARTESIAN_POINT('Control Point',(1.06144209364,1.6880009197,0.)) ;
#414=CARTESIAN_POINT('Control Point',(0.994923394879,1.66399056831,0.)) ;
#415=CARTESIAN_POINT('Control Point',(0.872980510655,1.59395597732,0.)) ;
#416=CARTESIAN_POINT('Control Point',(0.781695959733,1.48699289378,0.)) ;
#417=CARTESIAN_POINT('Control Point',(0.745848949378,1.42603204251,0.)) ;
#418=CARTESIAN_POINT('Control Point',(0.696752056338,1.29425797077,0.)) ;
#419=CARTESIAN_POINT('Control Point',(0.694831737918,1.15365113332,0.)) ;
#420=CARTESIAN_POINT('Control Point',(0.706185631057,1.08384910169,0.)) ;
#421=CARTESIAN_POINT('Control Point',(0.75257353131,0.95109717942,0.)) ;
#422=CARTESIAN_POINT('Control Point',(0.840902911481,0.841681046017,0.)) ;
#423=CARTESIAN_POINT('Control Point',(0.894222384556,0.795223875571,0.)) ;
#424=CARTESIAN_POINT('Control Point',(0.986572415455,0.73963952154,0.)) ;
#425=CARTESIAN_POINT('Control Point',(1.0891258877,0.710343208577,0.)) ;
#426=CARTESIAN_POINT('Control Point',(1.12614840964,0.703408763611,0.)) ;
#427=CARTESIAN_POINT('Control Point',(1.16307432534,0.7,0.)) ;
#428=CARTESIAN_POINT('Control Point',(1.2,0.7,0.)) ;
#435=CARTESIAN_POINT('Axis2P3D Location',(1.2,1.2,16.5)) ;
#440=CARTESIAN_POINT('Line Origine',(1.2,1.7,16.5)) ;
#444=CARTESIAN_POINT('Vertex',(1.2,1.7,7.)) ;
#447=CARTESIAN_POINT('Line Origine',(1.2,0.7,16.5)) ;
#451=CARTESIAN_POINT('Vertex',(1.2,0.7,7.)) ;
#454=CARTESIAN_POINT('Axis2P3D Location',(1.2,1.2,7.)) ;
#466=CARTESIAN_POINT('Axis2P3D Location',(1.2,1.2,16.5)) ;
#471=CARTESIAN_POINT('Axis2P3D Location',(1.2,1.2,7.)) ;
#483=CARTESIAN_POINT('Axis2P3D Location',(1.2,1.2,7.)) ;
#32=DIRECTION('Axis2P3D Direction',(-0.,0.,1.)) ;
#33=DIRECTION('Axis2P3D XDirection',(0.,-1.,0.)) ;
#37=DIRECTION('Axis2P3D Direction',(-0.,0.,1.)) ;
#46=DIRECTION('Vector Direction',(0.,0.,1.)) ;
#53=DIRECTION('Axis2P3D Direction',(-0.,0.,1.)) ;
#60=DIRECTION('Vector Direction',(0.,0.,1.)) ;
#72=DIRECTION('Axis2P3D Direction',(0.,0.,1.)) ;
#73=DIRECTION('Axis2P3D XDirection',(0.,-1.,0.)) ;
#77=DIRECTION('Axis2P3D Direction',(-0.,0.,1.)) ;
#86=DIRECTION('Vector Direction',(8.65956946508E-017,0.707106781187,0.707106781187)) ;
#91=DIRECTION('Vector Direction',(0.,-0.707106781187,0.707106781187)) ;
#103=DIRECTION('Axis2P3D Direction',(-0.,0.,1.)) ;
#104=DIRECTION('Axis2P3D XDirection',(1.22464679915E-016,1.,0.)) ;
#108=DIRECTION('Axis2P3D Direction',(-0.,0.,1.)) ;
#113=DIRECTION('Axis2P3D Direction',(-0.,0.,1.)) ;
#125=DIRECTION('Axis2P3D Direction',(-0.,0.,1.)) ;
#126=DIRECTION('Axis2P3D XDirection',(0.,-1.,0.)) ;
#135=DIRECTION('Axis2P3D Direction',(-0.,0.,1.)) ;
#136=DIRECTION('Axis2P3D XDirection',(0.,-1.,0.)) ;
#140=DIRECTION('Axis2P3D Direction',(-0.,0.,1.)) ;
#149=DIRECTION('Vector Direction',(0.,0.,1.)) ;
#154=DIRECTION('Vector Direction',(0.,0.,1.)) ;
#166=DIRECTION('Axis2P3D Direction',(0.,0.,1.)) ;
#167=DIRECTION('Axis2P3D XDirection',(1.22464678846E-016,1.,0.)) ;
#171=DIRECTION('Axis2P3D Direction',(-0.,0.,1.)) ;
#183=DIRECTION('Axis2P3D Direction',(0.,0.,1.)) ;
#184=DIRECTION('Axis2P3D XDirection',(0.,-1.,0.)) ;
#188=DIRECTION('Axis2P3D Direction',(-0.,0.,1.)) ;
#197=DIRECTION('Vector Direction',(8.65954970994E-017,0.707106781187,0.707106781187)) ;
#202=DIRECTION('Vector Direction',(0.,-0.707106781187,0.707106781187)) ;
#214=DIRECTION('Axis2P3D Direction',(-0.,0.,1.)) ;
#215=DIRECTION('Axis2P3D XDirection',(1.22464679915E-016,1.,0.)) ;
#237=DIRECTION('Axis2P3D Direction',(-0.,0.,1.)) ;
#238=DIRECTION('Axis2P3D XDirection',(0.,-1.,0.)) ;
#242=DIRECTION('Axis2P3D Direction',(-0.,0.,1.)) ;
#251=DIRECTION('Vector Direction',(0.,0.,1.)) ;
#256=DIRECTION('Vector Direction',(0.,0.,1.)) ;
#268=DIRECTION('Axis2P3D Direction',(0.,0.,1.)) ;
#269=DIRECTION('Axis2P3D XDirection',(1.2246468231E-016,1.,0.)) ;
#273=DIRECTION('Axis2P3D Direction',(-0.,0.,1.)) ;
#285=DIRECTION('Axis2P3D Direction',(-0.,0.,1.)) ;
#286=DIRECTION('Axis2P3D XDirection',(0.,-1.,0.)) ;
#290=DIRECTION('Axis2P3D Direction',(-0.,0.,1.)) ;
#299=DIRECTION('Axis2P3D Direction',(-0.,0.,1.)) ;
#308=DIRECTION('Axis2P3D Direction',(-0.,0.,1.)) ;
#318=DIRECTION('Axis2P3D Direction',(-0.,0.,1.)) ;
#319=DIRECTION('Axis2P3D XDirection',(1.22464679915E-016,1.,0.)) ;
#330=DIRECTION('Axis2P3D Direction',(-0.,0.,1.)) ;
#331=DIRECTION('Axis2P3D XDirection',(0.,-1.,0.)) ;
#335=DIRECTION('Axis2P3D Direction',(-0.,0.,1.)) ;
#344=DIRECTION('Vector Direction',(0.,0.,1.)) ;
#349=DIRECTION('Vector Direction',(0.,0.,1.)) ;
#361=DIRECTION('Axis2P3D Direction',(-0.,0.,1.)) ;
#362=DIRECTION('Axis2P3D XDirection',(1.22464679915E-016,1.,0.)) ;
#366=DIRECTION('Axis2P3D Direction',(-0.,0.,1.)) ;
#378=DIRECTION('Axis2P3D Direction',(0.,0.,-1.)) ;
#379=DIRECTION('Axis2P3D XDirection',(0.,1.,0.)) ;
#436=DIRECTION('Axis2P3D Direction',(-0.,0.,1.)) ;
#437=DIRECTION('Axis2P3D XDirection',(0.,-1.,0.)) ;
#441=DIRECTION('Vector Direction',(0.,0.,1.)) ;
#448=DIRECTION('Vector Direction',(0.,0.,1.)) ;
#455=DIRECTION('Axis2P3D Direction',(-0.,0.,1.)) ;
#467=DIRECTION('Axis2P3D Direction',(-0.,0.,1.)) ;
#468=DIRECTION('Axis2P3D XDirection',(1.22464679915E-016,1.,0.)) ;
#472=DIRECTION('Axis2P3D Direction',(-0.,0.,1.)) ;
#484=DIRECTION('Axis2P3D Direction',(0.,0.,-1.)) ;
#485=DIRECTION('Axis2P3D XDirection',(0.,1.,0.)) ;
#8=PRODUCT_RELATED_PRODUCT_CATEGORY('part',$,(#5)) ;
#7=PRODUCT_CATEGORY('part','specification') ;
#29=STYLED_ITEM(' ',(#28),#21) ;
#28=PRESENTATION_STYLE_ASSIGNMENT((#27)) ;
#27=SURFACE_STYLE_USAGE(.BOTH.,#26) ;
#26=SURFACE_SIDE_STYLE(' ',(#25)) ;
#25=SURFACE_STYLE_FILL_AREA(#24) ;
#24=FILL_AREA_STYLE(' ',(#23)) ;
#23=FILL_AREA_STYLE_COLOUR(' ',#22) ;
#47=VECTOR('Line Direction',#46,1.) ;
#61=VECTOR('Line Direction',#60,1.) ;
#87=VECTOR('Line Direction',#86,1.) ;
#92=VECTOR('Line Direction',#91,1.) ;
#150=VECTOR('Line Direction',#149,1.) ;
#155=VECTOR('Line Direction',#154,1.) ;
#198=VECTOR('Line Direction',#197,1.) ;
#203=VECTOR('Line Direction',#202,1.) ;
#252=VECTOR('Line Direction',#251,1.) ;
#257=VECTOR('Line Direction',#256,1.) ;
#345=VECTOR('Line Direction',#344,1.) ;
#350=VECTOR('Line Direction',#349,1.) ;
#442=VECTOR('Line Direction',#441,1.) ;
#449=VECTOR('Line Direction',#448,1.) ;
#15=UNCERTAINTY_MEASURE_WITH_UNIT(LENGTH_MEASURE(0.005),#12,'distance_accuracy_value','CONFUSED CURVE UNCERTAINTY') ;
#494=SHAPE_REPRESENTATION_RELATIONSHIP(' ',' ',#19,#493) ;
#65=ORIENTED_EDGE('',*,*,#44,.T.) ;
#66=ORIENTED_EDGE('',*,*,#51,.T.) ;
#67=ORIENTED_EDGE('',*,*,#58,.F.) ;
#68=ORIENTED_EDGE('',*,*,#63,.F.) ;
#96=ORIENTED_EDGE('',*,*,#84,.T.) ;
#97=ORIENTED_EDGE('',*,*,#89,.T.) ;
#98=ORIENTED_EDGE('',*,*,#44,.F.) ;
#99=ORIENTED_EDGE('',*,*,#94,.F.) ;
#118=ORIENTED_EDGE('',*,*,#51,.F.) ;
#119=ORIENTED_EDGE('',*,*,#111,.T.) ;
#120=ORIENTED_EDGE('',*,*,#63,.T.) ;
#121=ORIENTED_EDGE('',*,*,#116,.F.) ;
#130=ORIENTED_EDGE('',*,*,#58,.T.) ;
#131=ORIENTED_EDGE('',*,*,#116,.T.) ;
#159=ORIENTED_EDGE('',*,*,#147,.T.) ;
#160=ORIENTED_EDGE('',*,*,#152,.T.) ;
#161=ORIENTED_EDGE('',*,*,#84,.F.) ;
#162=ORIENTED_EDGE('',*,*,#157,.F.) ;
#176=ORIENTED_EDGE('',*,*,#89,.F.) ;
#177=ORIENTED_EDGE('',*,*,#174,.T.) ;
#178=ORIENTED_EDGE('',*,*,#94,.T.) ;
#179=ORIENTED_EDGE('',*,*,#111,.F.) ;
#207=ORIENTED_EDGE('',*,*,#195,.T.) ;
#208=ORIENTED_EDGE('',*,*,#200,.T.) ;
#209=ORIENTED_EDGE('',*,*,#147,.F.) ;
#210=ORIENTED_EDGE('',*,*,#205,.F.) ;
#230=ORIENTED_EDGE('',*,*,#152,.F.) ;
#231=ORIENTED_EDGE('',*,*,#228,.T.) ;
#232=ORIENTED_EDGE('',*,*,#157,.T.) ;
#233=ORIENTED_EDGE('',*,*,#174,.F.) ;
#261=ORIENTED_EDGE('',*,*,#249,.T.) ;
#262=ORIENTED_EDGE('',*,*,#254,.T.) ;
#263=ORIENTED_EDGE('',*,*,#195,.F.) ;
#264=ORIENTED_EDGE('',*,*,#259,.F.) ;
#278=ORIENTED_EDGE('',*,*,#200,.F.) ;
#279=ORIENTED_EDGE('',*,*,#276,.T.) ;
#280=ORIENTED_EDGE('',*,*,#205,.T.) ;
#281=ORIENTED_EDGE('',*,*,#228,.F.) ;
#304=ORIENTED_EDGE('',*,*,#297,.T.) ;
#305=ORIENTED_EDGE('',*,*,#302,.T.) ;
#313=ORIENTED_EDGE('',*,*,#249,.F.) ;
#314=ORIENTED_EDGE('',*,*,#311,.F.) ;
#323=ORIENTED_EDGE('',*,*,#254,.F.) ;
#324=ORIENTED_EDGE('',*,*,#311,.T.) ;
#325=ORIENTED_EDGE('',*,*,#259,.T.) ;
#326=ORIENTED_EDGE('',*,*,#276,.F.) ;
#354=ORIENTED_EDGE('',*,*,#342,.T.) ;
#355=ORIENTED_EDGE('',*,*,#347,.T.) ;
#356=ORIENTED_EDGE('',*,*,#297,.F.) ;
#357=ORIENTED_EDGE('',*,*,#352,.F.) ;
#371=ORIENTED_EDGE('',*,*,#347,.F.) ;
#372=ORIENTED_EDGE('',*,*,#369,.T.) ;
#373=ORIENTED_EDGE('',*,*,#352,.T.) ;
#374=ORIENTED_EDGE('',*,*,#302,.F.) ;
#383=ORIENTED_EDGE('',*,*,#342,.F.) ;
#384=ORIENTED_EDGE('',*,*,#369,.F.) ;
#431=ORIENTED_EDGE('',*,*,#409,.T.) ;
#432=ORIENTED_EDGE('',*,*,#429,.T.) ;
#460=ORIENTED_EDGE('',*,*,#446,.F.) ;
#461=ORIENTED_EDGE('',*,*,#409,.F.) ;
#462=ORIENTED_EDGE('',*,*,#453,.T.) ;
#463=ORIENTED_EDGE('',*,*,#458,.T.) ;
#477=ORIENTED_EDGE('',*,*,#429,.F.) ;
#478=ORIENTED_EDGE('',*,*,#446,.T.) ;
#479=ORIENTED_EDGE('',*,*,#475,.T.) ;
#480=ORIENTED_EDGE('',*,*,#453,.F.) ;
#489=ORIENTED_EDGE('',*,*,#458,.F.) ;
#490=ORIENTED_EDGE('',*,*,#475,.F.) ;
#315=FACE_BOUND('',#312,.T.) ;
#433=FACE_BOUND('',#430,.T.) ;
#30=CLOSED_SHELL('Closed Shell',(#70,#101,#123,#133,#164,#181,#212,#235,#266,#283,#316,#328,#359,#376,#434,#465,#482,#492)) ;
#493=ADVANCED_BREP_SHAPE_REPRESENTATION('NONE',(#21),#16) ;
#70=ADVANCED_FACE('NONE',(#69),#35,.T.) ;
#101=ADVANCED_FACE('NONE',(#100),#75,.T.) ;
#123=ADVANCED_FACE('NONE',(#122),#106,.T.) ;
#133=ADVANCED_FACE('NONE',(#132),#128,.T.) ;
#164=ADVANCED_FACE('NONE',(#163),#138,.T.) ;
#181=ADVANCED_FACE('NONE',(#180),#169,.T.) ;
#212=ADVANCED_FACE('NONE',(#211),#186,.T.) ;
#235=ADVANCED_FACE('NONE',(#234),#217,.T.) ;
#266=ADVANCED_FACE('NONE',(#265),#240,.T.) ;
#283=ADVANCED_FACE('NONE',(#282),#271,.T.) ;
#316=ADVANCED_FACE('NONE',(#306,#315),#288,.T.) ;
#328=ADVANCED_FACE('NONE',(#327),#321,.T.) ;
#359=ADVANCED_FACE('NONE',(#358),#333,.T.) ;
#376=ADVANCED_FACE('NONE',(#375),#364,.T.) ;
#434=ADVANCED_FACE('NONE',(#385,#433),#381,.T.) ;
#465=ADVANCED_FACE('NONE',(#464),#439,.F.) ;
#482=ADVANCED_FACE('NONE',(#481),#470,.F.) ;
#492=ADVANCED_FACE('NONE',(#491),#487,.T.) ;
#4=APPLICATION_PROTOCOL_DEFINITION('international standard','automotive_design',2001,#1) ;
#218=B_SPLINE_CURVE_WITH_KNOTS('',5,(#219,#220,#221,#222,#223,#224,#225,#226,#227),.UNSPECIFIED.,.F.,.U.,(6,3,6),(-1.57079632679,1.11022302463E-016,1.57079632679),.UNSPECIFIED.) ;
#386=B_SPLINE_CURVE_WITH_KNOTS('',5,(#387,#388,#389,#390,#391,#392,#393,#394,#395,#396,#397,#398,#399,#400,#401,#402,#403,#404),.UNSPECIFIED.,.F.,.U.,(6,3,3,3,3,6),(0.,0.489879175651,0.979758362365,1.46963753589,1.95951670523,2.22062065474),.UNSPECIFIED.) ;
#410=B_SPLINE_CURVE_WITH_KNOTS('',5,(#411,#412,#413,#414,#415,#416,#417,#418,#419,#420,#421,#422,#423,#424,#425,#426,#427,#428),.UNSPECIFIED.,.F.,.U.,(6,3,3,3,3,6),(0.,0.48987917565,0.979758362364,1.46963753589,1.95951670523,2.22062065474),.UNSPECIFIED.) ;
#21=MANIFOLD_SOLID_BREP('NONE',#30) ;
#39=CIRCLE('generated circle',#38,1.2) ;
#55=CIRCLE('generated circle',#54,1.2) ;
#79=CIRCLE('generated circle',#78,1.) ;
#110=CIRCLE('generated circle',#109,1.2) ;
#115=CIRCLE('generated circle',#114,1.2) ;
#142=CIRCLE('generated circle',#141,1.) ;
#173=CIRCLE('generated circle',#172,1.) ;
#190=CIRCLE('generated circle',#189,0.6) ;
#244=CIRCLE('generated circle',#243,0.6) ;
#275=CIRCLE('generated circle',#274,0.6) ;
#292=CIRCLE('generated circle',#291,1.) ;
#301=CIRCLE('generated circle',#300,1.) ;
#310=CIRCLE('generated circle',#309,0.599999999627) ;
#337=CIRCLE('generated circle',#336,1.) ;
#368=CIRCLE('generated circle',#367,1.) ;
#457=CIRCLE('generated circle',#456,0.5) ;
#474=CIRCLE('generated circle',#473,0.5) ;
#22=COLOUR_RGB('Colour',0.827450980392,0.698039215686,0.490196078431) ;
#75=CONICAL_SURFACE('Cone',#74,1.2,0.785398163397) ;
#169=CONICAL_SURFACE('Cone',#168,1.2,0.785398163397) ;
#186=CONICAL_SURFACE('Cone',#185,1.,0.785398163397) ;
#271=CONICAL_SURFACE('Cone',#270,1.,0.785398163397) ;
#35=CYLINDRICAL_SURFACE('generated cylinder',#34,1.2) ;
#106=CYLINDRICAL_SURFACE('generated cylinder',#105,1.2) ;
#138=CYLINDRICAL_SURFACE('generated cylinder',#137,1.) ;
#217=CYLINDRICAL_SURFACE('generated cylinder',#216,1.) ;
#240=CYLINDRICAL_SURFACE('generated cylinder',#239,0.6) ;
#321=CYLINDRICAL_SURFACE('generated cylinder',#320,0.6) ;
#333=CYLINDRICAL_SURFACE('generated cylinder',#332,1.) ;
#364=CYLINDRICAL_SURFACE('generated cylinder',#363,1.) ;
#439=CYLINDRICAL_SURFACE('generated cylinder',#438,0.5) ;
#470=CYLINDRICAL_SURFACE('generated cylinder',#469,0.5) ;
#44=EDGE_CURVE('',#41,#43,#39,.T.) ;
#51=EDGE_CURVE('',#43,#50,#48,.T.) ;
#58=EDGE_CURVE('',#57,#50,#55,.T.) ;
#63=EDGE_CURVE('',#41,#57,#62,.T.) ;
#84=EDGE_CURVE('',#81,#83,#79,.T.) ;
#89=EDGE_CURVE('',#83,#43,#88,.T.) ;
#94=EDGE_CURVE('',#81,#41,#93,.T.) ;
#111=EDGE_CURVE('',#43,#41,#110,.T.) ;
#116=EDGE_CURVE('',#50,#57,#115,.T.) ;
#147=EDGE_CURVE('',#144,#146,#142,.T.) ;
#152=EDGE_CURVE('',#146,#83,#151,.T.) ;
#157=EDGE_CURVE('',#144,#81,#156,.T.) ;
#174=EDGE_CURVE('',#83,#81,#173,.T.) ;
#195=EDGE_CURVE('',#192,#194,#190,.T.) ;
#200=EDGE_CURVE('',#194,#146,#199,.T.) ;
#205=EDGE_CURVE('',#192,#144,#204,.T.) ;
#228=EDGE_CURVE('',#146,#144,#218,.T.) ;
#249=EDGE_CURVE('',#246,#248,#244,.T.) ;
#254=EDGE_CURVE('',#248,#194,#253,.T.) ;
#259=EDGE_CURVE('',#246,#192,#258,.T.) ;
#276=EDGE_CURVE('',#194,#192,#275,.T.) ;
#297=EDGE_CURVE('',#294,#296,#292,.T.) ;
#302=EDGE_CURVE('',#296,#294,#301,.T.) ;
#311=EDGE_CURVE('',#248,#246,#310,.T.) ;
#342=EDGE_CURVE('',#339,#341,#337,.T.) ;
#347=EDGE_CURVE('',#341,#296,#346,.T.) ;
#352=EDGE_CURVE('',#339,#294,#351,.T.) ;
#369=EDGE_CURVE('',#341,#339,#368,.T.) ;
#409=EDGE_CURVE('',#406,#408,#386,.T.) ;
#429=EDGE_CURVE('',#408,#406,#410,.T.) ;
#446=EDGE_CURVE('',#408,#445,#443,.T.) ;
#453=EDGE_CURVE('',#406,#452,#450,.T.) ;
#458=EDGE_CURVE('',#452,#445,#457,.T.) ;
#475=EDGE_CURVE('',#445,#452,#474,.T.) ;
#64=EDGE_LOOP('',(#65,#66,#67,#68)) ;
#95=EDGE_LOOP('',(#96,#97,#98,#99)) ;
#117=EDGE_LOOP('',(#118,#119,#120,#121)) ;
#129=EDGE_LOOP('',(#130,#131)) ;
#158=EDGE_LOOP('',(#159,#160,#161,#162)) ;
#175=EDGE_LOOP('',(#176,#177,#178,#179)) ;
#206=EDGE_LOOP('',(#207,#208,#209,#210)) ;
#229=EDGE_LOOP('',(#230,#231,#232,#233)) ;
#260=EDGE_LOOP('',(#261,#262,#263,#264)) ;
#277=EDGE_LOOP('',(#278,#279,#280,#281)) ;
#303=EDGE_LOOP('',(#304,#305)) ;
#312=EDGE_LOOP('',(#313,#314)) ;
#322=EDGE_LOOP('',(#323,#324,#325,#326)) ;
#353=EDGE_LOOP('',(#354,#355,#356,#357)) ;
#370=EDGE_LOOP('',(#371,#372,#373,#374)) ;
#382=EDGE_LOOP('',(#383,#384)) ;
#430=EDGE_LOOP('',(#431,#432)) ;
#459=EDGE_LOOP('',(#460,#461,#462,#463)) ;
#476=EDGE_LOOP('',(#477,#478,#479,#480)) ;
#488=EDGE_LOOP('',(#489,#490)) ;
#69=FACE_OUTER_BOUND('',#64,.T.) ;
#100=FACE_OUTER_BOUND('',#95,.T.) ;
#122=FACE_OUTER_BOUND('',#117,.T.) ;
#132=FACE_OUTER_BOUND('',#129,.T.) ;
#163=FACE_OUTER_BOUND('',#158,.T.) ;
#180=FACE_OUTER_BOUND('',#175,.T.) ;
#211=FACE_OUTER_BOUND('',#206,.T.) ;
#234=FACE_OUTER_BOUND('',#229,.T.) ;
#265=FACE_OUTER_BOUND('',#260,.T.) ;
#282=FACE_OUTER_BOUND('',#277,.T.) ;
#306=FACE_OUTER_BOUND('',#303,.T.) ;
#327=FACE_OUTER_BOUND('',#322,.T.) ;
#358=FACE_OUTER_BOUND('',#353,.T.) ;
#375=FACE_OUTER_BOUND('',#370,.T.) ;
#385=FACE_OUTER_BOUND('',#382,.T.) ;
#464=FACE_OUTER_BOUND('',#459,.T.) ;
#481=FACE_OUTER_BOUND('',#476,.T.) ;
#491=FACE_OUTER_BOUND('',#488,.T.) ;
#48=LINE('Line',#45,#47) ;
#62=LINE('Line',#59,#61) ;
#88=LINE('Line',#85,#87) ;
#93=LINE('Line',#90,#92) ;
#151=LINE('Line',#148,#150) ;
#156=LINE('Line',#153,#155) ;
#199=LINE('Line',#196,#198) ;
#204=LINE('Line',#201,#203) ;
#253=LINE('Line',#250,#252) ;
#258=LINE('Line',#255,#257) ;
#346=LINE('Line',#343,#345) ;
#351=LINE('Line',#348,#350) ;
#443=LINE('Line',#440,#442) ;
#450=LINE('Line',#447,#449) ;
#128=PLANE('',#127) ;
#288=PLANE('',#287) ;
#381=PLANE('',#380) ;
#487=PLANE('',#486) ;
#9=PRODUCT_CATEGORY_RELATIONSHIP(' ',' ',#7,#8) ;
#6=PRODUCT_DEFINITION_FORMATION_WITH_SPECIFIED_SOURCE('',' ',#5,.NOT_KNOWN.) ;
#20=SHAPE_DEFINITION_REPRESENTATION(#11,#19) ;
#41=VERTEX_POINT('',#40) ;
#43=VERTEX_POINT('',#42) ;
#50=VERTEX_POINT('',#49) ;
#57=VERTEX_POINT('',#56) ;
#81=VERTEX_POINT('',#80) ;
#83=VERTEX_POINT('',#82) ;
#144=VERTEX_POINT('',#143) ;
#146=VERTEX_POINT('',#145) ;
#192=VERTEX_POINT('',#191) ;
#194=VERTEX_POINT('',#193) ;
#246=VERTEX_POINT('',#245) ;
#248=VERTEX_POINT('',#247) ;
#294=VERTEX_POINT('',#293) ;
#296=VERTEX_POINT('',#295) ;
#339=VERTEX_POINT('',#338) ;
#341=VERTEX_POINT('',#340) ;
#406=VERTEX_POINT('',#405) ;
#408=VERTEX_POINT('',#407) ;
#445=VERTEX_POINT('',#444) ;
#452=VERTEX_POINT('',#451) ;
#12=(LENGTH_UNIT()NAMED_UNIT(*)SI_UNIT(.MILLI.,.METRE.)) ;
#13=(NAMED_UNIT(*)PLANE_ANGLE_UNIT()SI_UNIT($,.RADIAN.)) ;
#14=(NAMED_UNIT(*)SI_UNIT($,.STERADIAN.)SOLID_ANGLE_UNIT()) ;
#16=(GEOMETRIC_REPRESENTATION_CONTEXT(3)GLOBAL_UNCERTAINTY_ASSIGNED_CONTEXT((#15))GLOBAL_UNIT_ASSIGNED_CONTEXT((#12,#13,#14))REPRESENTATION_CONTEXT(' ',' ')) ;
ENDSEC;
END-ISO-10303-21;
