ISO-10303-21;
HEADER;
FILE_DESCRIPTION(('CATIA V5R19 STEP'),'2;1');

FILE_NAME ('D1458689_0_1889780000_1889780000.stp','2015-03-02T08:44:33+00:00',('none'),('Weidmueller'),'CATIA Version 5 Release 20 SP 5 (IN-10)','CATIA V5 STEP AP214','none');

FILE_SCHEMA(('AUTOMOTIVE_DESIGN { 1 0 10303 214 1 1 1 1 }'));

ENDSEC;
/* file written by CATIA V5R20 */
DATA;
#5=PRODUCT('MF-SI 7/5-6.5','','MARKIERER MF-SI 7/5-6,5 FUER SIEMENS \X2\000D\X0\\X2\000A\X0\MIT AUSSEN RASTENDEN FUSS\X2\000A\X0\<Q-CHECKER_SEAL> Q-Checker Version 2.14.8  \X2\000A\X0\CATIA-Version         : Catia V5 R20 SP5 Build Date 01-14-2011.22.00\X2\000A\X0\Model size (in KByte) : 0\X2\000A\X0\Checking date         : 2014-04-08 10:08:58\X2\000A\X0\Checking profile      : ADMIN / Release_2D-3D [CATPart]\X2\000A\X0\Model assessment      : In Ordnung (IO)\X2\000A\X0\Total weight sum      : 0\X2\000A\X0\<CROSS_CHECK_SUM>\X2\000A\X0\  <CHKSUM_DATE> -1740795512 </CHKSUM_DATE>\X2\000A\X0\  <CHKSUM_ENTITIES> 494476681 </CHKSUM_ENTITIES>\X2\000A\X0\  <CHKSUM_PROFILE> 1594213346 </CHKSUM_PROFILE>\X2\000A\X0\  <CHKSUM_DIMENSION> -186917087 </CHKSUM_DIMENSION>\X2\000A\X0\  <CHKSUM_PROJINTERSEC> -896974048 </CHKSUM_PROJINTERSEC>\X2\000A\X0\  <CHKSUM_IDENTCRV> -896974048 </CHKSUM_IDENTCRV>\X2\000A\X0\  <CHKSUM_INFINITY> 138018827 </CHKSUM_INFINITY>\X2\000A\X0\</CROSS_CHECK_SUM>\X2\000A\X0\</Q-CHECKER_SEAL> \X2\000A\X0\ \X2\000A\X0\ \X2\000A\X0\',(#2)) ;
#2=PRODUCT_CONTEXT(' ',#1,'mechanical') ;
#1=APPLICATION_CONTEXT('automotive design') ;
#10=PRODUCT_DEFINITION('',' ',#6,#3) ;
#3=PRODUCT_DEFINITION_CONTEXT('part definition',#1,' ') ;
#11=PRODUCT_DEFINITION_SHAPE(' ',' ',#10) ;
#518=MECHANICAL_DESIGN_GEOMETRIC_PRESENTATION_REPRESENTATION(' ',(#30),#17) ;
#20=SHAPE_REPRESENTATION(' ',(#19),#17) ;
#19=AXIS2_PLACEMENT_3D(' ',#18,$,$) ;
#36=AXIS2_PLACEMENT_3D('Plane Axis2P3D',#33,#34,#35) ;
#76=AXIS2_PLACEMENT_3D('Plane Axis2P3D',#73,#74,#75) ;
#107=AXIS2_PLACEMENT_3D('Plane Axis2P3D',#104,#105,#106) ;
#131=AXIS2_PLACEMENT_3D('Plane Axis2P3D',#128,#129,#130) ;
#155=AXIS2_PLACEMENT_3D('Plane Axis2P3D',#152,#153,#154) ;
#172=AXIS2_PLACEMENT_3D('Plane Axis2P3D',#169,#170,#171) ;
#276=AXIS2_PLACEMENT_3D('Plane Axis2P3D',#273,#274,#275) ;
#293=AXIS2_PLACEMENT_3D('Plane Axis2P3D',#290,#291,#292) ;
#333=AXIS2_PLACEMENT_3D('Plane Axis2P3D',#330,#331,#332) ;
#364=AXIS2_PLACEMENT_3D('Plane Axis2P3D',#361,#362,#363) ;
#395=AXIS2_PLACEMENT_3D('Plane Axis2P3D',#392,#393,#394) ;
#426=AXIS2_PLACEMENT_3D('Plane Axis2P3D',#423,#424,#425) ;
#469=AXIS2_PLACEMENT_3D('Plane Axis2P3D',#466,#467,#468) ;
#488=AXIS2_PLACEMENT_3D('Plane Axis2P3D',#485,#486,#487) ;
#507=AXIS2_PLACEMENT_3D('Plane Axis2P3D',#504,#505,#506) ;
#18=CARTESIAN_POINT(' ',(0.,0.,0.)) ;
#33=CARTESIAN_POINT('Axis2P3D Location',(2.4,5.69379093084,1.47296821)) ;
#38=CARTESIAN_POINT('Line Origine',(2.4,5.69379093084,1.47296821)) ;
#42=CARTESIAN_POINT('Vertex',(0.9,5.69379093084,1.47296821)) ;
#44=CARTESIAN_POINT('Vertex',(3.9,5.69379093084,1.47296821)) ;
#47=CARTESIAN_POINT('Line Origine',(0.9,5.71950952255,0.736484103763)) ;
#51=CARTESIAN_POINT('Vertex',(0.9,5.74522811426,-2.47465758996E-009)) ;
#54=CARTESIAN_POINT('Line Origine',(2.4,5.74522811426,-2.47465803405E-009)) ;
#58=CARTESIAN_POINT('Vertex',(3.9,5.74522811426,-2.47465758996E-009)) ;
#61=CARTESIAN_POINT('Line Origine',(3.9,5.71950952255,0.736484103763)) ;
#73=CARTESIAN_POINT('Axis2P3D Location',(0.9,3.5,1.47296821)) ;
#78=CARTESIAN_POINT('Line Origine',(0.9,6.14305953129,0.736484103763)) ;
#82=CARTESIAN_POINT('Vertex',(0.9,6.14305953129,-2.47471376724E-009)) ;
#84=CARTESIAN_POINT('Vertex',(0.9,6.14305953129,1.47296821)) ;
#87=CARTESIAN_POINT('Line Origine',(0.9,5.94414382277,-2.47471376724E-009)) ;
#92=CARTESIAN_POINT('Line Origine',(0.9,5.91842523106,1.47296821)) ;
#104=CARTESIAN_POINT('Axis2P3D Location',(2.4,5.74522811426,-2.47471376724E-009)) ;
#109=CARTESIAN_POINT('Line Origine',(2.4,6.14305953129,-2.4747137916E-009)) ;
#113=CARTESIAN_POINT('Vertex',(3.9,6.14305953129,-2.47471376724E-009)) ;
#116=CARTESIAN_POINT('Line Origine',(3.9,5.94414382277,-2.47471377942E-009)) ;
#128=CARTESIAN_POINT('Axis2P3D Location',(3.9,3.5,1.47296821)) ;
#133=CARTESIAN_POINT('Line Origine',(3.9,5.91842523106,1.47296821)) ;
#137=CARTESIAN_POINT('Vertex',(3.9,6.14305953129,1.47296821)) ;
#140=CARTESIAN_POINT('Line Origine',(3.9,6.14305953129,0.736484103763)) ;
#152=CARTESIAN_POINT('Axis2P3D Location',(2.4,6.14305953129,1.47296821)) ;
#157=CARTESIAN_POINT('Line Origine',(2.4,6.14305953129,1.47296821)) ;
#169=CARTESIAN_POINT('Axis2P3D Location',(2.4,0.856940468715,1.47296821)) ;
#174=CARTESIAN_POINT('Line Origine',(2.4,0.856940468715,1.47296821)) ;
#178=CARTESIAN_POINT('Vertex',(0.9,0.856940468715,1.47296821)) ;
#180=CARTESIAN_POINT('Vertex',(3.9,0.856940468715,1.47296821)) ;
#183=CARTESIAN_POINT('Line Origine',(0.9,0.856940468715,0.736484103762)) ;
#187=CARTESIAN_POINT('Vertex',(0.9,0.856940468715,-2.4753985528E-009)) ;
#190=CARTESIAN_POINT('Line Origine',(2.4,0.856940468715,-2.4753985528E-009)) ;
#194=CARTESIAN_POINT('Vertex',(3.9,0.856940468715,-2.4753985528E-009)) ;
#197=CARTESIAN_POINT('Line Origine',(3.9,0.856940468715,0.736484103762)) ;
#209=CARTESIAN_POINT('Line Origine',(0.9,1.08157476894,1.47296821)) ;
#213=CARTESIAN_POINT('Vertex',(0.9,1.30620906916,1.47296821)) ;
#216=CARTESIAN_POINT('Line Origine',(0.9,1.28049047745,0.736484103763)) ;
#220=CARTESIAN_POINT('Vertex',(0.9,1.25477188574,-2.47471332315E-009)) ;
#223=CARTESIAN_POINT('Line Origine',(0.9,1.05585617723,-2.47471332315E-009)) ;
#235=CARTESIAN_POINT('Line Origine',(2.4,1.25477188574,-2.47471349228E-009)) ;
#239=CARTESIAN_POINT('Vertex',(3.9,1.25477188574,-2.47471332315E-009)) ;
#242=CARTESIAN_POINT('Line Origine',(3.9,1.05585617723,-2.4747134801E-009)) ;
#254=CARTESIAN_POINT('Line Origine',(3.9,1.28049047745,0.736484103763)) ;
#258=CARTESIAN_POINT('Vertex',(3.9,1.30620906916,1.47296821)) ;
#261=CARTESIAN_POINT('Line Origine',(3.9,1.08157476894,1.47296821)) ;
#273=CARTESIAN_POINT('Axis2P3D Location',(2.4,1.30620906916,1.47296821)) ;
#278=CARTESIAN_POINT('Line Origine',(2.4,1.30620906916,1.47296821)) ;
#290=CARTESIAN_POINT('Axis2P3D Location',(2.4,3.5,2.47296821)) ;
#295=CARTESIAN_POINT('Line Origine',(4.8,3.5,2.47296821)) ;
#299=CARTESIAN_POINT('Vertex',(4.8,-3.5527136788E-015,2.47296821)) ;
#301=CARTESIAN_POINT('Vertex',(4.8,7.,2.47296821)) ;
#304=CARTESIAN_POINT('Line Origine',(2.4,7.,2.47296821)) ;
#308=CARTESIAN_POINT('Vertex',(1.33226762955E-015,7.,2.47296821)) ;
#311=CARTESIAN_POINT('Line Origine',(0.,3.5,2.47296821)) ;
#315=CARTESIAN_POINT('Vertex',(0.,0.,2.47296821)) ;
#318=CARTESIAN_POINT('Line Origine',(2.4,-2.6645352591E-015,2.47296821)) ;
#330=CARTESIAN_POINT('Axis2P3D Location',(4.8,-2.6645352591E-015,1.47296821)) ;
#335=CARTESIAN_POINT('Line Origine',(2.4,-2.64616555711E-015,1.77296821)) ;
#339=CARTESIAN_POINT('Vertex',(0.,1.83697019872E-017,1.77296821)) ;
#341=CARTESIAN_POINT('Vertex',(4.8,-3.53434397681E-015,1.77296821)) ;
#344=CARTESIAN_POINT('Line Origine',(4.8,-2.62473423813E-015,2.12296821)) ;
#349=CARTESIAN_POINT('Line Origine',(0.,-2.62473423813E-015,2.12296821)) ;
#361=CARTESIAN_POINT('Axis2P3D Location',(5.76,0.75,1.47296821)) ;
#366=CARTESIAN_POINT('Line Origine',(0.,0.375,1.62296821)) ;
#370=CARTESIAN_POINT('Vertex',(0.,0.75,1.47296821)) ;
#373=CARTESIAN_POINT('Line Origine',(2.4,0.75,1.47296821)) ;
#377=CARTESIAN_POINT('Vertex',(4.8,0.75,1.47296821)) ;
#380=CARTESIAN_POINT('Line Origine',(4.8,0.375,1.62296821)) ;
#392=CARTESIAN_POINT('Axis2P3D Location',(1.33226762955E-015,7.,1.47296821)) ;
#397=CARTESIAN_POINT('Line Origine',(2.4,7.,1.77296821)) ;
#401=CARTESIAN_POINT('Vertex',(4.8,7.,1.77296821)) ;
#403=CARTESIAN_POINT('Vertex',(1.33226762955E-015,7.,1.77296821)) ;
#406=CARTESIAN_POINT('Line Origine',(1.33226762955E-015,7.,2.12296821)) ;
#411=CARTESIAN_POINT('Line Origine',(4.8,7.,2.12296821)) ;
#423=CARTESIAN_POINT('Axis2P3D Location',(2.4,3.5,1.47296821)) ;
#428=CARTESIAN_POINT('Line Origine',(2.4,6.25,1.47296821)) ;
#432=CARTESIAN_POINT('Vertex',(4.8,6.25,1.47296821)) ;
#434=CARTESIAN_POINT('Vertex',(0.,6.25,1.47296821)) ;
#437=CARTESIAN_POINT('Line Origine',(4.8,3.5,1.47296821)) ;
#442=CARTESIAN_POINT('Line Origine',(0.,3.5,1.47296821)) ;
#466=CARTESIAN_POINT('Axis2P3D Location',(0.,7.,1.47296821)) ;
#471=CARTESIAN_POINT('Line Origine',(0.,6.625,1.62296821)) ;
#485=CARTESIAN_POINT('Axis2P3D Location',(4.8,-3.5527136788E-015,1.47296821)) ;
#490=CARTESIAN_POINT('Line Origine',(4.8,6.625,1.62296821)) ;
#504=CARTESIAN_POINT('Axis2P3D Location',(-0.96,6.25,1.47296821)) ;
#34=DIRECTION('Axis2P3D Direction',(-6.1193017836E-017,-0.999390827019,-0.0348994967025)) ;
#35=DIRECTION('Axis2P3D XDirection',(2.13690727035E-018,0.0348994967025,-0.999390827019)) ;
#39=DIRECTION('Vector Direction',(1.,0.,0.)) ;
#48=DIRECTION('Vector Direction',(0.,0.0348994967025,-0.999390827019)) ;
#55=DIRECTION('Vector Direction',(1.,0.,0.)) ;
#62=DIRECTION('Vector Direction',(0.,0.0348994967025,-0.999390827019)) ;
#74=DIRECTION('Axis2P3D Direction',(1.,-6.12303176911E-017,3.74927562856E-033)) ;
#75=DIRECTION('Axis2P3D XDirection',(6.12303176911E-017,1.,-6.12323399574E-017)) ;
#79=DIRECTION('Vector Direction',(0.,0.,-1.)) ;
#88=DIRECTION('Vector Direction',(0.,1.,0.)) ;
#93=DIRECTION('Vector Direction',(0.,1.,0.)) ;
#105=DIRECTION('Axis2P3D Direction',(0.,-6.12323399574E-017,-1.)) ;
#106=DIRECTION('Axis2P3D XDirection',(6.12303176911E-017,1.,-6.12323399574E-017)) ;
#110=DIRECTION('Vector Direction',(1.,0.,0.)) ;
#117=DIRECTION('Vector Direction',(0.,1.,-6.12323397918E-017)) ;
#129=DIRECTION('Axis2P3D Direction',(1.,-6.12303176911E-017,3.74927562856E-033)) ;
#130=DIRECTION('Axis2P3D XDirection',(6.12303176911E-017,1.,-6.12323399574E-017)) ;
#134=DIRECTION('Vector Direction',(0.,1.,0.)) ;
#141=DIRECTION('Vector Direction',(0.,0.,-1.)) ;
#153=DIRECTION('Axis2P3D Direction',(-6.12303176911E-017,-1.,6.12323399574E-017)) ;
#154=DIRECTION('Axis2P3D XDirection',(0.,-6.12323399574E-017,-1.)) ;
#158=DIRECTION('Vector Direction',(1.,0.,0.)) ;
#170=DIRECTION('Axis2P3D Direction',(-6.12303176911E-017,-1.,6.12323399574E-017)) ;
#171=DIRECTION('Axis2P3D XDirection',(0.,-6.12323399574E-017,-1.)) ;
#175=DIRECTION('Vector Direction',(1.,-7.40148683083E-017,0.)) ;
#184=DIRECTION('Vector Direction',(0.,-7.53731828849E-017,-1.)) ;
#191=DIRECTION('Vector Direction',(1.,-7.40148683083E-017,0.)) ;
#198=DIRECTION('Vector Direction',(0.,-7.53731828849E-017,-1.)) ;
#210=DIRECTION('Vector Direction',(0.,-1.,0.)) ;
#217=DIRECTION('Vector Direction',(0.,-0.0348994967025,-0.999390827019)) ;
#224=DIRECTION('Vector Direction',(0.,-1.,0.)) ;
#236=DIRECTION('Vector Direction',(1.,0.,0.)) ;
#243=DIRECTION('Vector Direction',(0.,-1.,6.12323397918E-017)) ;
#255=DIRECTION('Vector Direction',(0.,-0.0348994967025,-0.999390827019)) ;
#262=DIRECTION('Vector Direction',(0.,-1.,0.)) ;
#274=DIRECTION('Axis2P3D Direction',(-6.1193017836E-017,-0.999390827019,0.0348994967025)) ;
#275=DIRECTION('Axis2P3D XDirection',(-2.13690727035E-018,-0.0348994967025,-0.999390827019)) ;
#279=DIRECTION('Vector Direction',(1.,0.,0.)) ;
#291=DIRECTION('Axis2P3D Direction',(0.,6.12323399574E-017,1.)) ;
#292=DIRECTION('Axis2P3D XDirection',(-1.,0.,0.)) ;
#296=DIRECTION('Vector Direction',(0.,1.,0.)) ;
#305=DIRECTION('Vector Direction',(1.,0.,0.)) ;
#312=DIRECTION('Vector Direction',(0.,-1.,0.)) ;
#319=DIRECTION('Vector Direction',(-1.,0.,0.)) ;
#331=DIRECTION('Axis2P3D Direction',(0.,1.,-6.12323399574E-017)) ;
#332=DIRECTION('Axis2P3D XDirection',(-1.,0.,0.)) ;
#336=DIRECTION('Vector Direction',(-1.,0.,0.)) ;
#345=DIRECTION('Vector Direction',(0.,6.12323399574E-017,1.)) ;
#350=DIRECTION('Vector Direction',(0.,6.12323399574E-017,1.)) ;
#362=DIRECTION('Axis2P3D Direction',(0.,0.371390676354,0.928476690885)) ;
#363=DIRECTION('Axis2P3D XDirection',(-1.,0.,0.)) ;
#367=DIRECTION('Vector Direction',(0.,-0.928476690885,0.371390676354)) ;
#374=DIRECTION('Vector Direction',(-1.,0.,0.)) ;
#381=DIRECTION('Vector Direction',(0.,-0.928476690885,0.371390676354)) ;
#393=DIRECTION('Axis2P3D Direction',(0.,-1.,6.12323399574E-017)) ;
#394=DIRECTION('Axis2P3D XDirection',(1.,0.,0.)) ;
#398=DIRECTION('Vector Direction',(1.,0.,0.)) ;
#407=DIRECTION('Vector Direction',(0.,0.,1.)) ;
#412=DIRECTION('Vector Direction',(0.,0.,1.)) ;
#424=DIRECTION('Axis2P3D Direction',(0.,6.12323399574E-017,1.)) ;
#425=DIRECTION('Axis2P3D XDirection',(-1.,0.,0.)) ;
#429=DIRECTION('Vector Direction',(1.,0.,0.)) ;
#438=DIRECTION('Vector Direction',(0.,1.,-8.07434927E-017)) ;
#443=DIRECTION('Vector Direction',(0.,-1.,8.07434927E-017)) ;
#467=DIRECTION('Axis2P3D Direction',(-1.,0.,0.)) ;
#468=DIRECTION('Axis2P3D XDirection',(0.,-1.,6.12323399574E-017)) ;
#472=DIRECTION('Vector Direction',(0.,-0.928476690885,-0.371390676354)) ;
#486=DIRECTION('Axis2P3D Direction',(1.,-0.,0.)) ;
#487=DIRECTION('Axis2P3D XDirection',(0.,1.,-6.12323399574E-017)) ;
#491=DIRECTION('Vector Direction',(0.,-0.928476690885,-0.371390676354)) ;
#505=DIRECTION('Axis2P3D Direction',(0.,-0.371390676354,0.928476690885)) ;
#506=DIRECTION('Axis2P3D XDirection',(1.,0.,0.)) ;
#31=PRESENTATION_LAYER_ASSIGNMENT('100',' ',(#22)) ;
#8=PRODUCT_RELATED_PRODUCT_CATEGORY('part',$,(#5)) ;
#7=PRODUCT_CATEGORY('part','specification') ;
#30=STYLED_ITEM(' ',(#29),#22) ;
#29=PRESENTATION_STYLE_ASSIGNMENT((#28)) ;
#28=SURFACE_STYLE_USAGE(.BOTH.,#27) ;
#27=SURFACE_SIDE_STYLE(' ',(#26)) ;
#26=SURFACE_STYLE_FILL_AREA(#25) ;
#25=FILL_AREA_STYLE(' ',(#24)) ;
#24=FILL_AREA_STYLE_COLOUR(' ',#23) ;
#40=VECTOR('Line Direction',#39,1.) ;
#49=VECTOR('Line Direction',#48,1.) ;
#56=VECTOR('Line Direction',#55,1.) ;
#63=VECTOR('Line Direction',#62,1.) ;
#80=VECTOR('Line Direction',#79,1.) ;
#89=VECTOR('Line Direction',#88,1.) ;
#94=VECTOR('Line Direction',#93,1.) ;
#111=VECTOR('Line Direction',#110,1.) ;
#118=VECTOR('Line Direction',#117,1.) ;
#135=VECTOR('Line Direction',#134,1.) ;
#142=VECTOR('Line Direction',#141,1.) ;
#159=VECTOR('Line Direction',#158,1.) ;
#176=VECTOR('Line Direction',#175,1.) ;
#185=VECTOR('Line Direction',#184,1.) ;
#192=VECTOR('Line Direction',#191,1.) ;
#199=VECTOR('Line Direction',#198,1.) ;
#211=VECTOR('Line Direction',#210,1.) ;
#218=VECTOR('Line Direction',#217,1.) ;
#225=VECTOR('Line Direction',#224,1.) ;
#237=VECTOR('Line Direction',#236,1.) ;
#244=VECTOR('Line Direction',#243,1.) ;
#256=VECTOR('Line Direction',#255,1.) ;
#263=VECTOR('Line Direction',#262,1.) ;
#280=VECTOR('Line Direction',#279,1.) ;
#297=VECTOR('Line Direction',#296,1.) ;
#306=VECTOR('Line Direction',#305,1.) ;
#313=VECTOR('Line Direction',#312,1.) ;
#320=VECTOR('Line Direction',#319,1.) ;
#337=VECTOR('Line Direction',#336,1.) ;
#346=VECTOR('Line Direction',#345,1.) ;
#351=VECTOR('Line Direction',#350,1.) ;
#368=VECTOR('Line Direction',#367,1.) ;
#375=VECTOR('Line Direction',#374,1.) ;
#382=VECTOR('Line Direction',#381,1.) ;
#399=VECTOR('Line Direction',#398,1.) ;
#408=VECTOR('Line Direction',#407,1.) ;
#413=VECTOR('Line Direction',#412,1.) ;
#430=VECTOR('Line Direction',#429,1.) ;
#439=VECTOR('Line Direction',#438,1.) ;
#444=VECTOR('Line Direction',#443,1.) ;
#473=VECTOR('Line Direction',#472,1.) ;
#492=VECTOR('Line Direction',#491,1.) ;
#16=UNCERTAINTY_MEASURE_WITH_UNIT(LENGTH_MEASURE(0.005),#12,'distance_accuracy_value','CONFUSED CURVE UNCERTAINTY') ;
#517=SHAPE_REPRESENTATION_RELATIONSHIP(' ',' ',#20,#516) ;
#67=ORIENTED_EDGE('',*,*,#46,.F.) ;
#68=ORIENTED_EDGE('',*,*,#53,.T.) ;
#69=ORIENTED_EDGE('',*,*,#60,.T.) ;
#70=ORIENTED_EDGE('',*,*,#65,.F.) ;
#98=ORIENTED_EDGE('',*,*,#86,.F.) ;
#99=ORIENTED_EDGE('',*,*,#91,.F.) ;
#100=ORIENTED_EDGE('',*,*,#53,.F.) ;
#101=ORIENTED_EDGE('',*,*,#96,.F.) ;
#122=ORIENTED_EDGE('',*,*,#60,.F.) ;
#123=ORIENTED_EDGE('',*,*,#91,.T.) ;
#124=ORIENTED_EDGE('',*,*,#115,.T.) ;
#125=ORIENTED_EDGE('',*,*,#120,.F.) ;
#146=ORIENTED_EDGE('',*,*,#139,.T.) ;
#147=ORIENTED_EDGE('',*,*,#65,.T.) ;
#148=ORIENTED_EDGE('',*,*,#120,.T.) ;
#149=ORIENTED_EDGE('',*,*,#144,.T.) ;
#163=ORIENTED_EDGE('',*,*,#115,.F.) ;
#164=ORIENTED_EDGE('',*,*,#86,.T.) ;
#165=ORIENTED_EDGE('',*,*,#161,.T.) ;
#166=ORIENTED_EDGE('',*,*,#144,.F.) ;
#203=ORIENTED_EDGE('',*,*,#182,.F.) ;
#204=ORIENTED_EDGE('',*,*,#189,.T.) ;
#205=ORIENTED_EDGE('',*,*,#196,.T.) ;
#206=ORIENTED_EDGE('',*,*,#201,.F.) ;
#229=ORIENTED_EDGE('',*,*,#215,.F.) ;
#230=ORIENTED_EDGE('',*,*,#222,.F.) ;
#231=ORIENTED_EDGE('',*,*,#227,.F.) ;
#232=ORIENTED_EDGE('',*,*,#189,.F.) ;
#248=ORIENTED_EDGE('',*,*,#196,.F.) ;
#249=ORIENTED_EDGE('',*,*,#227,.T.) ;
#250=ORIENTED_EDGE('',*,*,#241,.T.) ;
#251=ORIENTED_EDGE('',*,*,#246,.F.) ;
#267=ORIENTED_EDGE('',*,*,#201,.T.) ;
#268=ORIENTED_EDGE('',*,*,#246,.T.) ;
#269=ORIENTED_EDGE('',*,*,#260,.T.) ;
#270=ORIENTED_EDGE('',*,*,#265,.T.) ;
#284=ORIENTED_EDGE('',*,*,#241,.F.) ;
#285=ORIENTED_EDGE('',*,*,#222,.T.) ;
#286=ORIENTED_EDGE('',*,*,#282,.T.) ;
#287=ORIENTED_EDGE('',*,*,#260,.F.) ;
#324=ORIENTED_EDGE('',*,*,#303,.T.) ;
#325=ORIENTED_EDGE('',*,*,#310,.T.) ;
#326=ORIENTED_EDGE('',*,*,#317,.T.) ;
#327=ORIENTED_EDGE('',*,*,#322,.T.) ;
#355=ORIENTED_EDGE('',*,*,#343,.T.) ;
#356=ORIENTED_EDGE('',*,*,#348,.T.) ;
#357=ORIENTED_EDGE('',*,*,#322,.F.) ;
#358=ORIENTED_EDGE('',*,*,#353,.F.) ;
#386=ORIENTED_EDGE('',*,*,#343,.F.) ;
#387=ORIENTED_EDGE('',*,*,#372,.T.) ;
#388=ORIENTED_EDGE('',*,*,#379,.T.) ;
#389=ORIENTED_EDGE('',*,*,#384,.T.) ;
#417=ORIENTED_EDGE('',*,*,#405,.T.) ;
#418=ORIENTED_EDGE('',*,*,#410,.T.) ;
#419=ORIENTED_EDGE('',*,*,#310,.F.) ;
#420=ORIENTED_EDGE('',*,*,#415,.F.) ;
#448=ORIENTED_EDGE('',*,*,#436,.F.) ;
#449=ORIENTED_EDGE('',*,*,#441,.F.) ;
#450=ORIENTED_EDGE('',*,*,#379,.F.) ;
#451=ORIENTED_EDGE('',*,*,#446,.F.) ;
#454=ORIENTED_EDGE('',*,*,#96,.T.) ;
#455=ORIENTED_EDGE('',*,*,#46,.T.) ;
#456=ORIENTED_EDGE('',*,*,#139,.F.) ;
#457=ORIENTED_EDGE('',*,*,#161,.F.) ;
#460=ORIENTED_EDGE('',*,*,#265,.F.) ;
#461=ORIENTED_EDGE('',*,*,#282,.F.) ;
#462=ORIENTED_EDGE('',*,*,#215,.T.) ;
#463=ORIENTED_EDGE('',*,*,#182,.T.) ;
#477=ORIENTED_EDGE('',*,*,#446,.T.) ;
#478=ORIENTED_EDGE('',*,*,#372,.F.) ;
#479=ORIENTED_EDGE('',*,*,#353,.T.) ;
#480=ORIENTED_EDGE('',*,*,#317,.F.) ;
#481=ORIENTED_EDGE('',*,*,#410,.F.) ;
#482=ORIENTED_EDGE('',*,*,#475,.F.) ;
#496=ORIENTED_EDGE('',*,*,#415,.T.) ;
#497=ORIENTED_EDGE('',*,*,#303,.F.) ;
#498=ORIENTED_EDGE('',*,*,#348,.F.) ;
#499=ORIENTED_EDGE('',*,*,#384,.F.) ;
#500=ORIENTED_EDGE('',*,*,#441,.T.) ;
#501=ORIENTED_EDGE('',*,*,#494,.F.) ;
#510=ORIENTED_EDGE('',*,*,#405,.F.) ;
#511=ORIENTED_EDGE('',*,*,#494,.T.) ;
#512=ORIENTED_EDGE('',*,*,#436,.T.) ;
#513=ORIENTED_EDGE('',*,*,#475,.T.) ;
#458=FACE_BOUND('',#453,.T.) ;
#464=FACE_BOUND('',#459,.T.) ;
#32=CLOSED_SHELL('Closed Shell',(#72,#103,#127,#151,#168,#208,#234,#253,#272,#289,#329,#360,#391,#422,#465,#484,#503,#515)) ;
#516=ADVANCED_BREP_SHAPE_REPRESENTATION('NONE',(#22),#17) ;
#72=ADVANCED_FACE('S3D gedreht',(#71),#37,.T.) ;
#103=ADVANCED_FACE('S3D gedreht',(#102),#77,.F.) ;
#127=ADVANCED_FACE('S3D gedreht',(#126),#108,.T.) ;
#151=ADVANCED_FACE('S3D gedreht',(#150),#132,.T.) ;
#168=ADVANCED_FACE('S3D gedreht',(#167),#156,.F.) ;
#208=ADVANCED_FACE('S3D gedreht',(#207),#173,.T.) ;
#234=ADVANCED_FACE('S3D gedreht',(#233),#77,.F.) ;
#253=ADVANCED_FACE('S3D gedreht',(#252),#108,.T.) ;
#272=ADVANCED_FACE('S3D gedreht',(#271),#132,.T.) ;
#289=ADVANCED_FACE('S3D gedreht',(#288),#277,.F.) ;
#329=ADVANCED_FACE('S3D gedreht',(#328),#294,.T.) ;
#360=ADVANCED_FACE('S3D gedreht',(#359),#334,.F.) ;
#391=ADVANCED_FACE('S3D gedreht',(#390),#365,.F.) ;
#422=ADVANCED_FACE('S3D gedreht',(#421),#396,.F.) ;
#465=ADVANCED_FACE('S3D gedreht',(#452,#458,#464),#427,.F.) ;
#484=ADVANCED_FACE('S3D gedreht',(#483),#470,.T.) ;
#503=ADVANCED_FACE('S3D gedreht',(#502),#489,.T.) ;
#515=ADVANCED_FACE('S3D gedreht',(#514),#508,.F.) ;
#4=APPLICATION_PROTOCOL_DEFINITION('international standard','automotive_design',2001,#1) ;
#22=MANIFOLD_SOLID_BREP('S3D gedreht',#32) ;
#23=DRAUGHTING_PRE_DEFINED_COLOUR('white') ;
#46=EDGE_CURVE('',#43,#45,#41,.T.) ;
#53=EDGE_CURVE('',#43,#52,#50,.T.) ;
#60=EDGE_CURVE('',#52,#59,#57,.T.) ;
#65=EDGE_CURVE('',#45,#59,#64,.T.) ;
#86=EDGE_CURVE('',#83,#85,#81,.F.) ;
#91=EDGE_CURVE('',#52,#83,#90,.T.) ;
#96=EDGE_CURVE('',#85,#43,#95,.F.) ;
#115=EDGE_CURVE('',#83,#114,#112,.T.) ;
#120=EDGE_CURVE('',#59,#114,#119,.T.) ;
#139=EDGE_CURVE('',#138,#45,#136,.F.) ;
#144=EDGE_CURVE('',#114,#138,#143,.F.) ;
#161=EDGE_CURVE('',#85,#138,#160,.T.) ;
#182=EDGE_CURVE('',#179,#181,#177,.T.) ;
#189=EDGE_CURVE('',#179,#188,#186,.T.) ;
#196=EDGE_CURVE('',#188,#195,#193,.T.) ;
#201=EDGE_CURVE('',#181,#195,#200,.T.) ;
#215=EDGE_CURVE('',#214,#179,#212,.T.) ;
#222=EDGE_CURVE('',#221,#214,#219,.F.) ;
#227=EDGE_CURVE('',#188,#221,#226,.F.) ;
#241=EDGE_CURVE('',#221,#240,#238,.T.) ;
#246=EDGE_CURVE('',#195,#240,#245,.F.) ;
#260=EDGE_CURVE('',#240,#259,#257,.F.) ;
#265=EDGE_CURVE('',#259,#181,#264,.T.) ;
#282=EDGE_CURVE('',#214,#259,#281,.T.) ;
#303=EDGE_CURVE('',#300,#302,#298,.T.) ;
#310=EDGE_CURVE('',#302,#309,#307,.F.) ;
#317=EDGE_CURVE('',#309,#316,#314,.T.) ;
#322=EDGE_CURVE('',#316,#300,#321,.F.) ;
#343=EDGE_CURVE('',#340,#342,#338,.F.) ;
#348=EDGE_CURVE('',#342,#300,#347,.T.) ;
#353=EDGE_CURVE('',#340,#316,#352,.T.) ;
#372=EDGE_CURVE('',#340,#371,#369,.F.) ;
#379=EDGE_CURVE('',#371,#378,#376,.F.) ;
#384=EDGE_CURVE('',#378,#342,#383,.T.) ;
#405=EDGE_CURVE('',#402,#404,#400,.F.) ;
#410=EDGE_CURVE('',#404,#309,#409,.T.) ;
#415=EDGE_CURVE('',#402,#302,#414,.T.) ;
#436=EDGE_CURVE('',#433,#435,#431,.F.) ;
#441=EDGE_CURVE('',#378,#433,#440,.T.) ;
#446=EDGE_CURVE('',#435,#371,#445,.T.) ;
#475=EDGE_CURVE('',#435,#404,#474,.F.) ;
#494=EDGE_CURVE('',#402,#433,#493,.T.) ;
#66=EDGE_LOOP('',(#67,#68,#69,#70)) ;
#97=EDGE_LOOP('',(#98,#99,#100,#101)) ;
#121=EDGE_LOOP('',(#122,#123,#124,#125)) ;
#145=EDGE_LOOP('',(#146,#147,#148,#149)) ;
#162=EDGE_LOOP('',(#163,#164,#165,#166)) ;
#202=EDGE_LOOP('',(#203,#204,#205,#206)) ;
#228=EDGE_LOOP('',(#229,#230,#231,#232)) ;
#247=EDGE_LOOP('',(#248,#249,#250,#251)) ;
#266=EDGE_LOOP('',(#267,#268,#269,#270)) ;
#283=EDGE_LOOP('',(#284,#285,#286,#287)) ;
#323=EDGE_LOOP('',(#324,#325,#326,#327)) ;
#354=EDGE_LOOP('',(#355,#356,#357,#358)) ;
#385=EDGE_LOOP('',(#386,#387,#388,#389)) ;
#416=EDGE_LOOP('',(#417,#418,#419,#420)) ;
#447=EDGE_LOOP('',(#448,#449,#450,#451)) ;
#453=EDGE_LOOP('',(#454,#455,#456,#457)) ;
#459=EDGE_LOOP('',(#460,#461,#462,#463)) ;
#476=EDGE_LOOP('',(#477,#478,#479,#480,#481,#482)) ;
#495=EDGE_LOOP('',(#496,#497,#498,#499,#500,#501)) ;
#509=EDGE_LOOP('',(#510,#511,#512,#513)) ;
#71=FACE_OUTER_BOUND('',#66,.T.) ;
#102=FACE_OUTER_BOUND('',#97,.T.) ;
#126=FACE_OUTER_BOUND('',#121,.T.) ;
#150=FACE_OUTER_BOUND('',#145,.T.) ;
#167=FACE_OUTER_BOUND('',#162,.T.) ;
#207=FACE_OUTER_BOUND('',#202,.T.) ;
#233=FACE_OUTER_BOUND('',#228,.T.) ;
#252=FACE_OUTER_BOUND('',#247,.T.) ;
#271=FACE_OUTER_BOUND('',#266,.T.) ;
#288=FACE_OUTER_BOUND('',#283,.T.) ;
#328=FACE_OUTER_BOUND('',#323,.T.) ;
#359=FACE_OUTER_BOUND('',#354,.T.) ;
#390=FACE_OUTER_BOUND('',#385,.T.) ;
#421=FACE_OUTER_BOUND('',#416,.T.) ;
#452=FACE_OUTER_BOUND('',#447,.T.) ;
#483=FACE_OUTER_BOUND('',#476,.T.) ;
#502=FACE_OUTER_BOUND('',#495,.T.) ;
#514=FACE_OUTER_BOUND('',#509,.T.) ;
#41=LINE('Line',#38,#40) ;
#50=LINE('Line',#47,#49) ;
#57=LINE('Line',#54,#56) ;
#64=LINE('Line',#61,#63) ;
#81=LINE('Line',#78,#80) ;
#90=LINE('Line',#87,#89) ;
#95=LINE('Line',#92,#94) ;
#112=LINE('Line',#109,#111) ;
#119=LINE('Line',#116,#118) ;
#136=LINE('Line',#133,#135) ;
#143=LINE('Line',#140,#142) ;
#160=LINE('Line',#157,#159) ;
#177=LINE('Line',#174,#176) ;
#186=LINE('Line',#183,#185) ;
#193=LINE('Line',#190,#192) ;
#200=LINE('Line',#197,#199) ;
#212=LINE('Line',#209,#211) ;
#219=LINE('Line',#216,#218) ;
#226=LINE('Line',#223,#225) ;
#238=LINE('Line',#235,#237) ;
#245=LINE('Line',#242,#244) ;
#257=LINE('Line',#254,#256) ;
#264=LINE('Line',#261,#263) ;
#281=LINE('Line',#278,#280) ;
#298=LINE('Line',#295,#297) ;
#307=LINE('Line',#304,#306) ;
#314=LINE('Line',#311,#313) ;
#321=LINE('Line',#318,#320) ;
#338=LINE('Line',#335,#337) ;
#347=LINE('Line',#344,#346) ;
#352=LINE('Line',#349,#351) ;
#369=LINE('Line',#366,#368) ;
#376=LINE('Line',#373,#375) ;
#383=LINE('Line',#380,#382) ;
#400=LINE('Line',#397,#399) ;
#409=LINE('Line',#406,#408) ;
#414=LINE('Line',#411,#413) ;
#431=LINE('Line',#428,#430) ;
#440=LINE('Line',#437,#439) ;
#445=LINE('Line',#442,#444) ;
#474=LINE('Line',#471,#473) ;
#493=LINE('Line',#490,#492) ;
#37=PLANE('',#36) ;
#77=PLANE('',#76) ;
#108=PLANE('',#107) ;
#132=PLANE('',#131) ;
#156=PLANE('',#155) ;
#173=PLANE('',#172) ;
#277=PLANE('',#276) ;
#294=PLANE('',#293) ;
#334=PLANE('',#333) ;
#365=PLANE('',#364) ;
#396=PLANE('',#395) ;
#427=PLANE('',#426) ;
#470=PLANE('',#469) ;
#489=PLANE('',#488) ;
#508=PLANE('',#507) ;
#14=PLANE_ANGLE_MEASURE_WITH_UNIT(PLANE_ANGLE_MEASURE(0.0174532925199),#13) ;
#9=PRODUCT_CATEGORY_RELATIONSHIP(' ',' ',#7,#8) ;
#6=PRODUCT_DEFINITION_FORMATION_WITH_SPECIFIED_SOURCE('',' ',#5,.NOT_KNOWN.) ;
#21=SHAPE_DEFINITION_REPRESENTATION(#11,#20) ;
#43=VERTEX_POINT('',#42) ;
#45=VERTEX_POINT('',#44) ;
#52=VERTEX_POINT('',#51) ;
#59=VERTEX_POINT('',#58) ;
#83=VERTEX_POINT('',#82) ;
#85=VERTEX_POINT('',#84) ;
#114=VERTEX_POINT('',#113) ;
#138=VERTEX_POINT('',#137) ;
#179=VERTEX_POINT('',#178) ;
#181=VERTEX_POINT('',#180) ;
#188=VERTEX_POINT('',#187) ;
#195=VERTEX_POINT('',#194) ;
#214=VERTEX_POINT('',#213) ;
#221=VERTEX_POINT('',#220) ;
#240=VERTEX_POINT('',#239) ;
#259=VERTEX_POINT('',#258) ;
#300=VERTEX_POINT('',#299) ;
#302=VERTEX_POINT('',#301) ;
#309=VERTEX_POINT('',#308) ;
#316=VERTEX_POINT('',#315) ;
#340=VERTEX_POINT('',#339) ;
#342=VERTEX_POINT('',#341) ;
#371=VERTEX_POINT('',#370) ;
#378=VERTEX_POINT('',#377) ;
#402=VERTEX_POINT('',#401) ;
#404=VERTEX_POINT('',#403) ;
#433=VERTEX_POINT('',#432) ;
#435=VERTEX_POINT('',#434) ;
#12=(LENGTH_UNIT()NAMED_UNIT(*)SI_UNIT(.MILLI.,.METRE.)) ;
#13=(NAMED_UNIT(*)PLANE_ANGLE_UNIT()SI_UNIT($,.RADIAN.)) ;
#15=(NAMED_UNIT(*)SI_UNIT($,.STERADIAN.)SOLID_ANGLE_UNIT()) ;
#17=(GEOMETRIC_REPRESENTATION_CONTEXT(3)GLOBAL_UNCERTAINTY_ASSIGNED_CONTEXT((#16))GLOBAL_UNIT_ASSIGNED_CONTEXT((#12,#13,#15))REPRESENTATION_CONTEXT(' ',' ')) ;
ENDSEC;
END-ISO-10303-21;
