ISO-10303-21;
HEADER;
FILE_DESCRIPTION(('CATIA V5R19 STEP'),'2;1');

FILE_NAME ('D1459526_0', '2015-10-28T09:25:43+00:00', ('Weidmueller Interface'), ('Weidmueller'), 'CATIA Version 5 Release 20 SP 5 (IN-10)', 'CATIA V5 STEP AP214', 'none');

FILE_SCHEMA(('AUTOMOTIVE_DESIGN { 1 0 10303 214 1 1 1 1 }'));

ENDSEC;
/* file written by CATIA V5R20 */
DATA;
#5=PRODUCT('61603_THM_WO_51X36','','LEITERMARKIERER\X2\000D\X0\\X2\000A\X0\<Q-CHECKER_SEAL> Q-Checker Version 2.14.8  \X2\000A\X0\CATIA-Version         : Catia V5 R20 SP5 Build Date 01-06-2014.17.15\X2\000A\X0\Model size (in KByte) : 0\X2\000A\X0\Checking date         : 2015-10-22 08:36:44\X2\000A\X0\Checking profile      : ADMIN / Release_CATDrawings [CATPart]\X2\000A\X0\Model assessment      : Fehlerhaft\X2\000A\X0\Total weight sum      : 9\X2\000A\X0\<CROSS_CHECK_SUM>\X2\000A\X0\  <CHKSUM_DATE> 639290441 </CHKSUM_DATE>\X2\000A\X0\  <CHKSUM_ENTITIES> 1552540906 </CHKSUM_ENTITIES>\X2\000A\X0\  <CHKSUM_PROFILE> 1832121173 </CHKSUM_PROFILE>\X2\000A\X0\  <CHKSUM_DIMENSION> -186917087 </CHKSUM_DIMENSION>\X2\000A\X0\  <CHKSUM_PROJINTERSEC> -896974048 </CHKSUM_PROJINTERSEC>\X2\000A\X0\  <CHKSUM_IDENTCRV> -896974048 </CHKSUM_IDENTCRV>\X2\000A\X0\  <CHKSUM_INFINITY> 138018827 </CHKSUM_INFINITY>\X2\000A\X0\</CROSS_CHECK_SUM>\X2\000A\X0\</Q-CHECKER_SEAL> \X2\000A\X0\ \X2\000A\X0\ \X2\000A\X0\ \X2\000D\X0\\X2\000A\X0\ \X2\000D\X0\\X2\000A\X0\ \X2\000D\X0\\X2\000A\X0\ \X2\000D\X0\\X2\000A\X0\',(#2)) ;
#2=PRODUCT_CONTEXT(' ',#1,'mechanical') ;
#1=APPLICATION_CONTEXT('automotive design') ;
#10=PRODUCT_DEFINITION('',' ',#6,#3) ;
#3=PRODUCT_DEFINITION_CONTEXT('part definition',#1,' ') ;
#11=PRODUCT_DEFINITION_SHAPE(' ',' ',#10) ;
#226=MECHANICAL_DESIGN_GEOMETRIC_PRESENTATION_REPRESENTATION(' ',(#80,#118,#156,#185,#204,#223,#30),#17) ;
#20=SHAPE_REPRESENTATION(' ',(#19),#17) ;
#19=AXIS2_PLACEMENT_3D(' ',#18,$,$) ;
#36=AXIS2_PLACEMENT_3D('Plane Axis2P3D',#33,#34,#35) ;
#84=AXIS2_PLACEMENT_3D('Plane Axis2P3D',#81,#82,#83) ;
#122=AXIS2_PLACEMENT_3D('Plane Axis2P3D',#119,#120,#121) ;
#160=AXIS2_PLACEMENT_3D('Plane Axis2P3D',#157,#158,#159) ;
#189=AXIS2_PLACEMENT_3D('Plane Axis2P3D',#186,#187,#188) ;
#208=AXIS2_PLACEMENT_3D('Plane Axis2P3D',#205,#206,#207) ;
#18=CARTESIAN_POINT(' ',(0.,0.,0.)) ;
#33=CARTESIAN_POINT('Axis2P3D Location',(-7.1054273576E-015,0.,0.)) ;
#38=CARTESIAN_POINT('Line Origine',(-7.1054273576E-015,0.,0.0125)) ;
#42=CARTESIAN_POINT('Vertex',(-7.1054273576E-015,3.88825358729E-016,0.)) ;
#44=CARTESIAN_POINT('Vertex',(-7.1054273576E-015,3.88825358729E-016,0.025)) ;
#47=CARTESIAN_POINT('Line Origine',(6.35,-3.88825358729E-016,0.)) ;
#51=CARTESIAN_POINT('Vertex',(12.7,-3.88825358729E-016,0.)) ;
#54=CARTESIAN_POINT('Line Origine',(12.7,-7.77650717459E-016,0.0125)) ;
#58=CARTESIAN_POINT('Vertex',(12.7,-3.88825358729E-016,0.025)) ;
#61=CARTESIAN_POINT('Line Origine',(6.35,-3.88825358729E-016,0.025)) ;
#81=CARTESIAN_POINT('Axis2P3D Location',(12.7,50.8,0.)) ;
#86=CARTESIAN_POINT('Line Origine',(12.7,25.4,0.)) ;
#90=CARTESIAN_POINT('Vertex',(12.7,50.8,0.)) ;
#93=CARTESIAN_POINT('Line Origine',(12.7,50.8,0.0125)) ;
#97=CARTESIAN_POINT('Vertex',(12.7,50.8,0.025)) ;
#100=CARTESIAN_POINT('Line Origine',(12.7,25.4,0.025)) ;
#119=CARTESIAN_POINT('Axis2P3D Location',(12.7,50.8,0.)) ;
#124=CARTESIAN_POINT('Line Origine',(6.35,50.8,0.)) ;
#128=CARTESIAN_POINT('Vertex',(-7.1054273576E-015,50.8,0.)) ;
#131=CARTESIAN_POINT('Line Origine',(-7.1054273576E-015,50.8,0.0125)) ;
#135=CARTESIAN_POINT('Vertex',(-7.1054273576E-015,50.8,0.025)) ;
#138=CARTESIAN_POINT('Line Origine',(6.35,50.8,0.025)) ;
#157=CARTESIAN_POINT('Axis2P3D Location',(-2.6645352591E-015,-3.5527136788E-015,0.)) ;
#162=CARTESIAN_POINT('Line Origine',(-1.10923382418E-015,25.4,0.)) ;
#167=CARTESIAN_POINT('Line Origine',(-1.10923382418E-015,25.4,0.025)) ;
#186=CARTESIAN_POINT('Axis2P3D Location',(6.35,25.4,0.)) ;
#205=CARTESIAN_POINT('Axis2P3D Location',(6.35,25.4,0.025)) ;
#34=DIRECTION('Axis2P3D Direction',(-6.12323399574E-017,-1.,0.)) ;
#35=DIRECTION('Axis2P3D XDirection',(1.,-6.12323399574E-017,0.)) ;
#39=DIRECTION('Vector Direction',(0.,0.,1.)) ;
#48=DIRECTION('Vector Direction',(1.,-6.12323399574E-017,0.)) ;
#55=DIRECTION('Vector Direction',(0.,0.,1.)) ;
#62=DIRECTION('Vector Direction',(1.,-6.12323399574E-017,0.)) ;
#82=DIRECTION('Axis2P3D Direction',(-1.,6.12323399574E-017,0.)) ;
#83=DIRECTION('Axis2P3D XDirection',(-6.12323399574E-017,-1.,0.)) ;
#87=DIRECTION('Vector Direction',(-6.99353086378E-017,-1.,0.)) ;
#94=DIRECTION('Vector Direction',(0.,0.,1.)) ;
#101=DIRECTION('Vector Direction',(-6.99353086378E-017,-1.,0.)) ;
#120=DIRECTION('Axis2P3D Direction',(6.12323399574E-017,1.,-0.)) ;
#121=DIRECTION('Axis2P3D XDirection',(-1.,6.12323399574E-017,0.)) ;
#125=DIRECTION('Vector Direction',(-1.,0.,0.)) ;
#132=DIRECTION('Vector Direction',(0.,0.,1.)) ;
#139=DIRECTION('Vector Direction',(-1.,0.,0.)) ;
#158=DIRECTION('Axis2P3D Direction',(1.,-6.12323399574E-017,0.)) ;
#159=DIRECTION('Axis2P3D XDirection',(6.12323399574E-017,1.,0.)) ;
#163=DIRECTION('Vector Direction',(6.12323399574E-017,1.,0.)) ;
#168=DIRECTION('Vector Direction',(6.12323399574E-017,1.,0.)) ;
#187=DIRECTION('Axis2P3D Direction',(0.,-0.,1.)) ;
#188=DIRECTION('Axis2P3D XDirection',(6.12323399574E-017,1.,0.)) ;
#206=DIRECTION('Axis2P3D Direction',(0.,-0.,1.)) ;
#207=DIRECTION('Axis2P3D XDirection',(6.12323399574E-017,1.,0.)) ;
#31=PRESENTATION_LAYER_ASSIGNMENT('1',' ',(#22)) ;
#8=PRODUCT_RELATED_PRODUCT_CATEGORY('part',$,(#5)) ;
#7=PRODUCT_CATEGORY('part','specification') ;
#30=STYLED_ITEM(' ',(#29),#22) ;
#29=PRESENTATION_STYLE_ASSIGNMENT((#28)) ;
#79=PRESENTATION_STYLE_ASSIGNMENT((#78)) ;
#117=PRESENTATION_STYLE_ASSIGNMENT((#116)) ;
#155=PRESENTATION_STYLE_ASSIGNMENT((#154)) ;
#184=PRESENTATION_STYLE_ASSIGNMENT((#183)) ;
#203=PRESENTATION_STYLE_ASSIGNMENT((#202)) ;
#222=PRESENTATION_STYLE_ASSIGNMENT((#221)) ;
#28=SURFACE_STYLE_USAGE(.BOTH.,#27) ;
#78=SURFACE_STYLE_USAGE(.BOTH.,#77) ;
#116=SURFACE_STYLE_USAGE(.BOTH.,#115) ;
#154=SURFACE_STYLE_USAGE(.BOTH.,#153) ;
#183=SURFACE_STYLE_USAGE(.BOTH.,#182) ;
#202=SURFACE_STYLE_USAGE(.BOTH.,#201) ;
#221=SURFACE_STYLE_USAGE(.BOTH.,#220) ;
#27=SURFACE_SIDE_STYLE(' ',(#26)) ;
#77=SURFACE_SIDE_STYLE(' ',(#76)) ;
#115=SURFACE_SIDE_STYLE(' ',(#114)) ;
#153=SURFACE_SIDE_STYLE(' ',(#152)) ;
#182=SURFACE_SIDE_STYLE(' ',(#181)) ;
#201=SURFACE_SIDE_STYLE(' ',(#200)) ;
#220=SURFACE_SIDE_STYLE(' ',(#219)) ;
#26=SURFACE_STYLE_FILL_AREA(#25) ;
#76=SURFACE_STYLE_FILL_AREA(#75) ;
#114=SURFACE_STYLE_FILL_AREA(#113) ;
#152=SURFACE_STYLE_FILL_AREA(#151) ;
#181=SURFACE_STYLE_FILL_AREA(#180) ;
#200=SURFACE_STYLE_FILL_AREA(#199) ;
#219=SURFACE_STYLE_FILL_AREA(#218) ;
#25=FILL_AREA_STYLE(' ',(#24)) ;
#75=FILL_AREA_STYLE(' ',(#74)) ;
#113=FILL_AREA_STYLE(' ',(#112)) ;
#151=FILL_AREA_STYLE(' ',(#150)) ;
#180=FILL_AREA_STYLE(' ',(#179)) ;
#199=FILL_AREA_STYLE(' ',(#198)) ;
#218=FILL_AREA_STYLE(' ',(#217)) ;
#24=FILL_AREA_STYLE_COLOUR(' ',#23) ;
#74=FILL_AREA_STYLE_COLOUR(' ',#73) ;
#112=FILL_AREA_STYLE_COLOUR(' ',#73) ;
#150=FILL_AREA_STYLE_COLOUR(' ',#73) ;
#179=FILL_AREA_STYLE_COLOUR(' ',#73) ;
#198=FILL_AREA_STYLE_COLOUR(' ',#73) ;
#217=FILL_AREA_STYLE_COLOUR(' ',#73) ;
#40=VECTOR('Line Direction',#39,1.) ;
#49=VECTOR('Line Direction',#48,1.) ;
#56=VECTOR('Line Direction',#55,1.) ;
#63=VECTOR('Line Direction',#62,1.) ;
#88=VECTOR('Line Direction',#87,1.) ;
#95=VECTOR('Line Direction',#94,1.) ;
#102=VECTOR('Line Direction',#101,1.) ;
#126=VECTOR('Line Direction',#125,1.) ;
#133=VECTOR('Line Direction',#132,1.) ;
#140=VECTOR('Line Direction',#139,1.) ;
#164=VECTOR('Line Direction',#163,1.) ;
#169=VECTOR('Line Direction',#168,1.) ;
#16=UNCERTAINTY_MEASURE_WITH_UNIT(LENGTH_MEASURE(0.005),#12,'distance_accuracy_value','CONFUSED CURVE UNCERTAINTY') ;
#225=SHAPE_REPRESENTATION_RELATIONSHIP(' ',' ',#20,#224) ;
#67=ORIENTED_EDGE('',*,*,#46,.F.) ;
#68=ORIENTED_EDGE('',*,*,#53,.T.) ;
#69=ORIENTED_EDGE('',*,*,#60,.T.) ;
#70=ORIENTED_EDGE('',*,*,#65,.F.) ;
#106=ORIENTED_EDGE('',*,*,#60,.F.) ;
#107=ORIENTED_EDGE('',*,*,#92,.T.) ;
#108=ORIENTED_EDGE('',*,*,#99,.T.) ;
#109=ORIENTED_EDGE('',*,*,#104,.F.) ;
#144=ORIENTED_EDGE('',*,*,#99,.F.) ;
#145=ORIENTED_EDGE('',*,*,#130,.T.) ;
#146=ORIENTED_EDGE('',*,*,#137,.T.) ;
#147=ORIENTED_EDGE('',*,*,#142,.F.) ;
#173=ORIENTED_EDGE('',*,*,#137,.F.) ;
#174=ORIENTED_EDGE('',*,*,#166,.T.) ;
#175=ORIENTED_EDGE('',*,*,#46,.T.) ;
#176=ORIENTED_EDGE('',*,*,#171,.F.) ;
#192=ORIENTED_EDGE('',*,*,#166,.F.) ;
#193=ORIENTED_EDGE('',*,*,#130,.F.) ;
#194=ORIENTED_EDGE('',*,*,#92,.F.) ;
#195=ORIENTED_EDGE('',*,*,#53,.F.) ;
#211=ORIENTED_EDGE('',*,*,#65,.T.) ;
#212=ORIENTED_EDGE('',*,*,#104,.T.) ;
#213=ORIENTED_EDGE('',*,*,#142,.T.) ;
#214=ORIENTED_EDGE('',*,*,#171,.T.) ;
#32=CLOSED_SHELL('Closed Shell',(#72,#111,#149,#178,#197,#216)) ;
#224=ADVANCED_BREP_SHAPE_REPRESENTATION('NONE',(#22),#17) ;
#72=ADVANCED_FACE('S3D - verschoben',(#71),#37,.T.) ;
#111=ADVANCED_FACE('S3D - verschoben',(#110),#85,.F.) ;
#149=ADVANCED_FACE('S3D - verschoben',(#148),#123,.T.) ;
#178=ADVANCED_FACE('S3D - verschoben',(#177),#161,.F.) ;
#197=ADVANCED_FACE('S3D - verschoben',(#196),#190,.F.) ;
#216=ADVANCED_FACE('S3D - verschoben',(#215),#209,.T.) ;
#4=APPLICATION_PROTOCOL_DEFINITION('international standard','automotive_design',2001,#1) ;
#22=MANIFOLD_SOLID_BREP('S3D - verschoben',#32) ;
#23=COLOUR_RGB('Colour',0.823529411765,0.823529411765,1.) ;
#80=OVER_RIDING_STYLED_ITEM(' ',(#79),#72,#30) ;
#118=OVER_RIDING_STYLED_ITEM(' ',(#117),#111,#30) ;
#156=OVER_RIDING_STYLED_ITEM(' ',(#155),#149,#30) ;
#185=OVER_RIDING_STYLED_ITEM(' ',(#184),#178,#30) ;
#204=OVER_RIDING_STYLED_ITEM(' ',(#203),#197,#30) ;
#223=OVER_RIDING_STYLED_ITEM(' ',(#222),#216,#30) ;
#73=DRAUGHTING_PRE_DEFINED_COLOUR('white') ;
#46=EDGE_CURVE('',#43,#45,#41,.T.) ;
#53=EDGE_CURVE('',#43,#52,#50,.T.) ;
#60=EDGE_CURVE('',#52,#59,#57,.T.) ;
#65=EDGE_CURVE('',#45,#59,#64,.T.) ;
#92=EDGE_CURVE('',#52,#91,#89,.F.) ;
#99=EDGE_CURVE('',#91,#98,#96,.T.) ;
#104=EDGE_CURVE('',#59,#98,#103,.F.) ;
#130=EDGE_CURVE('',#91,#129,#127,.T.) ;
#137=EDGE_CURVE('',#129,#136,#134,.T.) ;
#142=EDGE_CURVE('',#98,#136,#141,.T.) ;
#166=EDGE_CURVE('',#129,#43,#165,.F.) ;
#171=EDGE_CURVE('',#136,#45,#170,.F.) ;
#66=EDGE_LOOP('',(#67,#68,#69,#70)) ;
#105=EDGE_LOOP('',(#106,#107,#108,#109)) ;
#143=EDGE_LOOP('',(#144,#145,#146,#147)) ;
#172=EDGE_LOOP('',(#173,#174,#175,#176)) ;
#191=EDGE_LOOP('',(#192,#193,#194,#195)) ;
#210=EDGE_LOOP('',(#211,#212,#213,#214)) ;
#71=FACE_OUTER_BOUND('',#66,.T.) ;
#110=FACE_OUTER_BOUND('',#105,.T.) ;
#148=FACE_OUTER_BOUND('',#143,.T.) ;
#177=FACE_OUTER_BOUND('',#172,.T.) ;
#196=FACE_OUTER_BOUND('',#191,.T.) ;
#215=FACE_OUTER_BOUND('',#210,.T.) ;
#41=LINE('Line',#38,#40) ;
#50=LINE('Line',#47,#49) ;
#57=LINE('Line',#54,#56) ;
#64=LINE('Line',#61,#63) ;
#89=LINE('Line',#86,#88) ;
#96=LINE('Line',#93,#95) ;
#103=LINE('Line',#100,#102) ;
#127=LINE('Line',#124,#126) ;
#134=LINE('Line',#131,#133) ;
#141=LINE('Line',#138,#140) ;
#165=LINE('Line',#162,#164) ;
#170=LINE('Line',#167,#169) ;
#37=PLANE('',#36) ;
#85=PLANE('',#84) ;
#123=PLANE('',#122) ;
#161=PLANE('',#160) ;
#190=PLANE('',#189) ;
#209=PLANE('',#208) ;
#14=PLANE_ANGLE_MEASURE_WITH_UNIT(PLANE_ANGLE_MEASURE(0.0174532925199),#13) ;
#9=PRODUCT_CATEGORY_RELATIONSHIP(' ',' ',#7,#8) ;
#6=PRODUCT_DEFINITION_FORMATION_WITH_SPECIFIED_SOURCE('',' ',#5,.BOUGHT.) ;
#21=SHAPE_DEFINITION_REPRESENTATION(#11,#20) ;
#43=VERTEX_POINT('',#42) ;
#45=VERTEX_POINT('',#44) ;
#52=VERTEX_POINT('',#51) ;
#59=VERTEX_POINT('',#58) ;
#91=VERTEX_POINT('',#90) ;
#98=VERTEX_POINT('',#97) ;
#129=VERTEX_POINT('',#128) ;
#136=VERTEX_POINT('',#135) ;
#12=(LENGTH_UNIT()NAMED_UNIT(*)SI_UNIT(.MILLI.,.METRE.)) ;
#13=(NAMED_UNIT(*)PLANE_ANGLE_UNIT()SI_UNIT($,.RADIAN.)) ;
#15=(NAMED_UNIT(*)SI_UNIT($,.STERADIAN.)SOLID_ANGLE_UNIT()) ;
#17=(GEOMETRIC_REPRESENTATION_CONTEXT(3)GLOBAL_UNCERTAINTY_ASSIGNED_CONTEXT((#16))GLOBAL_UNIT_ASSIGNED_CONTEXT((#12,#13,#15))REPRESENTATION_CONTEXT(' ',' ')) ;
ENDSEC;
END-ISO-10303-21;
