ISO-10303-21;
HEADER;
FILE_DESCRIPTION(('CATIA V5 STEP Exchange','CAx-IF Rec.Pracs.--- Model Styling and Organization---1.5--- 2016-08-15','CAx-IF Rec.Pracs.---Supplemental Geometry---1.0---2011-11-01','CAx-IF Rec.Pracs.--- Composite Materials ---1.1---2010-07-15'),'2;1');

FILE_NAME ('706733-1_1_2652480000_2652480000 CABTITE BP 35MM PA S3D.stp','2024-06-13T13:22:08+00:00',('none'),('Weidmueller'),'CATIA Version 5-6 Release 2022 SP4 HF5','CATIA V5 STEP AP214 v3','none');

FILE_SCHEMA(('AUTOMOTIVE_DESIGN { 1 0 10303 214 1 1 1 1 }'));

ENDSEC;
DATA;
#5=PRODUCT('2652480000 CABTITE BP 35MM PA S3D','2652480000_CABTITE BP 35MM PA','PART-2652480000_CABTITE BP 35MM PA-DESC',(#2)) ;
#2=PRODUCT_CONTEXT(' ',#1,'mechanical') ;
#1=APPLICATION_CONTEXT('automotive design') ;
#10=PRODUCT_DEFINITION('NONE',' ',#6,#3) ;
#3=PRODUCT_DEFINITION_CONTEXT('part definition',#1,' ') ;
#11=PRODUCT_DEFINITION_SHAPE(' ',' ',#10) ;
#529=MECHANICAL_DESIGN_GEOMETRIC_PRESENTATION_REPRESENTATION(' ',(#78,#142,#263,#288,#322,#356,#392,#405,#437,#455,#468,#481,#494,#502,#515,#526,#29),#16) ;
#19=SHAPE_REPRESENTATION(' ',(#18),#16) ;
#18=AXIS2_PLACEMENT_3D(' ',#17,$,$) ;
#34=AXIS2_PLACEMENT_3D('Plane Axis2P3D',#31,#32,#33) ;
#82=AXIS2_PLACEMENT_3D('Cylinder Axis2P3D',#79,#80,#81) ;
#95=AXIS2_PLACEMENT_3D('Circle Axis2P3D',#93,#94,$) ;
#109=AXIS2_PLACEMENT_3D('Circle Axis2P3D',#107,#108,$) ;
#114=AXIS2_PLACEMENT_3D('Circle Axis2P3D',#112,#113,$) ;
#128=AXIS2_PLACEMENT_3D('Circle Axis2P3D',#126,#127,$) ;
#146=AXIS2_PLACEMENT_3D('Plane Axis2P3D',#143,#144,#145) ;
#202=AXIS2_PLACEMENT_3D('Circle Axis2P3D',#200,#201,$) ;
#267=AXIS2_PLACEMENT_3D('Cylinder Axis2P3D',#264,#265,#266) ;
#278=AXIS2_PLACEMENT_3D('Circle Axis2P3D',#276,#277,$) ;
#292=AXIS2_PLACEMENT_3D('Plane Axis2P3D',#289,#290,#291) ;
#305=AXIS2_PLACEMENT_3D('Circle Axis2P3D',#303,#304,$) ;
#310=AXIS2_PLACEMENT_3D('Circle Axis2P3D',#308,#309,$) ;
#337=AXIS2_PLACEMENT_3D('Circle Axis2P3D',#335,#336,$) ;
#342=AXIS2_PLACEMENT_3D('Circle Axis2P3D',#340,#341,$) ;
#373=AXIS2_PLACEMENT_3D('Circle Axis2P3D',#371,#372,$) ;
#380=AXIS2_PLACEMENT_3D('Circle Axis2P3D',#378,#379,$) ;
#409=AXIS2_PLACEMENT_3D('Cone Axis2P3D',#406,#407,#408) ;
#420=AXIS2_PLACEMENT_3D('Circle Axis2P3D',#418,#419,$) ;
#441=AXIS2_PLACEMENT_3D('Cylinder Axis2P3D',#438,#439,#440) ;
#472=AXIS2_PLACEMENT_3D('Plane Axis2P3D',#469,#470,#471) ;
#505=AXIS2_PLACEMENT_3D('Circle Axis2P3D',#503,#504,$) ;
#519=AXIS2_PLACEMENT_3D('Plane Axis2P3D',#516,#517,#518) ;
#17=CARTESIAN_POINT(' ',(0.,0.,0.)) ;
#31=CARTESIAN_POINT('Axis2P3D Location',(1.,16.,29.)) ;
#36=CARTESIAN_POINT('Line Origine',(2.02943725139,16.,32.)) ;
#40=CARTESIAN_POINT('Vertex',(2.02943725139,16.,35.)) ;
#42=CARTESIAN_POINT('Vertex',(2.02943725139,16.,29.)) ;
#45=CARTESIAN_POINT('Line Origine',(1.51471862569,16.,35.)) ;
#49=CARTESIAN_POINT('Vertex',(1.,16.,35.)) ;
#52=CARTESIAN_POINT('Line Origine',(1.,16.,32.)) ;
#56=CARTESIAN_POINT('Vertex',(1.,16.,29.)) ;
#59=CARTESIAN_POINT('Line Origine',(1.51471862569,16.,29.)) ;
#79=CARTESIAN_POINT('Axis2P3D Location',(19.,17.,-4.99600361081E-15)) ;
#84=CARTESIAN_POINT('Line Origine',(36.,17.,0.)) ;
#88=CARTESIAN_POINT('Vertex',(36.,17.,29.)) ;
#90=CARTESIAN_POINT('Vertex',(36.,17.,5.)) ;
#93=CARTESIAN_POINT('Axis2P3D Location',(19.,17.,29.)) ;
#97=CARTESIAN_POINT('Vertex',(35.9705627485,16.,29.)) ;
#100=CARTESIAN_POINT('Line Origine',(35.9705627485,16.,0.)) ;
#104=CARTESIAN_POINT('Vertex',(35.9705627485,16.,35.)) ;
#107=CARTESIAN_POINT('Axis2P3D Location',(19.,17.,35.)) ;
#112=CARTESIAN_POINT('Axis2P3D Location',(19.,17.,29.)) ;
#116=CARTESIAN_POINT('Vertex',(2.,17.,29.)) ;
#119=CARTESIAN_POINT('Line Origine',(2.,17.,0.)) ;
#123=CARTESIAN_POINT('Vertex',(2.,17.,5.)) ;
#126=CARTESIAN_POINT('Axis2P3D Location',(19.,17.,5.)) ;
#143=CARTESIAN_POINT('Axis2P3D Location',(19.,17.,35.)) ;
#148=CARTESIAN_POINT('Line Origine',(36.4852813743,16.,35.)) ;
#152=CARTESIAN_POINT('Vertex',(37.,16.,35.)) ;
#156=CARTESIAN_POINT('Control Point',(37.,16.,35.)) ;
#157=CARTESIAN_POINT('Control Point',(37.0979772991,16.,35.)) ;
#158=CARTESIAN_POINT('Control Point',(37.1959539624,16.0119994396,35.)) ;
#159=CARTESIAN_POINT('Control Point',(37.2919875015,16.03600474,35.)) ;
#160=CARTESIAN_POINT('Control Point',(37.4761871817,16.107033799,35.)) ;
#161=CARTESIAN_POINT('Control Point',(37.6377997333,16.2204138502,35.)) ;
#162=CARTESIAN_POINT('Control Point',(37.7112421969,16.2867832737,35.)) ;
#163=CARTESIAN_POINT('Control Point',(37.8403539848,16.4361311784,35.)) ;
#164=CARTESIAN_POINT('Control Point',(37.9296075233,16.6122205306,35.)) ;
#165=CARTESIAN_POINT('Control Point',(37.9631820737,16.7053411216,35.)) ;
#166=CARTESIAN_POINT('Control Point',(37.9895104,16.8214681825,35.)) ;
#167=CARTESIAN_POINT('Control Point',(37.9984665588,16.9393564199,35.)) ;
#168=CARTESIAN_POINT('Control Point',(37.999489257,16.9595737331,35.)) ;
#169=CARTESIAN_POINT('Control Point',(37.999999918,16.9797868427,35.)) ;
#170=CARTESIAN_POINT('Control Point',(37.999999851,17.,35.)) ;
#171=CARTESIAN_POINT('Vertex',(38.,17.,35.)) ;
#175=CARTESIAN_POINT('Control Point',(37.999999851,17.,35.)) ;
#176=CARTESIAN_POINT('Control Point',(37.9999995263,17.0979778279,35.)) ;
#177=CARTESIAN_POINT('Control Point',(37.9879993221,17.1959559327,35.)) ;
#178=CARTESIAN_POINT('Control Point',(37.9639981589,17.291978222,35.)) ;
#179=CARTESIAN_POINT('Control Point',(37.8929714163,17.4761780109,35.)) ;
#180=CARTESIAN_POINT('Control Point',(37.7795902008,17.637793465,35.)) ;
#181=CARTESIAN_POINT('Control Point',(37.713230431,17.7112285764,35.)) ;
#182=CARTESIAN_POINT('Control Point',(37.5639440962,17.8402925309,35.)) ;
#183=CARTESIAN_POINT('Control Point',(37.3879324409,17.9295304554,35.)) ;
#184=CARTESIAN_POINT('Control Point',(37.2947549128,17.9631731247,35.)) ;
#185=CARTESIAN_POINT('Control Point',(37.178600321,17.9894913498,35.)) ;
#186=CARTESIAN_POINT('Control Point',(37.0606847545,17.9984625637,35.)) ;
#187=CARTESIAN_POINT('Control Point',(37.040446492,17.9994887727,35.)) ;
#188=CARTESIAN_POINT('Control Point',(37.0202232449,18.,35.)) ;
#189=CARTESIAN_POINT('Control Point',(37.,18.,35.)) ;
#190=CARTESIAN_POINT('Vertex',(37.,18.,35.)) ;
#193=CARTESIAN_POINT('Line Origine',(36.4852813743,18.,35.)) ;
#197=CARTESIAN_POINT('Vertex',(35.9705627486,18.,35.)) ;
#200=CARTESIAN_POINT('Axis2P3D Location',(19.,16.9999999999,35.)) ;
#204=CARTESIAN_POINT('Vertex',(2.02943725139,18.,35.)) ;
#207=CARTESIAN_POINT('Line Origine',(1.51471862569,18.,35.)) ;
#211=CARTESIAN_POINT('Vertex',(1.,18.,35.)) ;
#215=CARTESIAN_POINT('Control Point',(1.,18.,35.)) ;
#216=CARTESIAN_POINT('Control Point',(0.902022700958,18.,35.)) ;
#217=CARTESIAN_POINT('Control Point',(0.804046037686,17.9880005604,35.)) ;
#218=CARTESIAN_POINT('Control Point',(0.708012498365,17.96399526,35.)) ;
#219=CARTESIAN_POINT('Control Point',(0.523812818252,17.892966201,35.)) ;
#220=CARTESIAN_POINT('Control Point',(0.362200266571,17.7795861497,35.)) ;
#221=CARTESIAN_POINT('Control Point',(0.288757803191,17.7132167264,35.)) ;
#222=CARTESIAN_POINT('Control Point',(0.15964601588,17.5638688225,35.)) ;
#223=CARTESIAN_POINT('Control Point',(0.0703924777392,17.3877794713,35.)) ;
#224=CARTESIAN_POINT('Control Point',(0.0368179260049,17.2946588781,35.)) ;
#225=CARTESIAN_POINT('Control Point',(0.0104895998624,17.178531818,35.)) ;
#226=CARTESIAN_POINT('Control Point',(0.00153344115582,17.0606435814,35.)) ;
#227=CARTESIAN_POINT('Control Point',(0.000510742959683,17.0404262674,35.)) ;
#228=CARTESIAN_POINT('Control Point',(8.20212377854E-08,17.0202131576,35.)) ;
#229=CARTESIAN_POINT('Control Point',(1.49011611938E-07,17.,35.)) ;
#230=CARTESIAN_POINT('Vertex',(4.7517545454E-14,17.,35.)) ;
#234=CARTESIAN_POINT('Control Point',(1.49011611938E-07,17.,35.)) ;
#235=CARTESIAN_POINT('Control Point',(4.7373027109E-07,16.9020221733,35.)) ;
#236=CARTESIAN_POINT('Control Point',(0.0120006776001,16.8040440698,35.)) ;
#237=CARTESIAN_POINT('Control Point',(0.0360018419209,16.7080217737,35.)) ;
#238=CARTESIAN_POINT('Control Point',(0.107028584539,16.523821986,35.)) ;
#239=CARTESIAN_POINT('Control Point',(0.220409799477,16.3622065329,35.)) ;
#240=CARTESIAN_POINT('Control Point',(0.286769570468,16.2887714236,35.)) ;
#241=CARTESIAN_POINT('Control Point',(0.436055906559,16.1597074683,35.)) ;
#242=CARTESIAN_POINT('Control Point',(0.6120675634,16.0704695435,35.)) ;
#243=CARTESIAN_POINT('Control Point',(0.705245084582,16.0368268757,35.)) ;
#244=CARTESIAN_POINT('Control Point',(0.821399677636,16.0105086503,35.)) ;
#245=CARTESIAN_POINT('Control Point',(0.939315245307,16.0015374363,35.)) ;
#246=CARTESIAN_POINT('Control Point',(0.959553508126,16.0005112273,35.)) ;
#247=CARTESIAN_POINT('Control Point',(0.979776755207,16.,35.)) ;
#248=CARTESIAN_POINT('Control Point',(1.,16.,35.)) ;
#264=CARTESIAN_POINT('Axis2P3D Location',(1.,17.,29.)) ;
#269=CARTESIAN_POINT('Line Origine',(4.7517545454E-14,17.,29.)) ;
#273=CARTESIAN_POINT('Vertex',(4.7517545454E-14,17.,29.)) ;
#276=CARTESIAN_POINT('Axis2P3D Location',(1.,17.,29.)) ;
#289=CARTESIAN_POINT('Axis2P3D Location',(1.,17.,29.)) ;
#294=CARTESIAN_POINT('Line Origine',(1.51471862569,18.,29.)) ;
#298=CARTESIAN_POINT('Vertex',(2.02943725139,18.,29.)) ;
#300=CARTESIAN_POINT('Vertex',(1.,18.,29.)) ;
#303=CARTESIAN_POINT('Axis2P3D Location',(19.0000019959,16.9999999435,29.)) ;
#308=CARTESIAN_POINT('Axis2P3D Location',(1.00000000316,16.9999999968,29.)) ;
#323=CARTESIAN_POINT('Line Origine',(2.02943725152,18.,0.)) ;
#328=CARTESIAN_POINT('Line Origine',(35.9705627485,18.,0.)) ;
#332=CARTESIAN_POINT('Vertex',(35.9705627485,18.,29.)) ;
#335=CARTESIAN_POINT('Axis2P3D Location',(19.,17.,29.)) ;
#340=CARTESIAN_POINT('Axis2P3D Location',(19.,17.,5.)) ;
#357=CARTESIAN_POINT('Line Origine',(36.4852813743,16.,29.)) ;
#361=CARTESIAN_POINT('Vertex',(37.,16.,29.)) ;
#364=CARTESIAN_POINT('Line Origine',(36.4852813743,18.,29.)) ;
#368=CARTESIAN_POINT('Vertex',(37.,18.,29.)) ;
#371=CARTESIAN_POINT('Axis2P3D Location',(36.9999999968,16.9999999968,29.)) ;
#375=CARTESIAN_POINT('Vertex',(38.,17.,29.)) ;
#378=CARTESIAN_POINT('Axis2P3D Location',(36.9999999968,17.0000000032,29.)) ;
#393=CARTESIAN_POINT('Line Origine',(37.,16.,32.)) ;
#406=CARTESIAN_POINT('Axis2P3D Location',(19.,17.,5.)) ;
#411=CARTESIAN_POINT('Line Origine',(-868230.388337,16.9999999999,4923995.55917)) ;
#415=CARTESIAN_POINT('Vertex',(2.88163490358,17.,-1.82361681311E-10)) ;
#418=CARTESIAN_POINT('Axis2P3D Location',(19.,17.,1.52295953626E-11)) ;
#422=CARTESIAN_POINT('Vertex',(35.1183650965,17.,1.52127199726E-11)) ;
#425=CARTESIAN_POINT('Line Origine',(868268.388337,17.0000000012,4923995.55917)) ;
#438=CARTESIAN_POINT('Axis2P3D Location',(37.,17.,29.)) ;
#443=CARTESIAN_POINT('Line Origine',(38.,17.,29.)) ;
#456=CARTESIAN_POINT('Line Origine',(37.,18.,29.)) ;
#469=CARTESIAN_POINT('Axis2P3D Location',(37.,18.,29.)) ;
#482=CARTESIAN_POINT('Line Origine',(1.,18.,32.)) ;
#503=CARTESIAN_POINT('Axis2P3D Location',(19.,17.,1.52438062173E-11)) ;
#516=CARTESIAN_POINT('Axis2P3D Location',(19.,0.88163490354,-2.22044604925E-16)) ;
#32=DIRECTION('Axis2P3D Direction',(7.49400541622E-16,-1.,1.30516651241E-16)) ;
#33=DIRECTION('Axis2P3D XDirection',(1.,7.49400541622E-16,1.38777878078E-17)) ;
#37=DIRECTION('Vector Direction',(0.,0.,-1.)) ;
#46=DIRECTION('Vector Direction',(1.,0.,0.)) ;
#53=DIRECTION('Vector Direction',(0.,0.,1.)) ;
#60=DIRECTION('Vector Direction',(1.,0.,0.)) ;
#80=DIRECTION('Axis2P3D Direction',(0.,0.,1.)) ;
#81=DIRECTION('Axis2P3D XDirection',(1.,-8.32667268464E-17,0.)) ;
#85=DIRECTION('Vector Direction',(0.,0.,1.)) ;
#94=DIRECTION('Axis2P3D Direction',(0.,0.,1.)) ;
#101=DIRECTION('Vector Direction',(0.,0.,1.)) ;
#108=DIRECTION('Axis2P3D Direction',(0.,0.,1.)) ;
#113=DIRECTION('Axis2P3D Direction',(0.,0.,1.)) ;
#120=DIRECTION('Vector Direction',(0.,0.,1.)) ;
#127=DIRECTION('Axis2P3D Direction',(0.,0.,1.)) ;
#144=DIRECTION('Axis2P3D Direction',(0.,0.,-1.)) ;
#145=DIRECTION('Axis2P3D XDirection',(1.,8.04911692853E-16,0.)) ;
#149=DIRECTION('Vector Direction',(1.,0.,0.)) ;
#194=DIRECTION('Vector Direction',(-1.,0.,0.)) ;
#201=DIRECTION('Axis2P3D Direction',(0.,0.,-1.)) ;
#208=DIRECTION('Vector Direction',(-1.,0.,0.)) ;
#265=DIRECTION('Axis2P3D Direction',(0.,0.,-1.)) ;
#266=DIRECTION('Axis2P3D XDirection',(1.,9.27376372768E-16,0.)) ;
#270=DIRECTION('Vector Direction',(0.,0.,-1.)) ;
#277=DIRECTION('Axis2P3D Direction',(0.,0.,-1.)) ;
#290=DIRECTION('Axis2P3D Direction',(0.,0.,1.)) ;
#291=DIRECTION('Axis2P3D XDirection',(-1.,-8.04911692853E-16,0.)) ;
#295=DIRECTION('Vector Direction',(-1.,0.,0.)) ;
#304=DIRECTION('Axis2P3D Direction',(0.,0.,1.)) ;
#309=DIRECTION('Axis2P3D Direction',(0.,0.,1.)) ;
#324=DIRECTION('Vector Direction',(0.,0.,1.)) ;
#329=DIRECTION('Vector Direction',(0.,0.,1.)) ;
#336=DIRECTION('Axis2P3D Direction',(0.,0.,1.)) ;
#341=DIRECTION('Axis2P3D Direction',(0.,0.,1.)) ;
#358=DIRECTION('Vector Direction',(1.,0.,0.)) ;
#365=DIRECTION('Vector Direction',(-1.,0.,0.)) ;
#372=DIRECTION('Axis2P3D Direction',(0.,0.,1.)) ;
#379=DIRECTION('Axis2P3D Direction',(0.,0.,1.)) ;
#394=DIRECTION('Vector Direction',(0.,0.,1.)) ;
#407=DIRECTION('Axis2P3D Direction',(5.94084628707E-16,1.30516651241E-16,1.)) ;
#408=DIRECTION('Axis2P3D XDirection',(-1.,-8.04912707438E-16,1.0726440895E-15)) ;
#412=DIRECTION('Vector Direction',(-0.173648177667,-1.12374786235E-17,0.984807753012)) ;
#419=DIRECTION('Axis2P3D Direction',(1.0726440895E-15,1.30516651241E-16,1.)) ;
#426=DIRECTION('Vector Direction',(0.173648177667,2.47040145682E-16,0.984807753012)) ;
#439=DIRECTION('Axis2P3D Direction',(0.,0.,-1.)) ;
#440=DIRECTION('Axis2P3D XDirection',(1.,9.27376372768E-16,0.)) ;
#444=DIRECTION('Vector Direction',(0.,0.,-1.)) ;
#457=DIRECTION('Vector Direction',(0.,0.,-1.)) ;
#470=DIRECTION('Axis2P3D Direction',(-7.49400541622E-16,1.,-1.30516651241E-16)) ;
#471=DIRECTION('Axis2P3D XDirection',(-1.,-7.49400541622E-16,-1.38777878078E-17)) ;
#483=DIRECTION('Vector Direction',(-1.85037170771E-17,0.,1.)) ;
#504=DIRECTION('Axis2P3D Direction',(1.0726440895E-15,1.30516651241E-16,1.)) ;
#517=DIRECTION('Axis2P3D Direction',(0.,0.,1.)) ;
#518=DIRECTION('Axis2P3D XDirection',(-1.,-8.04911692853E-16,0.)) ;
#8=PRODUCT_RELATED_PRODUCT_CATEGORY('part',$,(#5)) ;
#7=PRODUCT_CATEGORY('part','specification') ;
#29=STYLED_ITEM(' ',(#28),#21) ;
#28=PRESENTATION_STYLE_ASSIGNMENT((#27)) ;
#77=PRESENTATION_STYLE_ASSIGNMENT((#76)) ;
#27=SURFACE_STYLE_USAGE(.BOTH.,#26) ;
#76=SURFACE_STYLE_USAGE(.BOTH.,#75) ;
#26=SURFACE_SIDE_STYLE(' ',(#25)) ;
#75=SURFACE_SIDE_STYLE(' ',(#74)) ;
#25=SURFACE_STYLE_FILL_AREA(#24) ;
#74=SURFACE_STYLE_FILL_AREA(#73) ;
#24=FILL_AREA_STYLE(' ',(#23)) ;
#73=FILL_AREA_STYLE(' ',(#72)) ;
#23=FILL_AREA_STYLE_COLOUR(' ',#22) ;
#72=FILL_AREA_STYLE_COLOUR(' ',#71) ;
#38=VECTOR('Line Direction',#37,1.) ;
#47=VECTOR('Line Direction',#46,1.) ;
#54=VECTOR('Line Direction',#53,1.) ;
#61=VECTOR('Line Direction',#60,1.) ;
#86=VECTOR('Line Direction',#85,1.) ;
#102=VECTOR('Line Direction',#101,1.) ;
#121=VECTOR('Line Direction',#120,1.) ;
#150=VECTOR('Line Direction',#149,1.) ;
#195=VECTOR('Line Direction',#194,1.) ;
#209=VECTOR('Line Direction',#208,1.) ;
#271=VECTOR('Line Direction',#270,1.) ;
#296=VECTOR('Line Direction',#295,1.) ;
#325=VECTOR('Line Direction',#324,1.) ;
#330=VECTOR('Line Direction',#329,1.) ;
#359=VECTOR('Line Direction',#358,1.) ;
#366=VECTOR('Line Direction',#365,1.) ;
#395=VECTOR('Line Direction',#394,1.) ;
#413=VECTOR('Line Direction',#412,1.) ;
#427=VECTOR('Line Direction',#426,1.) ;
#445=VECTOR('Line Direction',#444,1.) ;
#458=VECTOR('Line Direction',#457,1.) ;
#484=VECTOR('Line Direction',#483,1.) ;
#15=UNCERTAINTY_MEASURE_WITH_UNIT(LENGTH_MEASURE(0.005),#12,'distance_accuracy_value','CONFUSED CURVE UNCERTAINTY') ;
#528=SHAPE_REPRESENTATION_RELATIONSHIP(' ',' ',#19,#527) ;
#65=ORIENTED_EDGE('',*,*,#44,.F.) ;
#66=ORIENTED_EDGE('',*,*,#51,.F.) ;
#67=ORIENTED_EDGE('',*,*,#58,.F.) ;
#68=ORIENTED_EDGE('',*,*,#63,.T.) ;
#132=ORIENTED_EDGE('',*,*,#92,.F.) ;
#133=ORIENTED_EDGE('',*,*,#99,.F.) ;
#134=ORIENTED_EDGE('',*,*,#106,.T.) ;
#135=ORIENTED_EDGE('',*,*,#111,.T.) ;
#136=ORIENTED_EDGE('',*,*,#44,.T.) ;
#137=ORIENTED_EDGE('',*,*,#118,.F.) ;
#138=ORIENTED_EDGE('',*,*,#125,.F.) ;
#139=ORIENTED_EDGE('',*,*,#130,.F.) ;
#251=ORIENTED_EDGE('',*,*,#111,.F.) ;
#252=ORIENTED_EDGE('',*,*,#154,.T.) ;
#253=ORIENTED_EDGE('',*,*,#173,.T.) ;
#254=ORIENTED_EDGE('',*,*,#192,.T.) ;
#255=ORIENTED_EDGE('',*,*,#199,.T.) ;
#256=ORIENTED_EDGE('',*,*,#206,.F.) ;
#257=ORIENTED_EDGE('',*,*,#213,.T.) ;
#258=ORIENTED_EDGE('',*,*,#232,.T.) ;
#259=ORIENTED_EDGE('',*,*,#249,.T.) ;
#260=ORIENTED_EDGE('',*,*,#51,.T.) ;
#282=ORIENTED_EDGE('',*,*,#275,.F.) ;
#283=ORIENTED_EDGE('',*,*,#280,.T.) ;
#284=ORIENTED_EDGE('',*,*,#58,.T.) ;
#285=ORIENTED_EDGE('',*,*,#249,.F.) ;
#314=ORIENTED_EDGE('',*,*,#302,.F.) ;
#315=ORIENTED_EDGE('',*,*,#307,.T.) ;
#316=ORIENTED_EDGE('',*,*,#118,.T.) ;
#317=ORIENTED_EDGE('',*,*,#63,.F.) ;
#318=ORIENTED_EDGE('',*,*,#280,.F.) ;
#319=ORIENTED_EDGE('',*,*,#312,.F.) ;
#346=ORIENTED_EDGE('',*,*,#125,.T.) ;
#347=ORIENTED_EDGE('',*,*,#307,.F.) ;
#348=ORIENTED_EDGE('',*,*,#327,.T.) ;
#349=ORIENTED_EDGE('',*,*,#206,.T.) ;
#350=ORIENTED_EDGE('',*,*,#334,.T.) ;
#351=ORIENTED_EDGE('',*,*,#339,.F.) ;
#352=ORIENTED_EDGE('',*,*,#92,.T.) ;
#353=ORIENTED_EDGE('',*,*,#344,.F.) ;
#384=ORIENTED_EDGE('',*,*,#363,.F.) ;
#385=ORIENTED_EDGE('',*,*,#99,.T.) ;
#386=ORIENTED_EDGE('',*,*,#339,.T.) ;
#387=ORIENTED_EDGE('',*,*,#370,.F.) ;
#388=ORIENTED_EDGE('',*,*,#377,.F.) ;
#389=ORIENTED_EDGE('',*,*,#382,.F.) ;
#399=ORIENTED_EDGE('',*,*,#106,.F.) ;
#400=ORIENTED_EDGE('',*,*,#363,.T.) ;
#401=ORIENTED_EDGE('',*,*,#397,.T.) ;
#402=ORIENTED_EDGE('',*,*,#154,.F.) ;
#431=ORIENTED_EDGE('',*,*,#417,.T.) ;
#432=ORIENTED_EDGE('',*,*,#424,.F.) ;
#433=ORIENTED_EDGE('',*,*,#429,.T.) ;
#434=ORIENTED_EDGE('',*,*,#130,.T.) ;
#449=ORIENTED_EDGE('',*,*,#447,.F.) ;
#450=ORIENTED_EDGE('',*,*,#173,.F.) ;
#451=ORIENTED_EDGE('',*,*,#397,.F.) ;
#452=ORIENTED_EDGE('',*,*,#382,.T.) ;
#462=ORIENTED_EDGE('',*,*,#447,.T.) ;
#463=ORIENTED_EDGE('',*,*,#377,.T.) ;
#464=ORIENTED_EDGE('',*,*,#460,.T.) ;
#465=ORIENTED_EDGE('',*,*,#192,.F.) ;
#475=ORIENTED_EDGE('',*,*,#334,.F.) ;
#476=ORIENTED_EDGE('',*,*,#199,.F.) ;
#477=ORIENTED_EDGE('',*,*,#460,.F.) ;
#478=ORIENTED_EDGE('',*,*,#370,.T.) ;
#488=ORIENTED_EDGE('',*,*,#327,.F.) ;
#489=ORIENTED_EDGE('',*,*,#302,.T.) ;
#490=ORIENTED_EDGE('',*,*,#486,.T.) ;
#491=ORIENTED_EDGE('',*,*,#213,.F.) ;
#496=ORIENTED_EDGE('',*,*,#275,.T.) ;
#497=ORIENTED_EDGE('',*,*,#232,.F.) ;
#498=ORIENTED_EDGE('',*,*,#486,.F.) ;
#499=ORIENTED_EDGE('',*,*,#312,.T.) ;
#509=ORIENTED_EDGE('',*,*,#429,.F.) ;
#510=ORIENTED_EDGE('',*,*,#507,.F.) ;
#511=ORIENTED_EDGE('',*,*,#417,.F.) ;
#512=ORIENTED_EDGE('',*,*,#344,.T.) ;
#522=ORIENTED_EDGE('',*,*,#424,.T.) ;
#523=ORIENTED_EDGE('',*,*,#507,.T.) ;
#30=CLOSED_SHELL('Closed Shell',(#70,#141,#262,#287,#321,#355,#391,#404,#436,#454,#467,#480,#493,#501,#514,#525)) ;
#527=ADVANCED_BREP_SHAPE_REPRESENTATION('NONE',(#21),#16) ;
#70=ADVANCED_FACE('2652480000_CABTITE BP 35MM PA',(#69),#35,.T.) ;
#141=ADVANCED_FACE('2652480000_CABTITE BP 35MM PA',(#140),#83,.T.) ;
#262=ADVANCED_FACE('2652480000_CABTITE BP 35MM PA',(#261),#147,.F.) ;
#287=ADVANCED_FACE('2652480000_CABTITE BP 35MM PA',(#286),#268,.T.) ;
#321=ADVANCED_FACE('2652480000_CABTITE BP 35MM PA',(#320),#293,.F.) ;
#355=ADVANCED_FACE('2652480000_CABTITE BP 35MM PA',(#354),#83,.T.) ;
#391=ADVANCED_FACE('2652480000_CABTITE BP 35MM PA',(#390),#293,.F.) ;
#404=ADVANCED_FACE('2652480000_CABTITE BP 35MM PA',(#403),#35,.T.) ;
#436=ADVANCED_FACE('2652480000_CABTITE BP 35MM PA',(#435),#410,.T.) ;
#454=ADVANCED_FACE('2652480000_CABTITE BP 35MM PA',(#453),#442,.T.) ;
#467=ADVANCED_FACE('2652480000_CABTITE BP 35MM PA',(#466),#442,.T.) ;
#480=ADVANCED_FACE('2652480000_CABTITE BP 35MM PA',(#479),#473,.T.) ;
#493=ADVANCED_FACE('2652480000_CABTITE BP 35MM PA',(#492),#473,.T.) ;
#501=ADVANCED_FACE('2652480000_CABTITE BP 35MM PA',(#500),#268,.T.) ;
#514=ADVANCED_FACE('2652480000_CABTITE BP 35MM PA',(#513),#410,.T.) ;
#525=ADVANCED_FACE('2652480000_CABTITE BP 35MM PA',(#524),#520,.F.) ;
#4=APPLICATION_PROTOCOL_DEFINITION('international standard','automotive_design',2001,#1) ;
#155=B_SPLINE_CURVE_WITH_KNOTS('',5,(#156,#157,#158,#159,#160,#161,#162,#163,#164,#165,#166,#167,#168,#169,#170),.UNSPECIFIED.,.F.,.U.,(6,3,3,3,6),(0.,0.694440832139,1.38888167082,2.08332252266,2.22658832133),.UNSPECIFIED.) ;
#174=B_SPLINE_CURVE_WITH_KNOTS('',5,(#175,#176,#177,#178,#179,#180,#181,#182,#183,#184,#185,#186,#187,#188,#189),.UNSPECIFIED.,.F.,.U.,(6,3,3,3,6),(0.,0.694241520904,1.3884830552,2.08218214015,2.22547845902),.UNSPECIFIED.) ;
#214=B_SPLINE_CURVE_WITH_KNOTS('',5,(#215,#216,#217,#218,#219,#220,#221,#222,#223,#224,#225,#226,#227,#228,#229),.UNSPECIFIED.,.F.,.U.,(6,3,3,3,6),(0.,0.694440831802,1.3888816709,2.08332251501,2.2265883156),.UNSPECIFIED.) ;
#233=B_SPLINE_CURVE_WITH_KNOTS('',5,(#234,#235,#236,#237,#238,#239,#240,#241,#242,#243,#244,#245,#246,#247,#248),.UNSPECIFIED.,.F.,.U.,(6,3,3,3,6),(0.,0.694241511923,1.38848304732,2.08218214157,2.22547845981),.UNSPECIFIED.) ;
#21=MANIFOLD_SOLID_BREP('2652480000_CABTITE BP 35MM PA',#30) ;
#96=CIRCLE('generated circle',#95,17.) ;
#110=CIRCLE('generated circle',#109,17.) ;
#115=CIRCLE('generated circle',#114,17.) ;
#129=CIRCLE('generated circle',#128,17.) ;
#203=CIRCLE('generated circle',#202,17.0000000001) ;
#279=CIRCLE('generated circle',#278,1.) ;
#306=CIRCLE('generated circle',#305,17.0000019959) ;
#311=CIRCLE('generated circle',#310,1.00000000316) ;
#338=CIRCLE('generated circle',#337,17.) ;
#343=CIRCLE('generated circle',#342,17.) ;
#374=CIRCLE('generated circle',#373,1.00000000316) ;
#381=CIRCLE('generated circle',#380,1.00000000316) ;
#421=CIRCLE('generated circle',#420,16.1183650965) ;
#506=CIRCLE('generated circle',#505,16.1183650965) ;
#22=COLOUR_RGB('Colour',0.823529411765,0.823529411765,1.) ;
#410=CONICAL_SURFACE('Cone',#409,17.,0.1745329252) ;
#78=OVER_RIDING_STYLED_ITEM(' ',(#77),#70,#29) ;
#142=OVER_RIDING_STYLED_ITEM(' ',(#77),#141,#29) ;
#263=OVER_RIDING_STYLED_ITEM(' ',(#77),#262,#29) ;
#288=OVER_RIDING_STYLED_ITEM(' ',(#77),#287,#29) ;
#322=OVER_RIDING_STYLED_ITEM(' ',(#77),#321,#29) ;
#356=OVER_RIDING_STYLED_ITEM(' ',(#77),#355,#29) ;
#392=OVER_RIDING_STYLED_ITEM(' ',(#77),#391,#29) ;
#405=OVER_RIDING_STYLED_ITEM(' ',(#77),#404,#29) ;
#437=OVER_RIDING_STYLED_ITEM(' ',(#77),#436,#29) ;
#455=OVER_RIDING_STYLED_ITEM(' ',(#77),#454,#29) ;
#468=OVER_RIDING_STYLED_ITEM(' ',(#77),#467,#29) ;
#481=OVER_RIDING_STYLED_ITEM(' ',(#77),#480,#29) ;
#494=OVER_RIDING_STYLED_ITEM(' ',(#77),#493,#29) ;
#502=OVER_RIDING_STYLED_ITEM(' ',(#77),#501,#29) ;
#515=OVER_RIDING_STYLED_ITEM(' ',(#77),#514,#29) ;
#526=OVER_RIDING_STYLED_ITEM(' ',(#77),#525,#29) ;
#83=CYLINDRICAL_SURFACE('generated cylinder',#82,17.) ;
#268=CYLINDRICAL_SURFACE('generated cylinder',#267,1.) ;
#442=CYLINDRICAL_SURFACE('generated cylinder',#441,1.) ;
#71=DRAUGHTING_PRE_DEFINED_COLOUR('red') ;
#44=EDGE_CURVE('',#41,#43,#39,.T.) ;
#51=EDGE_CURVE('',#50,#41,#48,.T.) ;
#58=EDGE_CURVE('',#57,#50,#55,.T.) ;
#63=EDGE_CURVE('',#57,#43,#62,.T.) ;
#92=EDGE_CURVE('',#89,#91,#87,.F.) ;
#99=EDGE_CURVE('',#98,#89,#96,.T.) ;
#106=EDGE_CURVE('',#98,#105,#103,.T.) ;
#111=EDGE_CURVE('',#105,#41,#110,.F.) ;
#118=EDGE_CURVE('',#117,#43,#115,.T.) ;
#125=EDGE_CURVE('',#124,#117,#122,.T.) ;
#130=EDGE_CURVE('',#91,#124,#129,.F.) ;
#154=EDGE_CURVE('',#105,#153,#151,.T.) ;
#173=EDGE_CURVE('',#153,#172,#155,.T.) ;
#192=EDGE_CURVE('',#172,#191,#174,.T.) ;
#199=EDGE_CURVE('',#191,#198,#196,.T.) ;
#206=EDGE_CURVE('',#205,#198,#203,.T.) ;
#213=EDGE_CURVE('',#205,#212,#210,.T.) ;
#232=EDGE_CURVE('',#212,#231,#214,.T.) ;
#249=EDGE_CURVE('',#231,#50,#233,.T.) ;
#275=EDGE_CURVE('',#274,#231,#272,.F.) ;
#280=EDGE_CURVE('',#274,#57,#279,.F.) ;
#302=EDGE_CURVE('',#299,#301,#297,.T.) ;
#307=EDGE_CURVE('',#299,#117,#306,.T.) ;
#312=EDGE_CURVE('',#301,#274,#311,.T.) ;
#327=EDGE_CURVE('',#299,#205,#326,.T.) ;
#334=EDGE_CURVE('',#198,#333,#331,.F.) ;
#339=EDGE_CURVE('',#89,#333,#338,.T.) ;
#344=EDGE_CURVE('',#124,#91,#343,.F.) ;
#363=EDGE_CURVE('',#98,#362,#360,.T.) ;
#370=EDGE_CURVE('',#369,#333,#367,.T.) ;
#377=EDGE_CURVE('',#376,#369,#374,.T.) ;
#382=EDGE_CURVE('',#362,#376,#381,.T.) ;
#397=EDGE_CURVE('',#362,#153,#396,.T.) ;
#417=EDGE_CURVE('',#124,#416,#414,.F.) ;
#424=EDGE_CURVE('',#423,#416,#421,.F.) ;
#429=EDGE_CURVE('',#423,#91,#428,.T.) ;
#447=EDGE_CURVE('',#172,#376,#446,.T.) ;
#460=EDGE_CURVE('',#369,#191,#459,.F.) ;
#486=EDGE_CURVE('',#301,#212,#485,.T.) ;
#507=EDGE_CURVE('',#416,#423,#506,.F.) ;
#64=EDGE_LOOP('',(#65,#66,#67,#68)) ;
#131=EDGE_LOOP('',(#132,#133,#134,#135,#136,#137,#138,#139)) ;
#250=EDGE_LOOP('',(#251,#252,#253,#254,#255,#256,#257,#258,#259,#260)) ;
#281=EDGE_LOOP('',(#282,#283,#284,#285)) ;
#313=EDGE_LOOP('',(#314,#315,#316,#317,#318,#319)) ;
#345=EDGE_LOOP('',(#346,#347,#348,#349,#350,#351,#352,#353)) ;
#383=EDGE_LOOP('',(#384,#385,#386,#387,#388,#389)) ;
#398=EDGE_LOOP('',(#399,#400,#401,#402)) ;
#430=EDGE_LOOP('',(#431,#432,#433,#434)) ;
#448=EDGE_LOOP('',(#449,#450,#451,#452)) ;
#461=EDGE_LOOP('',(#462,#463,#464,#465)) ;
#474=EDGE_LOOP('',(#475,#476,#477,#478)) ;
#487=EDGE_LOOP('',(#488,#489,#490,#491)) ;
#495=EDGE_LOOP('',(#496,#497,#498,#499)) ;
#508=EDGE_LOOP('',(#509,#510,#511,#512)) ;
#521=EDGE_LOOP('',(#522,#523)) ;
#69=FACE_OUTER_BOUND('',#64,.T.) ;
#140=FACE_OUTER_BOUND('',#131,.T.) ;
#261=FACE_OUTER_BOUND('',#250,.T.) ;
#286=FACE_OUTER_BOUND('',#281,.T.) ;
#320=FACE_OUTER_BOUND('',#313,.T.) ;
#354=FACE_OUTER_BOUND('',#345,.T.) ;
#390=FACE_OUTER_BOUND('',#383,.T.) ;
#403=FACE_OUTER_BOUND('',#398,.T.) ;
#435=FACE_OUTER_BOUND('',#430,.T.) ;
#453=FACE_OUTER_BOUND('',#448,.T.) ;
#466=FACE_OUTER_BOUND('',#461,.T.) ;
#479=FACE_OUTER_BOUND('',#474,.T.) ;
#492=FACE_OUTER_BOUND('',#487,.T.) ;
#500=FACE_OUTER_BOUND('',#495,.T.) ;
#513=FACE_OUTER_BOUND('',#508,.T.) ;
#524=FACE_OUTER_BOUND('',#521,.T.) ;
#39=LINE('Line',#36,#38) ;
#48=LINE('Line',#45,#47) ;
#55=LINE('Line',#52,#54) ;
#62=LINE('Line',#59,#61) ;
#87=LINE('Line',#84,#86) ;
#103=LINE('Line',#100,#102) ;
#122=LINE('Line',#119,#121) ;
#151=LINE('Line',#148,#150) ;
#196=LINE('Line',#193,#195) ;
#210=LINE('Line',#207,#209) ;
#272=LINE('Line',#269,#271) ;
#297=LINE('Line',#294,#296) ;
#326=LINE('Line',#323,#325) ;
#331=LINE('Line',#328,#330) ;
#360=LINE('Line',#357,#359) ;
#367=LINE('Line',#364,#366) ;
#396=LINE('Line',#393,#395) ;
#414=LINE('Line',#411,#413) ;
#428=LINE('Line',#425,#427) ;
#446=LINE('Line',#443,#445) ;
#459=LINE('Line',#456,#458) ;
#485=LINE('Line',#482,#484) ;
#35=PLANE('',#34) ;
#147=PLANE('',#146) ;
#293=PLANE('',#292) ;
#473=PLANE('',#472) ;
#520=PLANE('',#519) ;
#9=PRODUCT_CATEGORY_RELATIONSHIP(' ',' ',#7,#8) ;
#6=PRODUCT_DEFINITION_FORMATION_WITH_SPECIFIED_SOURCE(' ',' ',#5,.NOT_KNOWN.) ;
#20=SHAPE_DEFINITION_REPRESENTATION(#11,#19) ;
#41=VERTEX_POINT('',#40) ;
#43=VERTEX_POINT('',#42) ;
#50=VERTEX_POINT('',#49) ;
#57=VERTEX_POINT('',#56) ;
#89=VERTEX_POINT('',#88) ;
#91=VERTEX_POINT('',#90) ;
#98=VERTEX_POINT('',#97) ;
#105=VERTEX_POINT('',#104) ;
#117=VERTEX_POINT('',#116) ;
#124=VERTEX_POINT('',#123) ;
#153=VERTEX_POINT('',#152) ;
#172=VERTEX_POINT('',#171) ;
#191=VERTEX_POINT('',#190) ;
#198=VERTEX_POINT('',#197) ;
#205=VERTEX_POINT('',#204) ;
#212=VERTEX_POINT('',#211) ;
#231=VERTEX_POINT('',#230) ;
#274=VERTEX_POINT('',#273) ;
#299=VERTEX_POINT('',#298) ;
#301=VERTEX_POINT('',#300) ;
#333=VERTEX_POINT('',#332) ;
#362=VERTEX_POINT('',#361) ;
#369=VERTEX_POINT('',#368) ;
#376=VERTEX_POINT('',#375) ;
#416=VERTEX_POINT('',#415) ;
#423=VERTEX_POINT('',#422) ;
#12=(LENGTH_UNIT()NAMED_UNIT(*)SI_UNIT(.MILLI.,.METRE.)) ;
#13=(NAMED_UNIT(*)PLANE_ANGLE_UNIT()SI_UNIT($,.RADIAN.)) ;
#14=(NAMED_UNIT(*)SI_UNIT($,.STERADIAN.)SOLID_ANGLE_UNIT()) ;
#16=(GEOMETRIC_REPRESENTATION_CONTEXT(3)GLOBAL_UNCERTAINTY_ASSIGNED_CONTEXT((#15))GLOBAL_UNIT_ASSIGNED_CONTEXT((#12,#13,#14))REPRESENTATION_CONTEXT(' ',' ')) ;
ENDSEC;
END-ISO-10303-21;
