ISO-10303-21;
HEADER;
FILE_DESCRIPTION(('CATIA V5R24 STEP','CAx-IF Rec.Pracs.--- Model Styling and Organization---1.2---2011-12-15'),'2;1');

FILE_NAME ('D1456423_0_1798520000_1798520000.stp','2015-12-03T14:46:00+00:00',('none'),('Weidmueller'),'CATIA Version 5-6 Release 2014 SP4','CATIA V5 STEP AP214','none');

FILE_SCHEMA(('AUTOMOTIVE_DESIGN { 1 0 10303 214 1 1 1 1 }'));

ENDSEC;
DATA;
#5=PRODUCT('TM 202/20 V0','','<Q-CHECKER_SEAL> Q-Checker Version 2.14.8  \X2\000A\X0\CATIA-Version         : Catia V5 R20 SP5 Build Date 01-14-2011.22.00\X2\000A\X0\Model size (in KByte) : 0\X2\000A\X0\Checking date         : 2014-06-05 09:35:00\X2\000A\X0\Checking profile      : ADMIN / Release_2D-3D [CATPart]\X2\000A\X0\Model assessment      : In Ordnung (IO)\X2\000A\X0\Total weight sum      : 0\X2\000A\X0\<CROSS_CHECK_SUM>\X2\000A\X0\  <CHKSUM_DATE> 438137719 </CHKSUM_DATE>\X2\000A\X0\  <CHKSUM_ENTITIES> -809073084 </CHKSUM_ENTITIES>\X2\000A\X0\  <CHKSUM_PROFILE> 1594213346 </CHKSUM_PROFILE>\X2\000A\X0\  <CHKSUM_DIMENSION> -186917087 </CHKSUM_DIMENSION>\X2\000A\X0\  <CHKSUM_PROJINTERSEC> -896974048 </CHKSUM_PROJINTERSEC>\X2\000A\X0\  <CHKSUM_IDENTCRV> -896974048 </CHKSUM_IDENTCRV>\X2\000A\X0\  <CHKSUM_INFINITY> 138018827 </CHKSUM_INFINITY>\X2\000A\X0\</CROSS_CHECK_SUM>\X2\000A\X0\</Q-CHECKER_SEAL> \X2\000A\X0\ \X2\000A\X0\ \X2\000D\X0\\X2\000A\X0\ \X2\000D\X0\\X2\000A\X0\ \X2\000D\X0\\X2\000A\X0\ \X2\000D\X0\\X2\000A\X0\ \X2\000D\X0\\X2\000A\X0\ \X2\000D\X0\\X2\000A\X0\ \X2\000D\X0\\X2\000A\X0\',(#2)) ;
#2=PRODUCT_CONTEXT(' ',#1,'mechanical') ;
#1=APPLICATION_CONTEXT('automotive design') ;
#10=PRODUCT_DEFINITION('52985',' ',#6,#3) ;
#3=PRODUCT_DEFINITION_CONTEXT('part definition',#1,' ') ;
#11=PRODUCT_DEFINITION_SHAPE(' ',' ',#10) ;
#464=MECHANICAL_DESIGN_GEOMETRIC_PRESENTATION_REPRESENTATION(' ',(#146,#178,#203,#228,#314,#327,#350,#368,#386,#399,#422,#435,#453,#461,#29),#16) ;
#19=SHAPE_REPRESENTATION(' ',(#18),#16) ;
#18=AXIS2_PLACEMENT_3D(' ',#17,$,$) ;
#34=AXIS2_PLACEMENT_3D('Plane Axis2P3D',#31,#32,#33) ;
#38=AXIS2_PLACEMENT_3D('Circle Axis2P3D',#36,#37,$) ;
#54=AXIS2_PLACEMENT_3D('Circle Axis2P3D',#52,#53,$) ;
#72=AXIS2_PLACEMENT_3D('Circle Axis2P3D',#70,#71,$) ;
#122=AXIS2_PLACEMENT_3D('Circle Axis2P3D',#120,#121,$) ;
#150=AXIS2_PLACEMENT_3D('Plane Axis2P3D',#147,#148,#149) ;
#182=AXIS2_PLACEMENT_3D('Cylinder Axis2P3D',#179,#180,#181) ;
#193=AXIS2_PLACEMENT_3D('Circle Axis2P3D',#191,#192,$) ;
#207=AXIS2_PLACEMENT_3D('Plane Axis2P3D',#204,#205,#206) ;
#232=AXIS2_PLACEMENT_3D('Plane Axis2P3D',#229,#230,#231) ;
#236=AXIS2_PLACEMENT_3D('Circle Axis2P3D',#234,#235,$) ;
#247=AXIS2_PLACEMENT_3D('Circle Axis2P3D',#245,#246,$) ;
#297=AXIS2_PLACEMENT_3D('Circle Axis2P3D',#295,#296,$) ;
#318=AXIS2_PLACEMENT_3D('Cylinder Axis2P3D',#315,#316,#317) ;
#331=AXIS2_PLACEMENT_3D('Cylinder Axis2P3D',#328,#329,#330) ;
#354=AXIS2_PLACEMENT_3D('Plane Axis2P3D',#351,#352,#353) ;
#372=AXIS2_PLACEMENT_3D('Plane Axis2P3D',#369,#370,#371) ;
#390=AXIS2_PLACEMENT_3D('Plane Axis2P3D',#387,#388,#389) ;
#403=AXIS2_PLACEMENT_3D('Plane Axis2P3D',#400,#401,#402) ;
#439=AXIS2_PLACEMENT_3D('Cylinder Axis2P3D',#436,#437,#438) ;
#17=CARTESIAN_POINT(' ',(0.,0.,0.)) ;
#31=CARTESIAN_POINT('Axis2P3D Location',(2.5,0.,5.7)) ;
#36=CARTESIAN_POINT('Axis2P3D Location',(2.5,1.95943487864E-016,2.5)) ;
#40=CARTESIAN_POINT('Vertex',(5.,-1.10218211923E-016,2.5)) ;
#42=CARTESIAN_POINT('Vertex',(-8.881784197E-016,5.0210518765E-016,2.5)) ;
#45=CARTESIAN_POINT('Line Origine',(5.,-2.17374806849E-016,4.25)) ;
#49=CARTESIAN_POINT('Vertex',(5.,-3.24531401774E-016,6.)) ;
#52=CARTESIAN_POINT('Axis2P3D Location',(2.5,-1.83697019872E-017,6.)) ;
#56=CARTESIAN_POINT('Vertex',(-8.881784197E-016,2.877919978E-016,6.)) ;
#59=CARTESIAN_POINT('Line Origine',(-8.881784197E-016,3.94948592725E-016,4.25)) ;
#70=CARTESIAN_POINT('Axis2P3D Location',(2.5,-1.83697019872E-017,6.)) ;
#74=CARTESIAN_POINT('Vertex',(4.3,-2.38806125834E-016,6.)) ;
#76=CARTESIAN_POINT('Vertex',(0.7,2.02066721859E-016,6.)) ;
#79=CARTESIAN_POINT('Line Origine',(4.3,-2.2962127484E-016,5.85)) ;
#83=CARTESIAN_POINT('Vertex',(4.3,-2.20436423847E-016,5.7)) ;
#86=CARTESIAN_POINT('Line Origine',(2.5,-4.93038065763E-032,5.7)) ;
#90=CARTESIAN_POINT('Vertex',(0.7,2.20436423847E-016,5.7)) ;
#93=CARTESIAN_POINT('Line Origine',(0.7,2.11251572853E-016,5.85)) ;
#104=CARTESIAN_POINT('Line Origine',(2.5,4.28626379702E-017,5.)) ;
#108=CARTESIAN_POINT('Vertex',(0.7,2.63299061817E-016,5.)) ;
#110=CARTESIAN_POINT('Vertex',(4.3,-1.77573785876E-016,5.)) ;
#113=CARTESIAN_POINT('Line Origine',(4.3,-1.0103336093E-016,3.75)) ;
#117=CARTESIAN_POINT('Vertex',(4.3,-2.44929359829E-017,2.5)) ;
#120=CARTESIAN_POINT('Axis2P3D Location',(2.5,1.95943487864E-016,2.5)) ;
#124=CARTESIAN_POINT('Vertex',(0.7,4.1637991171E-016,2.5)) ;
#127=CARTESIAN_POINT('Line Origine',(0.7,3.39839486763E-016,3.75)) ;
#147=CARTESIAN_POINT('Axis2P3D Location',(-8.881784197E-016,5.0210518765E-016,2.5)) ;
#152=CARTESIAN_POINT('Line Origine',(3.36468379447E-016,10.,2.5)) ;
#156=CARTESIAN_POINT('Vertex',(1.56111517859E-015,20.,2.5)) ;
#159=CARTESIAN_POINT('Line Origine',(3.36468379447E-016,10.,6.)) ;
#163=CARTESIAN_POINT('Vertex',(1.56111517859E-015,20.,6.)) ;
#166=CARTESIAN_POINT('Line Origine',(1.56111517859E-015,20.,4.25)) ;
#179=CARTESIAN_POINT('Axis2P3D Location',(2.5,10.61,2.5)) ;
#184=CARTESIAN_POINT('Line Origine',(5.,10.61,2.5)) ;
#188=CARTESIAN_POINT('Vertex',(5.,20.,2.5)) ;
#191=CARTESIAN_POINT('Axis2P3D Location',(2.5,20.,2.5)) ;
#204=CARTESIAN_POINT('Axis2P3D Location',(5.,-1.10218211923E-016,2.5)) ;
#209=CARTESIAN_POINT('Line Origine',(5.,20.,4.25)) ;
#213=CARTESIAN_POINT('Vertex',(5.,20.,6.)) ;
#216=CARTESIAN_POINT('Line Origine',(5.,10.,6.)) ;
#229=CARTESIAN_POINT('Axis2P3D Location',(2.5,20.,5.7)) ;
#234=CARTESIAN_POINT('Axis2P3D Location',(2.5,20.,6.)) ;
#245=CARTESIAN_POINT('Axis2P3D Location',(2.5,20.,6.)) ;
#249=CARTESIAN_POINT('Vertex',(0.7,20.,6.)) ;
#251=CARTESIAN_POINT('Vertex',(4.3,20.,6.)) ;
#254=CARTESIAN_POINT('Line Origine',(0.7,20.,5.85)) ;
#258=CARTESIAN_POINT('Vertex',(0.7,20.,5.7)) ;
#261=CARTESIAN_POINT('Line Origine',(2.5,20.,5.7)) ;
#265=CARTESIAN_POINT('Vertex',(4.3,20.,5.7)) ;
#268=CARTESIAN_POINT('Line Origine',(4.3,20.,5.85)) ;
#279=CARTESIAN_POINT('Line Origine',(2.5,20.,5.)) ;
#283=CARTESIAN_POINT('Vertex',(4.3,20.,5.)) ;
#285=CARTESIAN_POINT('Vertex',(0.7,20.,5.)) ;
#288=CARTESIAN_POINT('Line Origine',(0.7,20.,3.75)) ;
#292=CARTESIAN_POINT('Vertex',(0.7,20.,2.5)) ;
#295=CARTESIAN_POINT('Axis2P3D Location',(2.5,20.,2.5)) ;
#299=CARTESIAN_POINT('Vertex',(4.3,20.,2.5)) ;
#302=CARTESIAN_POINT('Line Origine',(4.3,20.,3.75)) ;
#315=CARTESIAN_POINT('Axis2P3D Location',(2.5,10.61,6.)) ;
#328=CARTESIAN_POINT('Axis2P3D Location',(2.5,10.61,6.)) ;
#333=CARTESIAN_POINT('Line Origine',(4.3,10.61,6.)) ;
#338=CARTESIAN_POINT('Line Origine',(0.7,10.61,6.)) ;
#351=CARTESIAN_POINT('Axis2P3D Location',(4.3,-2.38806125834E-016,6.)) ;
#356=CARTESIAN_POINT('Line Origine',(4.3,10.,5.7)) ;
#369=CARTESIAN_POINT('Axis2P3D Location',(0.7,2.20436423847E-016,5.7)) ;
#374=CARTESIAN_POINT('Line Origine',(0.7,10.,5.7)) ;
#387=CARTESIAN_POINT('Axis2P3D Location',(0.7,2.20436423847E-016,5.7)) ;
#400=CARTESIAN_POINT('Axis2P3D Location',(4.3,-1.77573785876E-016,5.)) ;
#405=CARTESIAN_POINT('Line Origine',(4.3,10.,5.)) ;
#410=CARTESIAN_POINT('Line Origine',(0.7,10.,5.)) ;
#423=CARTESIAN_POINT('Line Origine',(0.7,10.,2.5)) ;
#436=CARTESIAN_POINT('Axis2P3D Location',(2.5,10.61,2.5)) ;
#441=CARTESIAN_POINT('Line Origine',(4.3,10.61,2.5)) ;
#32=DIRECTION('Axis2P3D Direction',(1.22464679915E-016,1.,6.12323399574E-017)) ;
#33=DIRECTION('Axis2P3D XDirection',(-1.,1.22464679915E-016,0.)) ;
#37=DIRECTION('Axis2P3D Direction',(1.22464679915E-016,1.,6.12323399574E-017)) ;
#46=DIRECTION('Vector Direction',(0.,-6.12323399574E-017,1.)) ;
#53=DIRECTION('Axis2P3D Direction',(1.22464679915E-016,1.,6.12323399574E-017)) ;
#60=DIRECTION('Vector Direction',(0.,-6.12323399574E-017,1.)) ;
#71=DIRECTION('Axis2P3D Direction',(1.22464679915E-016,1.,6.12323399574E-017)) ;
#80=DIRECTION('Vector Direction',(0.,6.12323399574E-017,-1.)) ;
#87=DIRECTION('Vector Direction',(1.,-1.22464679915E-016,0.)) ;
#94=DIRECTION('Vector Direction',(0.,-6.12323399574E-017,1.)) ;
#105=DIRECTION('Vector Direction',(-1.,1.22464679915E-016,0.)) ;
#114=DIRECTION('Vector Direction',(0.,6.12323399574E-017,-1.)) ;
#121=DIRECTION('Axis2P3D Direction',(1.22464679915E-016,1.,6.12323399574E-017)) ;
#128=DIRECTION('Vector Direction',(-1.7763568394E-016,6.12323399574E-017,-1.)) ;
#148=DIRECTION('Axis2P3D Direction',(-1.,1.22464679915E-016,0.)) ;
#149=DIRECTION('Axis2P3D XDirection',(-7.49879891331E-033,-6.12323399574E-017,1.)) ;
#153=DIRECTION('Vector Direction',(1.22464679915E-016,1.,6.66133814775E-017)) ;
#160=DIRECTION('Vector Direction',(1.22464679915E-016,1.,4.4408920985E-017)) ;
#167=DIRECTION('Vector Direction',(0.,0.,1.)) ;
#180=DIRECTION('Axis2P3D Direction',(1.22464679915E-016,1.,6.12323399574E-017)) ;
#181=DIRECTION('Axis2P3D XDirection',(1.,-1.22464679915E-016,1.22464679915E-016)) ;
#185=DIRECTION('Vector Direction',(1.25567165839E-016,1.,4.18557219462E-017)) ;
#192=DIRECTION('Axis2P3D Direction',(1.22464679915E-016,1.,6.12323399574E-017)) ;
#205=DIRECTION('Axis2P3D Direction',(-1.,1.22464679915E-016,0.)) ;
#206=DIRECTION('Axis2P3D XDirection',(-7.49879891331E-033,-6.12323399574E-017,1.)) ;
#210=DIRECTION('Vector Direction',(0.,0.,1.)) ;
#217=DIRECTION('Vector Direction',(1.33226762955E-016,1.,4.4408920985E-017)) ;
#230=DIRECTION('Axis2P3D Direction',(1.22464679915E-016,1.,6.12323399574E-017)) ;
#231=DIRECTION('Axis2P3D XDirection',(-1.,1.22464679915E-016,0.)) ;
#235=DIRECTION('Axis2P3D Direction',(1.22464679915E-016,1.,6.12323399574E-017)) ;
#246=DIRECTION('Axis2P3D Direction',(1.22464679915E-016,1.,6.12323399574E-017)) ;
#255=DIRECTION('Vector Direction',(0.,0.,1.)) ;
#262=DIRECTION('Vector Direction',(1.,0.,0.)) ;
#269=DIRECTION('Vector Direction',(0.,0.,-1.)) ;
#280=DIRECTION('Vector Direction',(-1.,0.,0.)) ;
#289=DIRECTION('Vector Direction',(0.,0.,1.)) ;
#296=DIRECTION('Axis2P3D Direction',(1.22464679915E-016,1.,6.12323399574E-017)) ;
#303=DIRECTION('Vector Direction',(0.,0.,-1.)) ;
#316=DIRECTION('Axis2P3D Direction',(1.22464679915E-016,1.,6.12323399574E-017)) ;
#317=DIRECTION('Axis2P3D XDirection',(-1.,1.22464679915E-016,0.)) ;
#329=DIRECTION('Axis2P3D Direction',(1.22464679915E-016,1.,6.12323399574E-017)) ;
#330=DIRECTION('Axis2P3D XDirection',(-1.,1.22464679915E-016,1.23358113847E-016)) ;
#334=DIRECTION('Vector Direction',(1.25567165839E-016,1.,8.37114438925E-017)) ;
#339=DIRECTION('Vector Direction',(1.25567165839E-016,1.,8.37114438925E-017)) ;
#352=DIRECTION('Axis2P3D Direction',(1.,-1.22464679915E-016,0.)) ;
#353=DIRECTION('Axis2P3D XDirection',(7.49879891331E-033,6.12323399574E-017,-1.)) ;
#357=DIRECTION('Vector Direction',(1.33226762955E-016,1.,4.4408920985E-017)) ;
#370=DIRECTION('Axis2P3D Direction',(-7.49879891331E-033,-6.12323399574E-017,1.)) ;
#371=DIRECTION('Axis2P3D XDirection',(1.,-1.22464679915E-016,0.)) ;
#375=DIRECTION('Vector Direction',(1.22124532709E-016,1.,4.4408920985E-017)) ;
#388=DIRECTION('Axis2P3D Direction',(-1.,1.22464679915E-016,0.)) ;
#389=DIRECTION('Axis2P3D XDirection',(-7.49879891331E-033,-6.12323399574E-017,1.)) ;
#401=DIRECTION('Axis2P3D Direction',(7.49879891331E-033,6.12323399574E-017,-1.)) ;
#402=DIRECTION('Axis2P3D XDirection',(-1.,1.22464679915E-016,0.)) ;
#406=DIRECTION('Vector Direction',(1.33226762955E-016,1.,4.4408920985E-017)) ;
#411=DIRECTION('Vector Direction',(1.22124532709E-016,1.,4.4408920985E-017)) ;
#424=DIRECTION('Vector Direction',(1.22124532709E-016,1.,6.66133814775E-017)) ;
#437=DIRECTION('Axis2P3D Direction',(1.22464679915E-016,1.,6.12323399574E-017)) ;
#438=DIRECTION('Axis2P3D XDirection',(1.,-1.22464679915E-016,1.22464679915E-016)) ;
#442=DIRECTION('Vector Direction',(1.25567165839E-016,1.,4.18557219462E-017)) ;
#8=PRODUCT_RELATED_PRODUCT_CATEGORY('part',$,(#5)) ;
#7=PRODUCT_CATEGORY('part','specification') ;
#29=STYLED_ITEM(' ',(#28),#21) ;
#28=PRESENTATION_STYLE_ASSIGNMENT((#27)) ;
#145=PRESENTATION_STYLE_ASSIGNMENT((#144)) ;
#27=SURFACE_STYLE_USAGE(.BOTH.,#26) ;
#144=SURFACE_STYLE_USAGE(.BOTH.,#143) ;
#26=SURFACE_SIDE_STYLE(' ',(#25)) ;
#143=SURFACE_SIDE_STYLE(' ',(#142)) ;
#25=SURFACE_STYLE_FILL_AREA(#24) ;
#142=SURFACE_STYLE_FILL_AREA(#141) ;
#24=FILL_AREA_STYLE(' ',(#23)) ;
#141=FILL_AREA_STYLE(' ',(#140)) ;
#23=FILL_AREA_STYLE_COLOUR(' ',#22) ;
#140=FILL_AREA_STYLE_COLOUR(' ',#139) ;
#47=VECTOR('Line Direction',#46,1.) ;
#61=VECTOR('Line Direction',#60,1.) ;
#81=VECTOR('Line Direction',#80,1.) ;
#88=VECTOR('Line Direction',#87,1.) ;
#95=VECTOR('Line Direction',#94,1.) ;
#106=VECTOR('Line Direction',#105,1.) ;
#115=VECTOR('Line Direction',#114,1.) ;
#129=VECTOR('Line Direction',#128,1.) ;
#154=VECTOR('Line Direction',#153,1.) ;
#161=VECTOR('Line Direction',#160,1.) ;
#168=VECTOR('Line Direction',#167,1.) ;
#186=VECTOR('Line Direction',#185,1.) ;
#211=VECTOR('Line Direction',#210,1.) ;
#218=VECTOR('Line Direction',#217,1.) ;
#256=VECTOR('Line Direction',#255,1.) ;
#263=VECTOR('Line Direction',#262,1.) ;
#270=VECTOR('Line Direction',#269,1.) ;
#281=VECTOR('Line Direction',#280,1.) ;
#290=VECTOR('Line Direction',#289,1.) ;
#304=VECTOR('Line Direction',#303,1.) ;
#335=VECTOR('Line Direction',#334,1.) ;
#340=VECTOR('Line Direction',#339,1.) ;
#358=VECTOR('Line Direction',#357,1.) ;
#376=VECTOR('Line Direction',#375,1.) ;
#407=VECTOR('Line Direction',#406,1.) ;
#412=VECTOR('Line Direction',#411,1.) ;
#425=VECTOR('Line Direction',#424,1.) ;
#443=VECTOR('Line Direction',#442,1.) ;
#15=UNCERTAINTY_MEASURE_WITH_UNIT(LENGTH_MEASURE(0.005),#12,'distance_accuracy_value','CONFUSED CURVE UNCERTAINTY') ;
#463=SHAPE_REPRESENTATION_RELATIONSHIP(' ',' ',#19,#462) ;
#65=ORIENTED_EDGE('',*,*,#44,.F.) ;
#66=ORIENTED_EDGE('',*,*,#51,.F.) ;
#67=ORIENTED_EDGE('',*,*,#58,.F.) ;
#68=ORIENTED_EDGE('',*,*,#63,.F.) ;
#99=ORIENTED_EDGE('',*,*,#78,.F.) ;
#100=ORIENTED_EDGE('',*,*,#85,.F.) ;
#101=ORIENTED_EDGE('',*,*,#92,.F.) ;
#102=ORIENTED_EDGE('',*,*,#97,.F.) ;
#133=ORIENTED_EDGE('',*,*,#112,.T.) ;
#134=ORIENTED_EDGE('',*,*,#119,.T.) ;
#135=ORIENTED_EDGE('',*,*,#126,.T.) ;
#136=ORIENTED_EDGE('',*,*,#131,.T.) ;
#172=ORIENTED_EDGE('',*,*,#158,.F.) ;
#173=ORIENTED_EDGE('',*,*,#63,.T.) ;
#174=ORIENTED_EDGE('',*,*,#165,.T.) ;
#175=ORIENTED_EDGE('',*,*,#170,.F.) ;
#197=ORIENTED_EDGE('',*,*,#190,.F.) ;
#198=ORIENTED_EDGE('',*,*,#44,.T.) ;
#199=ORIENTED_EDGE('',*,*,#158,.T.) ;
#200=ORIENTED_EDGE('',*,*,#195,.F.) ;
#222=ORIENTED_EDGE('',*,*,#215,.T.) ;
#223=ORIENTED_EDGE('',*,*,#220,.F.) ;
#224=ORIENTED_EDGE('',*,*,#51,.T.) ;
#225=ORIENTED_EDGE('',*,*,#190,.T.) ;
#240=ORIENTED_EDGE('',*,*,#195,.T.) ;
#241=ORIENTED_EDGE('',*,*,#170,.T.) ;
#242=ORIENTED_EDGE('',*,*,#238,.T.) ;
#243=ORIENTED_EDGE('',*,*,#215,.F.) ;
#274=ORIENTED_EDGE('',*,*,#253,.F.) ;
#275=ORIENTED_EDGE('',*,*,#260,.F.) ;
#276=ORIENTED_EDGE('',*,*,#267,.T.) ;
#277=ORIENTED_EDGE('',*,*,#272,.F.) ;
#308=ORIENTED_EDGE('',*,*,#287,.T.) ;
#309=ORIENTED_EDGE('',*,*,#294,.F.) ;
#310=ORIENTED_EDGE('',*,*,#301,.F.) ;
#311=ORIENTED_EDGE('',*,*,#306,.F.) ;
#321=ORIENTED_EDGE('',*,*,#165,.F.) ;
#322=ORIENTED_EDGE('',*,*,#58,.T.) ;
#323=ORIENTED_EDGE('',*,*,#220,.T.) ;
#324=ORIENTED_EDGE('',*,*,#238,.F.) ;
#344=ORIENTED_EDGE('',*,*,#253,.T.) ;
#345=ORIENTED_EDGE('',*,*,#337,.F.) ;
#346=ORIENTED_EDGE('',*,*,#78,.T.) ;
#347=ORIENTED_EDGE('',*,*,#342,.T.) ;
#362=ORIENTED_EDGE('',*,*,#272,.T.) ;
#363=ORIENTED_EDGE('',*,*,#360,.F.) ;
#364=ORIENTED_EDGE('',*,*,#85,.T.) ;
#365=ORIENTED_EDGE('',*,*,#337,.T.) ;
#380=ORIENTED_EDGE('',*,*,#378,.F.) ;
#381=ORIENTED_EDGE('',*,*,#92,.T.) ;
#382=ORIENTED_EDGE('',*,*,#360,.T.) ;
#383=ORIENTED_EDGE('',*,*,#267,.F.) ;
#393=ORIENTED_EDGE('',*,*,#260,.T.) ;
#394=ORIENTED_EDGE('',*,*,#342,.F.) ;
#395=ORIENTED_EDGE('',*,*,#97,.T.) ;
#396=ORIENTED_EDGE('',*,*,#378,.T.) ;
#416=ORIENTED_EDGE('',*,*,#409,.F.) ;
#417=ORIENTED_EDGE('',*,*,#112,.F.) ;
#418=ORIENTED_EDGE('',*,*,#414,.T.) ;
#419=ORIENTED_EDGE('',*,*,#287,.F.) ;
#429=ORIENTED_EDGE('',*,*,#294,.T.) ;
#430=ORIENTED_EDGE('',*,*,#414,.F.) ;
#431=ORIENTED_EDGE('',*,*,#131,.F.) ;
#432=ORIENTED_EDGE('',*,*,#427,.T.) ;
#447=ORIENTED_EDGE('',*,*,#301,.T.) ;
#448=ORIENTED_EDGE('',*,*,#427,.F.) ;
#449=ORIENTED_EDGE('',*,*,#126,.F.) ;
#450=ORIENTED_EDGE('',*,*,#445,.T.) ;
#455=ORIENTED_EDGE('',*,*,#306,.T.) ;
#456=ORIENTED_EDGE('',*,*,#445,.F.) ;
#457=ORIENTED_EDGE('',*,*,#119,.F.) ;
#458=ORIENTED_EDGE('',*,*,#409,.T.) ;
#103=FACE_BOUND('',#98,.T.) ;
#137=FACE_BOUND('',#132,.T.) ;
#278=FACE_BOUND('',#273,.T.) ;
#312=FACE_BOUND('',#307,.T.) ;
#30=CLOSED_SHELL('Closed Shell',(#138,#177,#202,#227,#313,#326,#349,#367,#385,#398,#421,#434,#452,#460)) ;
#462=ADVANCED_BREP_SHAPE_REPRESENTATION('NONE',(#21),#16) ;
#138=ADVANCED_FACE('S3D-Kopie',(#69,#103,#137),#35,.F.) ;
#177=ADVANCED_FACE('S3D-Kopie',(#176),#151,.T.) ;
#202=ADVANCED_FACE('S3D-Kopie',(#201),#183,.T.) ;
#227=ADVANCED_FACE('S3D-Kopie',(#226),#208,.F.) ;
#313=ADVANCED_FACE('S3D-Kopie',(#244,#278,#312),#233,.T.) ;
#326=ADVANCED_FACE('S3D-Kopie',(#325),#319,.T.) ;
#349=ADVANCED_FACE('S3D-Kopie',(#348),#332,.F.) ;
#367=ADVANCED_FACE('S3D-Kopie',(#366),#355,.F.) ;
#385=ADVANCED_FACE('S3D-Kopie',(#384),#373,.T.) ;
#398=ADVANCED_FACE('S3D-Kopie',(#397),#391,.F.) ;
#421=ADVANCED_FACE('S3D-Kopie',(#420),#404,.T.) ;
#434=ADVANCED_FACE('S3D-Kopie',(#433),#391,.F.) ;
#452=ADVANCED_FACE('S3D-Kopie',(#451),#440,.F.) ;
#460=ADVANCED_FACE('S3D-Kopie',(#459),#355,.F.) ;
#4=APPLICATION_PROTOCOL_DEFINITION('international standard','automotive_design',2001,#1) ;
#21=MANIFOLD_SOLID_BREP('S3D-Kopie',#30) ;
#39=CIRCLE('generated circle',#38,2.5) ;
#55=CIRCLE('generated circle',#54,2.5) ;
#73=CIRCLE('generated circle',#72,1.8) ;
#123=CIRCLE('generated circle',#122,1.8) ;
#194=CIRCLE('generated circle',#193,2.5) ;
#237=CIRCLE('generated circle',#236,2.5) ;
#248=CIRCLE('generated circle',#247,1.8) ;
#298=CIRCLE('generated circle',#297,1.8) ;
#22=COLOUR_RGB('Colour',0.823529411765,0.823529411765,1.) ;
#146=OVER_RIDING_STYLED_ITEM(' ',(#145),#138,#29) ;
#178=OVER_RIDING_STYLED_ITEM(' ',(#145),#177,#29) ;
#203=OVER_RIDING_STYLED_ITEM(' ',(#145),#202,#29) ;
#228=OVER_RIDING_STYLED_ITEM(' ',(#145),#227,#29) ;
#314=OVER_RIDING_STYLED_ITEM(' ',(#145),#313,#29) ;
#327=OVER_RIDING_STYLED_ITEM(' ',(#145),#326,#29) ;
#350=OVER_RIDING_STYLED_ITEM(' ',(#145),#349,#29) ;
#368=OVER_RIDING_STYLED_ITEM(' ',(#145),#367,#29) ;
#386=OVER_RIDING_STYLED_ITEM(' ',(#145),#385,#29) ;
#399=OVER_RIDING_STYLED_ITEM(' ',(#145),#398,#29) ;
#422=OVER_RIDING_STYLED_ITEM(' ',(#145),#421,#29) ;
#435=OVER_RIDING_STYLED_ITEM(' ',(#145),#434,#29) ;
#453=OVER_RIDING_STYLED_ITEM(' ',(#145),#452,#29) ;
#461=OVER_RIDING_STYLED_ITEM(' ',(#145),#460,#29) ;
#183=CYLINDRICAL_SURFACE('generated cylinder',#182,2.5) ;
#319=CYLINDRICAL_SURFACE('generated cylinder',#318,2.5) ;
#332=CYLINDRICAL_SURFACE('generated cylinder',#331,1.8) ;
#440=CYLINDRICAL_SURFACE('generated cylinder',#439,1.8) ;
#139=DRAUGHTING_PRE_DEFINED_COLOUR('white') ;
#44=EDGE_CURVE('',#41,#43,#39,.T.) ;
#51=EDGE_CURVE('',#50,#41,#48,.F.) ;
#58=EDGE_CURVE('',#57,#50,#55,.T.) ;
#63=EDGE_CURVE('',#43,#57,#62,.T.) ;
#78=EDGE_CURVE('',#75,#77,#73,.F.) ;
#85=EDGE_CURVE('',#84,#75,#82,.F.) ;
#92=EDGE_CURVE('',#91,#84,#89,.T.) ;
#97=EDGE_CURVE('',#77,#91,#96,.F.) ;
#112=EDGE_CURVE('',#109,#111,#107,.F.) ;
#119=EDGE_CURVE('',#111,#118,#116,.T.) ;
#126=EDGE_CURVE('',#118,#125,#123,.T.) ;
#131=EDGE_CURVE('',#125,#109,#130,.F.) ;
#158=EDGE_CURVE('',#43,#157,#155,.T.) ;
#165=EDGE_CURVE('',#57,#164,#162,.T.) ;
#170=EDGE_CURVE('',#157,#164,#169,.T.) ;
#190=EDGE_CURVE('',#41,#189,#187,.T.) ;
#195=EDGE_CURVE('',#189,#157,#194,.T.) ;
#215=EDGE_CURVE('',#189,#214,#212,.T.) ;
#220=EDGE_CURVE('',#50,#214,#219,.T.) ;
#238=EDGE_CURVE('',#164,#214,#237,.T.) ;
#253=EDGE_CURVE('',#250,#252,#248,.T.) ;
#260=EDGE_CURVE('',#259,#250,#257,.T.) ;
#267=EDGE_CURVE('',#259,#266,#264,.T.) ;
#272=EDGE_CURVE('',#252,#266,#271,.T.) ;
#287=EDGE_CURVE('',#284,#286,#282,.T.) ;
#294=EDGE_CURVE('',#293,#286,#291,.T.) ;
#301=EDGE_CURVE('',#300,#293,#298,.T.) ;
#306=EDGE_CURVE('',#284,#300,#305,.T.) ;
#337=EDGE_CURVE('',#75,#252,#336,.T.) ;
#342=EDGE_CURVE('',#77,#250,#341,.T.) ;
#360=EDGE_CURVE('',#84,#266,#359,.T.) ;
#378=EDGE_CURVE('',#91,#259,#377,.T.) ;
#409=EDGE_CURVE('',#111,#284,#408,.T.) ;
#414=EDGE_CURVE('',#109,#286,#413,.T.) ;
#427=EDGE_CURVE('',#125,#293,#426,.T.) ;
#445=EDGE_CURVE('',#118,#300,#444,.T.) ;
#64=EDGE_LOOP('',(#65,#66,#67,#68)) ;
#98=EDGE_LOOP('',(#99,#100,#101,#102)) ;
#132=EDGE_LOOP('',(#133,#134,#135,#136)) ;
#171=EDGE_LOOP('',(#172,#173,#174,#175)) ;
#196=EDGE_LOOP('',(#197,#198,#199,#200)) ;
#221=EDGE_LOOP('',(#222,#223,#224,#225)) ;
#239=EDGE_LOOP('',(#240,#241,#242,#243)) ;
#273=EDGE_LOOP('',(#274,#275,#276,#277)) ;
#307=EDGE_LOOP('',(#308,#309,#310,#311)) ;
#320=EDGE_LOOP('',(#321,#322,#323,#324)) ;
#343=EDGE_LOOP('',(#344,#345,#346,#347)) ;
#361=EDGE_LOOP('',(#362,#363,#364,#365)) ;
#379=EDGE_LOOP('',(#380,#381,#382,#383)) ;
#392=EDGE_LOOP('',(#393,#394,#395,#396)) ;
#415=EDGE_LOOP('',(#416,#417,#418,#419)) ;
#428=EDGE_LOOP('',(#429,#430,#431,#432)) ;
#446=EDGE_LOOP('',(#447,#448,#449,#450)) ;
#454=EDGE_LOOP('',(#455,#456,#457,#458)) ;
#69=FACE_OUTER_BOUND('',#64,.T.) ;
#176=FACE_OUTER_BOUND('',#171,.T.) ;
#201=FACE_OUTER_BOUND('',#196,.T.) ;
#226=FACE_OUTER_BOUND('',#221,.T.) ;
#244=FACE_OUTER_BOUND('',#239,.T.) ;
#325=FACE_OUTER_BOUND('',#320,.T.) ;
#348=FACE_OUTER_BOUND('',#343,.T.) ;
#366=FACE_OUTER_BOUND('',#361,.T.) ;
#384=FACE_OUTER_BOUND('',#379,.T.) ;
#397=FACE_OUTER_BOUND('',#392,.T.) ;
#420=FACE_OUTER_BOUND('',#415,.T.) ;
#433=FACE_OUTER_BOUND('',#428,.T.) ;
#451=FACE_OUTER_BOUND('',#446,.T.) ;
#459=FACE_OUTER_BOUND('',#454,.T.) ;
#48=LINE('Line',#45,#47) ;
#62=LINE('Line',#59,#61) ;
#82=LINE('Line',#79,#81) ;
#89=LINE('Line',#86,#88) ;
#96=LINE('Line',#93,#95) ;
#107=LINE('Line',#104,#106) ;
#116=LINE('Line',#113,#115) ;
#130=LINE('Line',#127,#129) ;
#155=LINE('Line',#152,#154) ;
#162=LINE('Line',#159,#161) ;
#169=LINE('Line',#166,#168) ;
#187=LINE('Line',#184,#186) ;
#212=LINE('Line',#209,#211) ;
#219=LINE('Line',#216,#218) ;
#257=LINE('Line',#254,#256) ;
#264=LINE('Line',#261,#263) ;
#271=LINE('Line',#268,#270) ;
#282=LINE('Line',#279,#281) ;
#291=LINE('Line',#288,#290) ;
#305=LINE('Line',#302,#304) ;
#336=LINE('Line',#333,#335) ;
#341=LINE('Line',#338,#340) ;
#359=LINE('Line',#356,#358) ;
#377=LINE('Line',#374,#376) ;
#408=LINE('Line',#405,#407) ;
#413=LINE('Line',#410,#412) ;
#426=LINE('Line',#423,#425) ;
#444=LINE('Line',#441,#443) ;
#35=PLANE('',#34) ;
#151=PLANE('',#150) ;
#208=PLANE('',#207) ;
#233=PLANE('',#232) ;
#355=PLANE('',#354) ;
#373=PLANE('',#372) ;
#391=PLANE('',#390) ;
#404=PLANE('',#403) ;
#9=PRODUCT_CATEGORY_RELATIONSHIP(' ',' ',#7,#8) ;
#6=PRODUCT_DEFINITION_FORMATION_WITH_SPECIFIED_SOURCE('',' ',#5,.BOUGHT.) ;
#20=SHAPE_DEFINITION_REPRESENTATION(#11,#19) ;
#41=VERTEX_POINT('',#40) ;
#43=VERTEX_POINT('',#42) ;
#50=VERTEX_POINT('',#49) ;
#57=VERTEX_POINT('',#56) ;
#75=VERTEX_POINT('',#74) ;
#77=VERTEX_POINT('',#76) ;
#84=VERTEX_POINT('',#83) ;
#91=VERTEX_POINT('',#90) ;
#109=VERTEX_POINT('',#108) ;
#111=VERTEX_POINT('',#110) ;
#118=VERTEX_POINT('',#117) ;
#125=VERTEX_POINT('',#124) ;
#157=VERTEX_POINT('',#156) ;
#164=VERTEX_POINT('',#163) ;
#189=VERTEX_POINT('',#188) ;
#214=VERTEX_POINT('',#213) ;
#250=VERTEX_POINT('',#249) ;
#252=VERTEX_POINT('',#251) ;
#259=VERTEX_POINT('',#258) ;
#266=VERTEX_POINT('',#265) ;
#284=VERTEX_POINT('',#283) ;
#286=VERTEX_POINT('',#285) ;
#293=VERTEX_POINT('',#292) ;
#300=VERTEX_POINT('',#299) ;
#12=(LENGTH_UNIT()NAMED_UNIT(*)SI_UNIT(.MILLI.,.METRE.)) ;
#13=(NAMED_UNIT(*)PLANE_ANGLE_UNIT()SI_UNIT($,.RADIAN.)) ;
#14=(NAMED_UNIT(*)SI_UNIT($,.STERADIAN.)SOLID_ANGLE_UNIT()) ;
#16=(GEOMETRIC_REPRESENTATION_CONTEXT(3)GLOBAL_UNCERTAINTY_ASSIGNED_CONTEXT((#15))GLOBAL_UNIT_ASSIGNED_CONTEXT((#12,#13,#14))REPRESENTATION_CONTEXT(' ',' ')) ;
ENDSEC;
END-ISO-10303-21;
