ISO-10303-21;
HEADER;
FILE_DESCRIPTION(('CATIA V5R24 STEP','CAx-IF Rec.Pracs.--- Model Styling and Organization---1.2---2011-12-15'),'2;1');

FILE_NAME ('D1455959_0_1776910000_1776910000.stp','2018-03-21T10:03:25+00:00',('none'),('Weidmueller'),'CATIA Version 5-6 Release 2014 SP4 HF52','CATIA V5 STEP AP214','none');

FILE_SCHEMA(('AUTOMOTIVE_DESIGN { 1 0 10303 214 1 1 1 1 }'));

ENDSEC;
DATA;
#5=PRODUCT('1776910000_VP_M20_K54','','',(#2)) ;
#2=PRODUCT_CONTEXT(' ',#1,'mechanical') ;
#1=APPLICATION_CONTEXT('automotive design') ;
#10=PRODUCT_DEFINITION('',' ',#6,#3) ;
#3=PRODUCT_DEFINITION_CONTEXT('part definition',#1,' ') ;
#11=PRODUCT_DEFINITION_SHAPE(' ',' ',#10) ;
#573=MECHANICAL_DESIGN_GEOMETRIC_PRESENTATION_REPRESENTATION(' ',(#78,#112,#130,#162,#194,#212,#230,#259,#270,#302,#320,#352,#370,#457,#489,#514,#539,#557,#570,#29),#16) ;
#19=SHAPE_REPRESENTATION(' ',(#18),#16) ;
#18=AXIS2_PLACEMENT_3D(' ',#17,$,$) ;
#34=AXIS2_PLACEMENT_3D('Cone Axis2P3D',#31,#32,#33) ;
#38=AXIS2_PLACEMENT_3D('Circle Axis2P3D',#36,#37,$) ;
#54=AXIS2_PLACEMENT_3D('Circle Axis2P3D',#52,#53,$) ;
#82=AXIS2_PLACEMENT_3D('Plane Axis2P3D',#79,#80,#81) ;
#86=AXIS2_PLACEMENT_3D('Circle Axis2P3D',#84,#85,$) ;
#95=AXIS2_PLACEMENT_3D('Circle Axis2P3D',#93,#94,$) ;
#104=AXIS2_PLACEMENT_3D('Circle Axis2P3D',#102,#103,$) ;
#116=AXIS2_PLACEMENT_3D('Cone Axis2P3D',#113,#114,#115) ;
#120=AXIS2_PLACEMENT_3D('Circle Axis2P3D',#118,#119,$) ;
#134=AXIS2_PLACEMENT_3D('Cylinder Axis2P3D',#131,#132,#133) ;
#138=AXIS2_PLACEMENT_3D('Circle Axis2P3D',#136,#137,$) ;
#166=AXIS2_PLACEMENT_3D('Cylinder Axis2P3D',#163,#164,#165) ;
#177=AXIS2_PLACEMENT_3D('Circle Axis2P3D',#175,#176,$) ;
#198=AXIS2_PLACEMENT_3D('Cylinder Axis2P3D',#195,#196,#197) ;
#202=AXIS2_PLACEMENT_3D('Circle Axis2P3D',#200,#201,$) ;
#216=AXIS2_PLACEMENT_3D('Cylinder Axis2P3D',#213,#214,#215) ;
#220=AXIS2_PLACEMENT_3D('Circle Axis2P3D',#218,#219,$) ;
#234=AXIS2_PLACEMENT_3D('Plane Axis2P3D',#231,#232,#233) ;
#238=AXIS2_PLACEMENT_3D('Circle Axis2P3D',#236,#237,$) ;
#247=AXIS2_PLACEMENT_3D('Circle Axis2P3D',#245,#246,$) ;
#263=AXIS2_PLACEMENT_3D('Plane Axis2P3D',#260,#261,#262) ;
#274=AXIS2_PLACEMENT_3D('Cylinder Axis2P3D',#271,#272,#273) ;
#292=AXIS2_PLACEMENT_3D('Circle Axis2P3D',#290,#291,$) ;
#306=AXIS2_PLACEMENT_3D('Cylinder Axis2P3D',#303,#304,#305) ;
#310=AXIS2_PLACEMENT_3D('Circle Axis2P3D',#308,#309,$) ;
#324=AXIS2_PLACEMENT_3D('Torus Axis2P3D',#321,#322,#323) ;
#328=AXIS2_PLACEMENT_3D('Circle Axis2P3D',#326,#327,$) ;
#335=AXIS2_PLACEMENT_3D('Circle Axis2P3D',#333,#334,$) ;
#342=AXIS2_PLACEMENT_3D('Circle Axis2P3D',#340,#341,$) ;
#356=AXIS2_PLACEMENT_3D('Torus Axis2P3D',#353,#354,#355) ;
#360=AXIS2_PLACEMENT_3D('Circle Axis2P3D',#358,#359,$) ;
#374=AXIS2_PLACEMENT_3D('Plane Axis2P3D',#371,#372,#373) ;
#461=AXIS2_PLACEMENT_3D('Plane Axis2P3D',#458,#459,#460) ;
#493=AXIS2_PLACEMENT_3D('Cylinder Axis2P3D',#490,#491,#492) ;
#497=AXIS2_PLACEMENT_3D('Circle Axis2P3D',#495,#496,$) ;
#518=AXIS2_PLACEMENT_3D('Plane Axis2P3D',#515,#516,#517) ;
#543=AXIS2_PLACEMENT_3D('Cylinder Axis2P3D',#540,#541,#542) ;
#547=AXIS2_PLACEMENT_3D('Circle Axis2P3D',#545,#546,$) ;
#561=AXIS2_PLACEMENT_3D('Plane Axis2P3D',#558,#559,#560) ;
#17=CARTESIAN_POINT(' ',(0.,0.,0.)) ;
#31=CARTESIAN_POINT('Axis2P3D Location',(12.,12.,0.)) ;
#36=CARTESIAN_POINT('Axis2P3D Location',(12.,12.,0.)) ;
#40=CARTESIAN_POINT('Vertex',(2.5,12.,-1.25123288413E-015)) ;
#42=CARTESIAN_POINT('Vertex',(21.5,12.,1.25123288413E-015)) ;
#45=CARTESIAN_POINT('Line Origine',(-353546.140593,12.,353548.640593)) ;
#49=CARTESIAN_POINT('Vertex',(2.,12.,0.5)) ;
#52=CARTESIAN_POINT('Axis2P3D Location',(12.,12.,0.5)) ;
#56=CARTESIAN_POINT('Vertex',(22.,12.,0.5)) ;
#59=CARTESIAN_POINT('Line Origine',(353570.140593,12.,353548.640593)) ;
#79=CARTESIAN_POINT('Axis2P3D Location',(12.,12.,0.)) ;
#84=CARTESIAN_POINT('Axis2P3D Location',(12.,12.,3.26311457628E-031)) ;
#93=CARTESIAN_POINT('Axis2P3D Location',(12.,12.,-2.17540971752E-031)) ;
#97=CARTESIAN_POINT('Vertex',(4.,12.,-9.7971743932E-016)) ;
#99=CARTESIAN_POINT('Vertex',(20.,12.,9.7971743932E-016)) ;
#102=CARTESIAN_POINT('Axis2P3D Location',(12.,12.,2.17540971752E-031)) ;
#113=CARTESIAN_POINT('Axis2P3D Location',(12.,12.,0.)) ;
#118=CARTESIAN_POINT('Axis2P3D Location',(12.,12.,0.5)) ;
#131=CARTESIAN_POINT('Axis2P3D Location',(12.,12.,6.5)) ;
#136=CARTESIAN_POINT('Axis2P3D Location',(12.,12.,6.5)) ;
#140=CARTESIAN_POINT('Vertex',(2.,12.,6.5)) ;
#142=CARTESIAN_POINT('Vertex',(22.,12.,6.5)) ;
#145=CARTESIAN_POINT('Line Origine',(22.,12.,6.5)) ;
#150=CARTESIAN_POINT('Line Origine',(2.,12.,6.5)) ;
#163=CARTESIAN_POINT('Axis2P3D Location',(12.,12.,6.5)) ;
#168=CARTESIAN_POINT('Line Origine',(20.,12.,6.5)) ;
#172=CARTESIAN_POINT('Vertex',(20.,12.,6.5)) ;
#175=CARTESIAN_POINT('Axis2P3D Location',(12.,12.,6.5)) ;
#179=CARTESIAN_POINT('Vertex',(4.,12.,6.5)) ;
#182=CARTESIAN_POINT('Line Origine',(4.,12.,6.5)) ;
#195=CARTESIAN_POINT('Axis2P3D Location',(12.,12.,6.5)) ;
#200=CARTESIAN_POINT('Axis2P3D Location',(12.,12.,6.5)) ;
#213=CARTESIAN_POINT('Axis2P3D Location',(12.,12.,6.5)) ;
#218=CARTESIAN_POINT('Axis2P3D Location',(12.,12.,6.5)) ;
#231=CARTESIAN_POINT('Axis2P3D Location',(12.,12.,6.5)) ;
#236=CARTESIAN_POINT('Axis2P3D Location',(12.,12.,6.5)) ;
#240=CARTESIAN_POINT('Vertex',(24.,12.,6.5)) ;
#242=CARTESIAN_POINT('Vertex',(0.,12.,6.5)) ;
#245=CARTESIAN_POINT('Axis2P3D Location',(12.,12.,6.5)) ;
#260=CARTESIAN_POINT('Axis2P3D Location',(12.,12.,6.5)) ;
#271=CARTESIAN_POINT('Axis2P3D Location',(12.,12.,0.)) ;
#276=CARTESIAN_POINT('Line Origine',(0.,12.,0.)) ;
#280=CARTESIAN_POINT('Vertex',(-1.7763568394E-015,12.,8.5)) ;
#283=CARTESIAN_POINT('Line Origine',(24.,12.,0.)) ;
#287=CARTESIAN_POINT('Vertex',(24.,12.,8.5)) ;
#290=CARTESIAN_POINT('Axis2P3D Location',(12.,12.,8.5)) ;
#303=CARTESIAN_POINT('Axis2P3D Location',(12.,12.,0.)) ;
#308=CARTESIAN_POINT('Axis2P3D Location',(12.,12.,8.5)) ;
#321=CARTESIAN_POINT('Axis2P3D Location',(12.,12.,0.)) ;
#326=CARTESIAN_POINT('Axis2P3D Location',(5.26782687643,12.,-8.2445342671E-016)) ;
#330=CARTESIAN_POINT('Vertex',(5.26782687643,12.,10.)) ;
#333=CARTESIAN_POINT('Axis2P3D Location',(18.7321731236,12.,8.2445342671E-016)) ;
#337=CARTESIAN_POINT('Vertex',(18.7321731236,12.,10.)) ;
#340=CARTESIAN_POINT('Axis2P3D Location',(12.,12.,10.)) ;
#353=CARTESIAN_POINT('Axis2P3D Location',(12.,12.,0.)) ;
#358=CARTESIAN_POINT('Axis2P3D Location',(12.,12.,10.)) ;
#371=CARTESIAN_POINT('Axis2P3D Location',(12.,12.,10.)) ;
#380=CARTESIAN_POINT('Line Origine',(11.,12.,10.)) ;
#384=CARTESIAN_POINT('Vertex',(11.,17.,10.)) ;
#386=CARTESIAN_POINT('Vertex',(11.,7.,10.)) ;
#390=CARTESIAN_POINT('Control Point',(13.,17.,10.)) ;
#391=CARTESIAN_POINT('Control Point',(13.,17.0979772995,10.)) ;
#392=CARTESIAN_POINT('Control Point',(12.9880005603,17.1959539633,10.)) ;
#393=CARTESIAN_POINT('Control Point',(12.9639952603,17.2919875007,10.)) ;
#394=CARTESIAN_POINT('Control Point',(12.8929662011,17.4761871817,10.)) ;
#395=CARTESIAN_POINT('Control Point',(12.7795861493,17.6377997341,10.)) ;
#396=CARTESIAN_POINT('Control Point',(12.713216727,17.7112421963,10.)) ;
#397=CARTESIAN_POINT('Control Point',(12.5638688226,17.8403539841,10.)) ;
#398=CARTESIAN_POINT('Control Point',(12.3877794707,17.9296075226,10.)) ;
#399=CARTESIAN_POINT('Control Point',(12.2946588788,17.9631820739,10.)) ;
#400=CARTESIAN_POINT('Control Point',(12.1021251947,18.0068333093,10.)) ;
#401=CARTESIAN_POINT('Control Point',(11.9047503503,18.0027315528,10.)) ;
#402=CARTESIAN_POINT('Control Point',(11.8067845669,17.9885400135,10.)) ;
#403=CARTESIAN_POINT('Control Point',(11.6163573242,17.936462047,10.)) ;
#404=CARTESIAN_POINT('Control Point',(11.4441280573,17.839969908,10.)) ;
#405=CARTESIAN_POINT('Control Point',(11.3643628635,17.7813507473,10.)) ;
#406=CARTESIAN_POINT('Control Point',(11.2208386116,17.6457944293,10.)) ;
#407=CARTESIAN_POINT('Control Point',(11.1142705965,17.479610824,10.)) ;
#408=CARTESIAN_POINT('Control Point',(11.0714707725,17.3903545421,10.)) ;
#409=CARTESIAN_POINT('Control Point',(11.0270875128,17.2582142249,10.)) ;
#410=CARTESIAN_POINT('Control Point',(11.0061468144,17.1212690621,10.)) ;
#411=CARTESIAN_POINT('Control Point',(11.0020385328,17.0807667721,10.)) ;
#412=CARTESIAN_POINT('Control Point',(11.,17.0403833814,10.)) ;
#413=CARTESIAN_POINT('Control Point',(11.,17.,10.)) ;
#414=CARTESIAN_POINT('Vertex',(13.,17.,10.)) ;
#417=CARTESIAN_POINT('Line Origine',(13.,12.,10.)) ;
#421=CARTESIAN_POINT('Vertex',(13.,7.,10.)) ;
#425=CARTESIAN_POINT('Control Point',(11.,7.,10.)) ;
#426=CARTESIAN_POINT('Control Point',(11.,6.90202270052,10.)) ;
#427=CARTESIAN_POINT('Control Point',(11.0119994397,6.80404603681,10.)) ;
#428=CARTESIAN_POINT('Control Point',(11.0360047397,6.70801249919,10.)) ;
#429=CARTESIAN_POINT('Control Point',(11.1070337989,6.52381281821,10.)) ;
#430=CARTESIAN_POINT('Control Point',(11.2204138508,6.36220026585,10.)) ;
#431=CARTESIAN_POINT('Control Point',(11.2867832729,6.28875780377,10.)) ;
#432=CARTESIAN_POINT('Control Point',(11.4361311775,6.15964601578,10.)) ;
#433=CARTESIAN_POINT('Control Point',(11.6122205295,6.07039247732,10.)) ;
#434=CARTESIAN_POINT('Control Point',(11.705341121,6.03681792621,10.)) ;
#435=CARTESIAN_POINT('Control Point',(11.8978748052,5.99316669075,10.)) ;
#436=CARTESIAN_POINT('Control Point',(12.0952496497,5.9972684471,10.)) ;
#437=CARTESIAN_POINT('Control Point',(12.1932154331,6.01145998655,10.)) ;
#438=CARTESIAN_POINT('Control Point',(12.3836426759,6.06353795305,10.)) ;
#439=CARTESIAN_POINT('Control Point',(12.5558719428,6.16003009209,10.)) ;
#440=CARTESIAN_POINT('Control Point',(12.6356371364,6.21864925267,10.)) ;
#441=CARTESIAN_POINT('Control Point',(12.7791613884,6.35420557064,10.)) ;
#442=CARTESIAN_POINT('Control Point',(12.8857294035,6.52038917603,10.)) ;
#443=CARTESIAN_POINT('Control Point',(12.9285292274,6.6096454578,10.)) ;
#444=CARTESIAN_POINT('Control Point',(12.9729124872,6.74178577515,10.)) ;
#445=CARTESIAN_POINT('Control Point',(12.9938531856,6.87873093791,10.)) ;
#446=CARTESIAN_POINT('Control Point',(12.9979614672,6.91923322786,10.)) ;
#447=CARTESIAN_POINT('Control Point',(13.,6.95961661852,10.)) ;
#448=CARTESIAN_POINT('Control Point',(13.,7.,10.)) ;
#458=CARTESIAN_POINT('Axis2P3D Location',(11.,17.,8.)) ;
#463=CARTESIAN_POINT('Line Origine',(11.,7.,9.)) ;
#467=CARTESIAN_POINT('Vertex',(11.,7.,8.)) ;
#470=CARTESIAN_POINT('Line Origine',(11.,12.,8.)) ;
#474=CARTESIAN_POINT('Vertex',(11.,17.,8.)) ;
#477=CARTESIAN_POINT('Line Origine',(11.,17.,9.)) ;
#490=CARTESIAN_POINT('Axis2P3D Location',(12.,17.,8.)) ;
#495=CARTESIAN_POINT('Axis2P3D Location',(12.,17.,8.)) ;
#499=CARTESIAN_POINT('Vertex',(13.,17.,8.)) ;
#502=CARTESIAN_POINT('Line Origine',(13.,17.,8.)) ;
#515=CARTESIAN_POINT('Axis2P3D Location',(13.,17.,8.)) ;
#520=CARTESIAN_POINT('Line Origine',(13.,12.,8.)) ;
#524=CARTESIAN_POINT('Vertex',(13.,7.,8.)) ;
#527=CARTESIAN_POINT('Line Origine',(13.,7.,9.)) ;
#540=CARTESIAN_POINT('Axis2P3D Location',(12.,7.,8.)) ;
#545=CARTESIAN_POINT('Axis2P3D Location',(12.,7.,8.)) ;
#558=CARTESIAN_POINT('Axis2P3D Location',(12.,17.,8.)) ;
#32=DIRECTION('Axis2P3D Direction',(-1.22464679915E-016,0.,1.)) ;
#33=DIRECTION('Axis2P3D XDirection',(1.,0.,1.31708724646E-016)) ;
#37=DIRECTION('Axis2P3D Direction',(-1.31708724645E-016,0.,1.)) ;
#46=DIRECTION('Vector Direction',(-0.707106781186,8.65962324979E-017,0.707106781187)) ;
#53=DIRECTION('Axis2P3D Direction',(-1.31708724645E-016,0.,1.)) ;
#60=DIRECTION('Vector Direction',(0.707106781186,0.,0.707106781187)) ;
#80=DIRECTION('Axis2P3D Direction',(1.22464679915E-016,0.,-1.)) ;
#81=DIRECTION('Axis2P3D XDirection',(-1.,0.,-1.22464679915E-016)) ;
#85=DIRECTION('Axis2P3D Direction',(1.22464679915E-016,0.,-1.)) ;
#94=DIRECTION('Axis2P3D Direction',(1.22464679915E-016,0.,-1.)) ;
#103=DIRECTION('Axis2P3D Direction',(1.22464679915E-016,0.,-1.)) ;
#114=DIRECTION('Axis2P3D Direction',(-1.22464679915E-016,0.,1.)) ;
#115=DIRECTION('Axis2P3D XDirection',(-1.,1.22464786312E-016,-1.31708724646E-016)) ;
#119=DIRECTION('Axis2P3D Direction',(-1.31708724645E-016,1.13206996252E-033,1.)) ;
#132=DIRECTION('Axis2P3D Direction',(1.22464679915E-016,0.,-1.)) ;
#133=DIRECTION('Axis2P3D XDirection',(-1.,0.,-1.22464679915E-016)) ;
#137=DIRECTION('Axis2P3D Direction',(1.22464679915E-016,0.,-1.)) ;
#146=DIRECTION('Vector Direction',(1.22464882679E-016,0.,-1.)) ;
#151=DIRECTION('Vector Direction',(1.22464705044E-016,0.,-1.)) ;
#164=DIRECTION('Axis2P3D Direction',(1.22464679915E-016,0.,-1.)) ;
#165=DIRECTION('Axis2P3D XDirection',(-1.,0.,-1.22464679915E-016)) ;
#169=DIRECTION('Vector Direction',(1.22464882679E-016,0.,-1.)) ;
#176=DIRECTION('Axis2P3D Direction',(1.22464679915E-016,0.,-1.)) ;
#183=DIRECTION('Vector Direction',(1.22464705044E-016,0.,-1.)) ;
#196=DIRECTION('Axis2P3D Direction',(1.22464679915E-016,0.,-1.)) ;
#197=DIRECTION('Axis2P3D XDirection',(1.,1.22464679915E-016,1.22464679915E-016)) ;
#201=DIRECTION('Axis2P3D Direction',(1.22464679915E-016,0.,-1.)) ;
#214=DIRECTION('Axis2P3D Direction',(1.22464679915E-016,0.,-1.)) ;
#215=DIRECTION('Axis2P3D XDirection',(1.,1.22464679915E-016,1.22464679915E-016)) ;
#219=DIRECTION('Axis2P3D Direction',(1.22464679915E-016,0.,-1.)) ;
#232=DIRECTION('Axis2P3D Direction',(1.22464679915E-016,0.,-1.)) ;
#233=DIRECTION('Axis2P3D XDirection',(-1.,0.,-1.22464679915E-016)) ;
#237=DIRECTION('Axis2P3D Direction',(1.22464679915E-016,0.,-1.)) ;
#246=DIRECTION('Axis2P3D Direction',(1.22464679915E-016,0.,-1.)) ;
#261=DIRECTION('Axis2P3D Direction',(1.22464679915E-016,0.,-1.)) ;
#262=DIRECTION('Axis2P3D XDirection',(-1.,0.,-1.22464679915E-016)) ;
#272=DIRECTION('Axis2P3D Direction',(-1.22464679915E-016,0.,1.)) ;
#273=DIRECTION('Axis2P3D XDirection',(-1.,1.22464679915E-016,-1.22464679915E-016)) ;
#277=DIRECTION('Vector Direction',(-1.22464705044E-016,0.,1.)) ;
#284=DIRECTION('Vector Direction',(-1.22464882679E-016,0.,1.)) ;
#291=DIRECTION('Axis2P3D Direction',(-1.22464679915E-016,0.,1.)) ;
#304=DIRECTION('Axis2P3D Direction',(-1.22464679915E-016,0.,1.)) ;
#305=DIRECTION('Axis2P3D XDirection',(1.,0.,1.22464679915E-016)) ;
#309=DIRECTION('Axis2P3D Direction',(-1.22464679915E-016,0.,1.)) ;
#322=DIRECTION('Axis2P3D Direction',(-1.22464679915E-016,-0.,1.)) ;
#323=DIRECTION('Axis2P3D XDirection',(-1.,5.3082072074E-016,-1.22464679915E-016)) ;
#327=DIRECTION('Axis2P3D Direction',(5.3082072074E-016,1.,6.50067896577E-032)) ;
#334=DIRECTION('Axis2P3D Direction',(-6.53285400655E-016,-1.,-8.00043874843E-032)) ;
#341=DIRECTION('Axis2P3D Direction',(-1.22464679915E-016,0.,1.)) ;
#354=DIRECTION('Axis2P3D Direction',(-1.22464679915E-016,-0.,1.)) ;
#355=DIRECTION('Axis2P3D XDirection',(1.,0.,1.22464679915E-016)) ;
#359=DIRECTION('Axis2P3D Direction',(-1.22464679915E-016,-0.,1.)) ;
#372=DIRECTION('Axis2P3D Direction',(1.22464679915E-016,0.,-1.)) ;
#373=DIRECTION('Axis2P3D XDirection',(-1.,0.,-1.22464679915E-016)) ;
#381=DIRECTION('Vector Direction',(0.,-1.,0.)) ;
#418=DIRECTION('Vector Direction',(0.,1.,0.)) ;
#459=DIRECTION('Axis2P3D Direction',(-1.,-1.30104260698E-016,-1.22464679915E-016)) ;
#460=DIRECTION('Axis2P3D XDirection',(-1.30104260698E-016,1.,-1.5933176642E-032)) ;
#464=DIRECTION('Vector Direction',(0.,0.,1.)) ;
#471=DIRECTION('Vector Direction',(1.7763568394E-016,-1.,0.)) ;
#478=DIRECTION('Vector Direction',(0.,0.,1.)) ;
#491=DIRECTION('Axis2P3D Direction',(-1.22464679915E-016,0.,1.)) ;
#492=DIRECTION('Axis2P3D XDirection',(1.,0.,1.22464679915E-016)) ;
#496=DIRECTION('Axis2P3D Direction',(-1.22464679915E-016,0.,1.)) ;
#503=DIRECTION('Vector Direction',(-1.22464705044E-016,0.,1.)) ;
#516=DIRECTION('Axis2P3D Direction',(1.,1.30104260698E-016,1.22464679915E-016)) ;
#517=DIRECTION('Axis2P3D XDirection',(1.30104260698E-016,-1.,1.5933176642E-032)) ;
#521=DIRECTION('Vector Direction',(-1.7763568394E-016,1.,0.)) ;
#528=DIRECTION('Vector Direction',(0.,0.,1.)) ;
#541=DIRECTION('Axis2P3D Direction',(-1.22464679915E-016,0.,1.)) ;
#542=DIRECTION('Axis2P3D XDirection',(-1.,1.22464679915E-016,-1.22464679915E-016)) ;
#546=DIRECTION('Axis2P3D Direction',(-1.22464679915E-016,0.,1.)) ;
#559=DIRECTION('Axis2P3D Direction',(-1.22464679915E-016,0.,1.)) ;
#560=DIRECTION('Axis2P3D XDirection',(1.,0.,1.22464679915E-016)) ;
#8=PRODUCT_RELATED_PRODUCT_CATEGORY('part',$,(#5)) ;
#7=PRODUCT_CATEGORY('part','specification') ;
#29=STYLED_ITEM(' ',(#28),#21) ;
#28=PRESENTATION_STYLE_ASSIGNMENT((#27)) ;
#77=PRESENTATION_STYLE_ASSIGNMENT((#76)) ;
#27=SURFACE_STYLE_USAGE(.BOTH.,#26) ;
#76=SURFACE_STYLE_USAGE(.BOTH.,#75) ;
#26=SURFACE_SIDE_STYLE(' ',(#25)) ;
#75=SURFACE_SIDE_STYLE(' ',(#74)) ;
#25=SURFACE_STYLE_FILL_AREA(#24) ;
#74=SURFACE_STYLE_FILL_AREA(#73) ;
#24=FILL_AREA_STYLE(' ',(#23)) ;
#73=FILL_AREA_STYLE(' ',(#72)) ;
#23=FILL_AREA_STYLE_COLOUR(' ',#22) ;
#72=FILL_AREA_STYLE_COLOUR(' ',#71) ;
#47=VECTOR('Line Direction',#46,1.) ;
#61=VECTOR('Line Direction',#60,1.) ;
#147=VECTOR('Line Direction',#146,1.) ;
#152=VECTOR('Line Direction',#151,1.) ;
#170=VECTOR('Line Direction',#169,1.) ;
#184=VECTOR('Line Direction',#183,1.) ;
#278=VECTOR('Line Direction',#277,1.) ;
#285=VECTOR('Line Direction',#284,1.) ;
#382=VECTOR('Line Direction',#381,1.) ;
#419=VECTOR('Line Direction',#418,1.) ;
#465=VECTOR('Line Direction',#464,1.) ;
#472=VECTOR('Line Direction',#471,1.) ;
#479=VECTOR('Line Direction',#478,1.) ;
#504=VECTOR('Line Direction',#503,1.) ;
#522=VECTOR('Line Direction',#521,1.) ;
#529=VECTOR('Line Direction',#528,1.) ;
#15=UNCERTAINTY_MEASURE_WITH_UNIT(LENGTH_MEASURE(0.005),#12,'distance_accuracy_value','CONFUSED CURVE UNCERTAINTY') ;
#572=SHAPE_REPRESENTATION_RELATIONSHIP(' ',' ',#19,#571) ;
#65=ORIENTED_EDGE('',*,*,#44,.F.) ;
#66=ORIENTED_EDGE('',*,*,#51,.T.) ;
#67=ORIENTED_EDGE('',*,*,#58,.F.) ;
#68=ORIENTED_EDGE('',*,*,#63,.F.) ;
#90=ORIENTED_EDGE('',*,*,#88,.T.) ;
#91=ORIENTED_EDGE('',*,*,#44,.T.) ;
#108=ORIENTED_EDGE('',*,*,#101,.F.) ;
#109=ORIENTED_EDGE('',*,*,#106,.F.) ;
#124=ORIENTED_EDGE('',*,*,#51,.F.) ;
#125=ORIENTED_EDGE('',*,*,#88,.F.) ;
#126=ORIENTED_EDGE('',*,*,#63,.T.) ;
#127=ORIENTED_EDGE('',*,*,#122,.F.) ;
#156=ORIENTED_EDGE('',*,*,#144,.T.) ;
#157=ORIENTED_EDGE('',*,*,#149,.T.) ;
#158=ORIENTED_EDGE('',*,*,#58,.T.) ;
#159=ORIENTED_EDGE('',*,*,#154,.F.) ;
#188=ORIENTED_EDGE('',*,*,#174,.F.) ;
#189=ORIENTED_EDGE('',*,*,#181,.F.) ;
#190=ORIENTED_EDGE('',*,*,#186,.T.) ;
#191=ORIENTED_EDGE('',*,*,#101,.T.) ;
#206=ORIENTED_EDGE('',*,*,#204,.F.) ;
#207=ORIENTED_EDGE('',*,*,#174,.T.) ;
#208=ORIENTED_EDGE('',*,*,#106,.T.) ;
#209=ORIENTED_EDGE('',*,*,#186,.F.) ;
#224=ORIENTED_EDGE('',*,*,#149,.F.) ;
#225=ORIENTED_EDGE('',*,*,#222,.T.) ;
#226=ORIENTED_EDGE('',*,*,#154,.T.) ;
#227=ORIENTED_EDGE('',*,*,#122,.T.) ;
#251=ORIENTED_EDGE('',*,*,#244,.T.) ;
#252=ORIENTED_EDGE('',*,*,#249,.T.) ;
#255=ORIENTED_EDGE('',*,*,#144,.F.) ;
#256=ORIENTED_EDGE('',*,*,#222,.F.) ;
#266=ORIENTED_EDGE('',*,*,#181,.T.) ;
#267=ORIENTED_EDGE('',*,*,#204,.T.) ;
#296=ORIENTED_EDGE('',*,*,#282,.F.) ;
#297=ORIENTED_EDGE('',*,*,#244,.F.) ;
#298=ORIENTED_EDGE('',*,*,#289,.T.) ;
#299=ORIENTED_EDGE('',*,*,#294,.F.) ;
#314=ORIENTED_EDGE('',*,*,#249,.F.) ;
#315=ORIENTED_EDGE('',*,*,#282,.T.) ;
#316=ORIENTED_EDGE('',*,*,#312,.F.) ;
#317=ORIENTED_EDGE('',*,*,#289,.F.) ;
#346=ORIENTED_EDGE('',*,*,#332,.F.) ;
#347=ORIENTED_EDGE('',*,*,#294,.T.) ;
#348=ORIENTED_EDGE('',*,*,#339,.T.) ;
#349=ORIENTED_EDGE('',*,*,#344,.F.) ;
#364=ORIENTED_EDGE('',*,*,#312,.T.) ;
#365=ORIENTED_EDGE('',*,*,#332,.T.) ;
#366=ORIENTED_EDGE('',*,*,#362,.F.) ;
#367=ORIENTED_EDGE('',*,*,#339,.F.) ;
#377=ORIENTED_EDGE('',*,*,#362,.T.) ;
#378=ORIENTED_EDGE('',*,*,#344,.T.) ;
#451=ORIENTED_EDGE('',*,*,#388,.F.) ;
#452=ORIENTED_EDGE('',*,*,#416,.F.) ;
#453=ORIENTED_EDGE('',*,*,#423,.F.) ;
#454=ORIENTED_EDGE('',*,*,#449,.F.) ;
#483=ORIENTED_EDGE('',*,*,#388,.T.) ;
#484=ORIENTED_EDGE('',*,*,#469,.F.) ;
#485=ORIENTED_EDGE('',*,*,#476,.F.) ;
#486=ORIENTED_EDGE('',*,*,#481,.T.) ;
#508=ORIENTED_EDGE('',*,*,#416,.T.) ;
#509=ORIENTED_EDGE('',*,*,#481,.F.) ;
#510=ORIENTED_EDGE('',*,*,#501,.F.) ;
#511=ORIENTED_EDGE('',*,*,#506,.T.) ;
#533=ORIENTED_EDGE('',*,*,#423,.T.) ;
#534=ORIENTED_EDGE('',*,*,#506,.F.) ;
#535=ORIENTED_EDGE('',*,*,#526,.F.) ;
#536=ORIENTED_EDGE('',*,*,#531,.T.) ;
#551=ORIENTED_EDGE('',*,*,#449,.T.) ;
#552=ORIENTED_EDGE('',*,*,#531,.F.) ;
#553=ORIENTED_EDGE('',*,*,#549,.F.) ;
#554=ORIENTED_EDGE('',*,*,#469,.T.) ;
#564=ORIENTED_EDGE('',*,*,#501,.T.) ;
#565=ORIENTED_EDGE('',*,*,#476,.T.) ;
#566=ORIENTED_EDGE('',*,*,#549,.T.) ;
#567=ORIENTED_EDGE('',*,*,#526,.T.) ;
#110=FACE_BOUND('',#107,.T.) ;
#257=FACE_BOUND('',#254,.T.) ;
#455=FACE_BOUND('',#450,.T.) ;
#30=CLOSED_SHELL('Closed Shell',(#70,#111,#129,#161,#193,#211,#229,#258,#269,#301,#319,#351,#369,#456,#488,#513,#538,#556,#569)) ;
#571=ADVANCED_BREP_SHAPE_REPRESENTATION('NONE',(#21),#16) ;
#70=ADVANCED_FACE('Fase1',(#69),#35,.T.) ;
#111=ADVANCED_FACE('Fase1',(#92,#110),#83,.T.) ;
#129=ADVANCED_FACE('Fase1',(#128),#117,.T.) ;
#161=ADVANCED_FACE('Fase1',(#160),#135,.T.) ;
#193=ADVANCED_FACE('Fase1',(#192),#167,.F.) ;
#211=ADVANCED_FACE('Fase1',(#210),#199,.F.) ;
#229=ADVANCED_FACE('Fase1',(#228),#217,.T.) ;
#258=ADVANCED_FACE('Fase1',(#253,#257),#235,.T.) ;
#269=ADVANCED_FACE('Fase1',(#268),#264,.T.) ;
#301=ADVANCED_FACE('Fase1',(#300),#275,.T.) ;
#319=ADVANCED_FACE('Fase1',(#318),#307,.T.) ;
#351=ADVANCED_FACE('Fase1',(#350),#325,.T.) ;
#369=ADVANCED_FACE('Fase1',(#368),#357,.T.) ;
#456=ADVANCED_FACE('Fase1',(#379,#455),#375,.F.) ;
#488=ADVANCED_FACE('Fase1',(#487),#462,.F.) ;
#513=ADVANCED_FACE('Fase1',(#512),#494,.F.) ;
#538=ADVANCED_FACE('Fase1',(#537),#519,.F.) ;
#556=ADVANCED_FACE('Fase1',(#555),#544,.F.) ;
#569=ADVANCED_FACE('Fase1',(#568),#562,.T.) ;
#4=APPLICATION_PROTOCOL_DEFINITION('international standard','automotive_design',2001,#1) ;
#389=B_SPLINE_CURVE_WITH_KNOTS('',5,(#390,#391,#392,#393,#394,#395,#396,#397,#398,#399,#400,#401,#402,#403,#404,#405,#406,#407,#408,#409,#410,#411,#412,#413),.UNSPECIFIED.,.F.,.U.,(6,3,3,3,3,3,3,6),(0.,0.694474160312,1.38894832718,2.08342249871,2.77789665876,3.47237082282,4.1668463533,4.45308832005),.UNSPECIFIED.) ;
#424=B_SPLINE_CURVE_WITH_KNOTS('',5,(#425,#426,#427,#428,#429,#430,#431,#432,#433,#434,#435,#436,#437,#438,#439,#440,#441,#442,#443,#444,#445,#446,#447,#448),.UNSPECIFIED.,.F.,.U.,(6,3,3,3,3,3,3,6),(0.,0.694474159971,1.38894832721,2.08342249961,2.7778966595,3.47237082395,4.16684635472,4.45308832175),.UNSPECIFIED.) ;
#21=MANIFOLD_SOLID_BREP('Fase1',#30) ;
#39=CIRCLE('generated circle',#38,9.5) ;
#55=CIRCLE('generated circle',#54,10.) ;
#87=CIRCLE('generated circle',#86,9.5) ;
#96=CIRCLE('generated circle',#95,8.) ;
#105=CIRCLE('generated circle',#104,8.) ;
#121=CIRCLE('generated circle',#120,10.) ;
#139=CIRCLE('generated circle',#138,10.) ;
#178=CIRCLE('generated circle',#177,8.) ;
#203=CIRCLE('generated circle',#202,8.) ;
#221=CIRCLE('generated circle',#220,10.) ;
#239=CIRCLE('generated circle',#238,12.) ;
#248=CIRCLE('generated circle',#247,12.) ;
#293=CIRCLE('generated circle',#292,12.) ;
#311=CIRCLE('generated circle',#310,12.) ;
#329=CIRCLE('generated circle',#328,10.) ;
#336=CIRCLE('generated circle',#335,10.) ;
#343=CIRCLE('generated circle',#342,6.73217312357) ;
#361=CIRCLE('generated circle',#360,6.73217312357) ;
#498=CIRCLE('generated circle',#497,1.) ;
#548=CIRCLE('generated circle',#547,1.) ;
#22=COLOUR_RGB('Colour',0.823529411765,0.823529411765,1.) ;
#71=COLOUR_RGB('Colour',0.823529411765,0.843137254902,0.862745098039) ;
#35=CONICAL_SURFACE('Cone',#34,9.5,0.785398163397) ;
#117=CONICAL_SURFACE('Cone',#116,9.5,0.785398163397) ;
#78=OVER_RIDING_STYLED_ITEM(' ',(#77),#70,#29) ;
#112=OVER_RIDING_STYLED_ITEM(' ',(#77),#111,#29) ;
#130=OVER_RIDING_STYLED_ITEM(' ',(#77),#129,#29) ;
#162=OVER_RIDING_STYLED_ITEM(' ',(#77),#161,#29) ;
#194=OVER_RIDING_STYLED_ITEM(' ',(#77),#193,#29) ;
#212=OVER_RIDING_STYLED_ITEM(' ',(#77),#211,#29) ;
#230=OVER_RIDING_STYLED_ITEM(' ',(#77),#229,#29) ;
#259=OVER_RIDING_STYLED_ITEM(' ',(#77),#258,#29) ;
#270=OVER_RIDING_STYLED_ITEM(' ',(#77),#269,#29) ;
#302=OVER_RIDING_STYLED_ITEM(' ',(#77),#301,#29) ;
#320=OVER_RIDING_STYLED_ITEM(' ',(#77),#319,#29) ;
#352=OVER_RIDING_STYLED_ITEM(' ',(#77),#351,#29) ;
#370=OVER_RIDING_STYLED_ITEM(' ',(#77),#369,#29) ;
#457=OVER_RIDING_STYLED_ITEM(' ',(#77),#456,#29) ;
#489=OVER_RIDING_STYLED_ITEM(' ',(#77),#488,#29) ;
#514=OVER_RIDING_STYLED_ITEM(' ',(#77),#513,#29) ;
#539=OVER_RIDING_STYLED_ITEM(' ',(#77),#538,#29) ;
#557=OVER_RIDING_STYLED_ITEM(' ',(#77),#556,#29) ;
#570=OVER_RIDING_STYLED_ITEM(' ',(#77),#569,#29) ;
#135=CYLINDRICAL_SURFACE('generated cylinder',#134,10.) ;
#167=CYLINDRICAL_SURFACE('generated cylinder',#166,8.) ;
#199=CYLINDRICAL_SURFACE('generated cylinder',#198,8.) ;
#217=CYLINDRICAL_SURFACE('generated cylinder',#216,10.) ;
#275=CYLINDRICAL_SURFACE('generated cylinder',#274,12.) ;
#307=CYLINDRICAL_SURFACE('generated cylinder',#306,12.) ;
#494=CYLINDRICAL_SURFACE('generated cylinder',#493,1.) ;
#544=CYLINDRICAL_SURFACE('generated cylinder',#543,1.) ;
#325=DEGENERATE_TOROIDAL_SURFACE('homeo Torus',#324,6.73217312357,10.,.T.) ;
#357=DEGENERATE_TOROIDAL_SURFACE('homeo Torus',#356,6.73217312357,10.,.T.) ;
#44=EDGE_CURVE('',#41,#43,#39,.F.) ;
#51=EDGE_CURVE('',#41,#50,#48,.T.) ;
#58=EDGE_CURVE('',#57,#50,#55,.T.) ;
#63=EDGE_CURVE('',#43,#57,#62,.T.) ;
#88=EDGE_CURVE('',#43,#41,#87,.T.) ;
#101=EDGE_CURVE('',#98,#100,#96,.T.) ;
#106=EDGE_CURVE('',#100,#98,#105,.T.) ;
#122=EDGE_CURVE('',#50,#57,#121,.T.) ;
#144=EDGE_CURVE('',#141,#143,#139,.T.) ;
#149=EDGE_CURVE('',#143,#57,#148,.T.) ;
#154=EDGE_CURVE('',#141,#50,#153,.T.) ;
#174=EDGE_CURVE('',#173,#100,#171,.T.) ;
#181=EDGE_CURVE('',#180,#173,#178,.T.) ;
#186=EDGE_CURVE('',#180,#98,#185,.T.) ;
#204=EDGE_CURVE('',#173,#180,#203,.T.) ;
#222=EDGE_CURVE('',#143,#141,#221,.T.) ;
#244=EDGE_CURVE('',#241,#243,#239,.T.) ;
#249=EDGE_CURVE('',#243,#241,#248,.T.) ;
#282=EDGE_CURVE('',#243,#281,#279,.T.) ;
#289=EDGE_CURVE('',#241,#288,#286,.T.) ;
#294=EDGE_CURVE('',#281,#288,#293,.T.) ;
#312=EDGE_CURVE('',#288,#281,#311,.T.) ;
#332=EDGE_CURVE('',#281,#331,#329,.T.) ;
#339=EDGE_CURVE('',#288,#338,#336,.T.) ;
#344=EDGE_CURVE('',#331,#338,#343,.T.) ;
#362=EDGE_CURVE('',#338,#331,#361,.T.) ;
#388=EDGE_CURVE('',#385,#387,#383,.T.) ;
#416=EDGE_CURVE('',#415,#385,#389,.T.) ;
#423=EDGE_CURVE('',#422,#415,#420,.T.) ;
#449=EDGE_CURVE('',#387,#422,#424,.T.) ;
#469=EDGE_CURVE('',#468,#387,#466,.T.) ;
#476=EDGE_CURVE('',#475,#468,#473,.T.) ;
#481=EDGE_CURVE('',#475,#385,#480,.T.) ;
#501=EDGE_CURVE('',#500,#475,#498,.T.) ;
#506=EDGE_CURVE('',#500,#415,#505,.T.) ;
#526=EDGE_CURVE('',#525,#500,#523,.T.) ;
#531=EDGE_CURVE('',#525,#422,#530,.T.) ;
#549=EDGE_CURVE('',#468,#525,#548,.T.) ;
#64=EDGE_LOOP('',(#65,#66,#67,#68)) ;
#89=EDGE_LOOP('',(#90,#91)) ;
#107=EDGE_LOOP('',(#108,#109)) ;
#123=EDGE_LOOP('',(#124,#125,#126,#127)) ;
#155=EDGE_LOOP('',(#156,#157,#158,#159)) ;
#187=EDGE_LOOP('',(#188,#189,#190,#191)) ;
#205=EDGE_LOOP('',(#206,#207,#208,#209)) ;
#223=EDGE_LOOP('',(#224,#225,#226,#227)) ;
#250=EDGE_LOOP('',(#251,#252)) ;
#254=EDGE_LOOP('',(#255,#256)) ;
#265=EDGE_LOOP('',(#266,#267)) ;
#295=EDGE_LOOP('',(#296,#297,#298,#299)) ;
#313=EDGE_LOOP('',(#314,#315,#316,#317)) ;
#345=EDGE_LOOP('',(#346,#347,#348,#349)) ;
#363=EDGE_LOOP('',(#364,#365,#366,#367)) ;
#376=EDGE_LOOP('',(#377,#378)) ;
#450=EDGE_LOOP('',(#451,#452,#453,#454)) ;
#482=EDGE_LOOP('',(#483,#484,#485,#486)) ;
#507=EDGE_LOOP('',(#508,#509,#510,#511)) ;
#532=EDGE_LOOP('',(#533,#534,#535,#536)) ;
#550=EDGE_LOOP('',(#551,#552,#553,#554)) ;
#563=EDGE_LOOP('',(#564,#565,#566,#567)) ;
#69=FACE_OUTER_BOUND('',#64,.T.) ;
#92=FACE_OUTER_BOUND('',#89,.T.) ;
#128=FACE_OUTER_BOUND('',#123,.T.) ;
#160=FACE_OUTER_BOUND('',#155,.T.) ;
#192=FACE_OUTER_BOUND('',#187,.T.) ;
#210=FACE_OUTER_BOUND('',#205,.T.) ;
#228=FACE_OUTER_BOUND('',#223,.T.) ;
#253=FACE_OUTER_BOUND('',#250,.T.) ;
#268=FACE_OUTER_BOUND('',#265,.T.) ;
#300=FACE_OUTER_BOUND('',#295,.T.) ;
#318=FACE_OUTER_BOUND('',#313,.T.) ;
#350=FACE_OUTER_BOUND('',#345,.T.) ;
#368=FACE_OUTER_BOUND('',#363,.T.) ;
#379=FACE_OUTER_BOUND('',#376,.T.) ;
#487=FACE_OUTER_BOUND('',#482,.T.) ;
#512=FACE_OUTER_BOUND('',#507,.T.) ;
#537=FACE_OUTER_BOUND('',#532,.T.) ;
#555=FACE_OUTER_BOUND('',#550,.T.) ;
#568=FACE_OUTER_BOUND('',#563,.T.) ;
#48=LINE('Line',#45,#47) ;
#62=LINE('Line',#59,#61) ;
#148=LINE('Line',#145,#147) ;
#153=LINE('Line',#150,#152) ;
#171=LINE('Line',#168,#170) ;
#185=LINE('Line',#182,#184) ;
#279=LINE('Line',#276,#278) ;
#286=LINE('Line',#283,#285) ;
#383=LINE('Line',#380,#382) ;
#420=LINE('Line',#417,#419) ;
#466=LINE('Line',#463,#465) ;
#473=LINE('Line',#470,#472) ;
#480=LINE('Line',#477,#479) ;
#505=LINE('Line',#502,#504) ;
#523=LINE('Line',#520,#522) ;
#530=LINE('Line',#527,#529) ;
#83=PLANE('',#82) ;
#235=PLANE('',#234) ;
#264=PLANE('',#263) ;
#375=PLANE('',#374) ;
#462=PLANE('',#461) ;
#519=PLANE('',#518) ;
#562=PLANE('',#561) ;
#9=PRODUCT_CATEGORY_RELATIONSHIP(' ',' ',#7,#8) ;
#6=PRODUCT_DEFINITION_FORMATION_WITH_SPECIFIED_SOURCE('',' ',#5,.NOT_KNOWN.) ;
#20=SHAPE_DEFINITION_REPRESENTATION(#11,#19) ;
#41=VERTEX_POINT('',#40) ;
#43=VERTEX_POINT('',#42) ;
#50=VERTEX_POINT('',#49) ;
#57=VERTEX_POINT('',#56) ;
#98=VERTEX_POINT('',#97) ;
#100=VERTEX_POINT('',#99) ;
#141=VERTEX_POINT('',#140) ;
#143=VERTEX_POINT('',#142) ;
#173=VERTEX_POINT('',#172) ;
#180=VERTEX_POINT('',#179) ;
#241=VERTEX_POINT('',#240) ;
#243=VERTEX_POINT('',#242) ;
#281=VERTEX_POINT('',#280) ;
#288=VERTEX_POINT('',#287) ;
#331=VERTEX_POINT('',#330) ;
#338=VERTEX_POINT('',#337) ;
#385=VERTEX_POINT('',#384) ;
#387=VERTEX_POINT('',#386) ;
#415=VERTEX_POINT('',#414) ;
#422=VERTEX_POINT('',#421) ;
#468=VERTEX_POINT('',#467) ;
#475=VERTEX_POINT('',#474) ;
#500=VERTEX_POINT('',#499) ;
#525=VERTEX_POINT('',#524) ;
#12=(LENGTH_UNIT()NAMED_UNIT(*)SI_UNIT(.MILLI.,.METRE.)) ;
#13=(NAMED_UNIT(*)PLANE_ANGLE_UNIT()SI_UNIT($,.RADIAN.)) ;
#14=(NAMED_UNIT(*)SI_UNIT($,.STERADIAN.)SOLID_ANGLE_UNIT()) ;
#16=(GEOMETRIC_REPRESENTATION_CONTEXT(3)GLOBAL_UNCERTAINTY_ASSIGNED_CONTEXT((#15))GLOBAL_UNIT_ASSIGNED_CONTEXT((#12,#13,#14))REPRESENTATION_CONTEXT(' ',' ')) ;
ENDSEC;
END-ISO-10303-21;
