ISO-10303-21;
HEADER;
FILE_DESCRIPTION(('CATIA V5 STEP Exchange','CAx-IF Rec.Pracs.--- Model Styling and Organization---1.4--- 2014-01-23'),'2;1');

FILE_NAME ('736132-1_0', '2024-02-23T07:33:49+00:00', ('none'), ('Weidmueller'), 'CATIA Version 5-6 Release 2016 SP3 HF44', 'CATIA V5 STEP AP214', 'none');

FILE_SCHEMA(('AUTOMOTIVE_DESIGN { 1 0 10303 214 1 1 1 1 }'));

ENDSEC;
DATA;
#5=PRODUCT('2659030000','','',(#2)) ;
#2=PRODUCT_CONTEXT(' ',#1,'mechanical') ;
#1=APPLICATION_CONTEXT('automotive design') ;
#10=PRODUCT_DEFINITION('',' ',#6,#3) ;
#3=PRODUCT_DEFINITION_CONTEXT('part definition',#1,' ') ;
#11=PRODUCT_DEFINITION_SHAPE(' ',' ',#10) ;
#470=MECHANICAL_DESIGN_GEOMETRIC_PRESENTATION_REPRESENTATION(' ',(#29),#16) ;
#19=SHAPE_REPRESENTATION(' ',(#18),#16) ;
#18=AXIS2_PLACEMENT_3D(' ',#17,$,$) ;
#35=AXIS2_PLACEMENT_3D('Plane Axis2P3D',#32,#33,#34) ;
#75=AXIS2_PLACEMENT_3D('Cylinder Axis2P3D',#72,#73,#74) ;
#79=AXIS2_PLACEMENT_3D('Circle Axis2P3D',#77,#78,$) ;
#93=AXIS2_PLACEMENT_3D('Circle Axis2P3D',#91,#92,$) ;
#106=AXIS2_PLACEMENT_3D('Cylinder Axis2P3D',#103,#104,#105) ;
#119=AXIS2_PLACEMENT_3D('Circle Axis2P3D',#117,#118,$) ;
#124=AXIS2_PLACEMENT_3D('Circle Axis2P3D',#122,#123,$) ;
#137=AXIS2_PLACEMENT_3D('Sphere Axis2P3D',#134,#135,#136) ;
#141=AXIS2_PLACEMENT_3D('Circle Axis2P3D',#139,#140,$) ;
#153=AXIS2_PLACEMENT_3D('Plane Axis2P3D',#150,#151,#152) ;
#184=AXIS2_PLACEMENT_3D('Cylinder Axis2P3D',#181,#182,#183) ;
#195=AXIS2_PLACEMENT_3D('Circle Axis2P3D',#193,#194,$) ;
#208=AXIS2_PLACEMENT_3D('Cylinder Axis2P3D',#205,#206,#207) ;
#221=AXIS2_PLACEMENT_3D('Circle Axis2P3D',#219,#220,$) ;
#226=AXIS2_PLACEMENT_3D('Circle Axis2P3D',#224,#225,$) ;
#239=AXIS2_PLACEMENT_3D('Sphere Axis2P3D',#236,#237,#238) ;
#243=AXIS2_PLACEMENT_3D('Circle Axis2P3D',#241,#242,$) ;
#255=AXIS2_PLACEMENT_3D('Plane Axis2P3D',#252,#253,#254) ;
#286=AXIS2_PLACEMENT_3D('Cylinder Axis2P3D',#283,#284,#285) ;
#297=AXIS2_PLACEMENT_3D('Circle Axis2P3D',#295,#296,$) ;
#310=AXIS2_PLACEMENT_3D('Cylinder Axis2P3D',#307,#308,#309) ;
#323=AXIS2_PLACEMENT_3D('Circle Axis2P3D',#321,#322,$) ;
#328=AXIS2_PLACEMENT_3D('Circle Axis2P3D',#326,#327,$) ;
#341=AXIS2_PLACEMENT_3D('Sphere Axis2P3D',#338,#339,#340) ;
#345=AXIS2_PLACEMENT_3D('Circle Axis2P3D',#343,#344,$) ;
#357=AXIS2_PLACEMENT_3D('Plane Axis2P3D',#354,#355,#356) ;
#388=AXIS2_PLACEMENT_3D('Cylinder Axis2P3D',#385,#386,#387) ;
#397=AXIS2_PLACEMENT_3D('Circle Axis2P3D',#395,#396,$) ;
#410=AXIS2_PLACEMENT_3D('Cylinder Axis2P3D',#407,#408,#409) ;
#414=AXIS2_PLACEMENT_3D('Circle Axis2P3D',#412,#413,$) ;
#419=AXIS2_PLACEMENT_3D('Circle Axis2P3D',#417,#418,$) ;
#432=AXIS2_PLACEMENT_3D('Sphere Axis2P3D',#429,#430,#431) ;
#443=AXIS2_PLACEMENT_3D('Plane Axis2P3D',#440,#441,#442) ;
#455=AXIS2_PLACEMENT_3D('Plane Axis2P3D',#452,#453,#454) ;
#17=CARTESIAN_POINT(' ',(0.,0.,0.)) ;
#32=CARTESIAN_POINT('Axis2P3D Location',(0.,1.,0.)) ;
#37=CARTESIAN_POINT('Line Origine',(1.5,20.,0.)) ;
#41=CARTESIAN_POINT('Vertex',(1.,20.,0.)) ;
#43=CARTESIAN_POINT('Vertex',(2.,20.,0.)) ;
#46=CARTESIAN_POINT('Line Origine',(2.,10.5,0.)) ;
#50=CARTESIAN_POINT('Vertex',(2.,1.,0.)) ;
#53=CARTESIAN_POINT('Line Origine',(1.5,1.,0.)) ;
#57=CARTESIAN_POINT('Vertex',(1.,1.,0.)) ;
#60=CARTESIAN_POINT('Line Origine',(1.,10.5,0.)) ;
#72=CARTESIAN_POINT('Axis2P3D Location',(1.,10.5,1.)) ;
#77=CARTESIAN_POINT('Axis2P3D Location',(1.,1.,1.)) ;
#81=CARTESIAN_POINT('Vertex',(0.,1.,1.)) ;
#84=CARTESIAN_POINT('Line Origine',(0.,10.5,1.)) ;
#88=CARTESIAN_POINT('Vertex',(0.,20.,1.)) ;
#91=CARTESIAN_POINT('Axis2P3D Location',(1.,20.,1.)) ;
#103=CARTESIAN_POINT('Axis2P3D Location',(1.,20.,1.)) ;
#108=CARTESIAN_POINT('Line Origine',(1.,21.,1.)) ;
#112=CARTESIAN_POINT('Vertex',(1.,21.,1.)) ;
#114=CARTESIAN_POINT('Vertex',(2.,21.,1.)) ;
#117=CARTESIAN_POINT('Axis2P3D Location',(2.,20.,1.)) ;
#122=CARTESIAN_POINT('Axis2P3D Location',(1.,20.,1.)) ;
#134=CARTESIAN_POINT('Axis2P3D Location',(1.,20.,1.)) ;
#139=CARTESIAN_POINT('Axis2P3D Location',(1.,20.,1.)) ;
#150=CARTESIAN_POINT('Axis2P3D Location',(0.,21.,1.)) ;
#155=CARTESIAN_POINT('Line Origine',(1.5,21.,15.8)) ;
#159=CARTESIAN_POINT('Vertex',(1.,21.,15.8)) ;
#161=CARTESIAN_POINT('Vertex',(2.,21.,15.8)) ;
#164=CARTESIAN_POINT('Line Origine',(2.,21.,8.4)) ;
#169=CARTESIAN_POINT('Line Origine',(1.,21.,8.4)) ;
#181=CARTESIAN_POINT('Axis2P3D Location',(1.,20.,8.4)) ;
#186=CARTESIAN_POINT('Line Origine',(0.,20.,8.4)) ;
#190=CARTESIAN_POINT('Vertex',(0.,20.,15.8)) ;
#193=CARTESIAN_POINT('Axis2P3D Location',(1.,20.,15.8)) ;
#205=CARTESIAN_POINT('Axis2P3D Location',(1.,20.,15.8)) ;
#210=CARTESIAN_POINT('Line Origine',(1.,20.,16.8)) ;
#214=CARTESIAN_POINT('Vertex',(1.,20.,16.8)) ;
#216=CARTESIAN_POINT('Vertex',(2.,20.,16.8)) ;
#219=CARTESIAN_POINT('Axis2P3D Location',(2.,20.,15.8)) ;
#224=CARTESIAN_POINT('Axis2P3D Location',(1.,20.,15.8)) ;
#236=CARTESIAN_POINT('Axis2P3D Location',(1.,20.,15.8)) ;
#241=CARTESIAN_POINT('Axis2P3D Location',(1.,20.,15.8)) ;
#252=CARTESIAN_POINT('Axis2P3D Location',(0.,20.,16.8)) ;
#257=CARTESIAN_POINT('Line Origine',(1.5,1.,16.8)) ;
#261=CARTESIAN_POINT('Vertex',(1.,1.,16.8)) ;
#263=CARTESIAN_POINT('Vertex',(2.,1.,16.8)) ;
#266=CARTESIAN_POINT('Line Origine',(2.,10.5,16.8)) ;
#271=CARTESIAN_POINT('Line Origine',(1.,10.5,16.8)) ;
#283=CARTESIAN_POINT('Axis2P3D Location',(1.,10.5,15.8)) ;
#288=CARTESIAN_POINT('Line Origine',(0.,10.5,15.8)) ;
#292=CARTESIAN_POINT('Vertex',(0.,1.,15.8)) ;
#295=CARTESIAN_POINT('Axis2P3D Location',(1.,1.,15.8)) ;
#307=CARTESIAN_POINT('Axis2P3D Location',(1.,1.,15.8)) ;
#312=CARTESIAN_POINT('Line Origine',(1.,0.,15.8)) ;
#316=CARTESIAN_POINT('Vertex',(1.,0.,15.8)) ;
#318=CARTESIAN_POINT('Vertex',(2.,0.,15.8)) ;
#321=CARTESIAN_POINT('Axis2P3D Location',(2.,1.,15.8)) ;
#326=CARTESIAN_POINT('Axis2P3D Location',(1.,1.,15.8)) ;
#338=CARTESIAN_POINT('Axis2P3D Location',(1.,1.,15.8)) ;
#343=CARTESIAN_POINT('Axis2P3D Location',(1.,1.,15.8)) ;
#354=CARTESIAN_POINT('Axis2P3D Location',(0.,0.,15.8)) ;
#359=CARTESIAN_POINT('Line Origine',(1.5,0.,1.)) ;
#363=CARTESIAN_POINT('Vertex',(1.,0.,1.)) ;
#365=CARTESIAN_POINT('Vertex',(2.,0.,1.)) ;
#368=CARTESIAN_POINT('Line Origine',(2.,0.,8.4)) ;
#373=CARTESIAN_POINT('Line Origine',(1.,0.,8.4)) ;
#385=CARTESIAN_POINT('Axis2P3D Location',(1.,1.,8.4)) ;
#390=CARTESIAN_POINT('Line Origine',(0.,1.,8.4)) ;
#395=CARTESIAN_POINT('Axis2P3D Location',(1.,1.,1.)) ;
#407=CARTESIAN_POINT('Axis2P3D Location',(1.,1.,1.)) ;
#412=CARTESIAN_POINT('Axis2P3D Location',(2.,1.,1.)) ;
#417=CARTESIAN_POINT('Axis2P3D Location',(1.,1.,1.)) ;
#429=CARTESIAN_POINT('Axis2P3D Location',(1.,1.,1.)) ;
#440=CARTESIAN_POINT('Axis2P3D Location',(0.,0.,0.)) ;
#452=CARTESIAN_POINT('Axis2P3D Location',(2.,0.,0.)) ;
#33=DIRECTION('Axis2P3D Direction',(0.,0.,-1.)) ;
#34=DIRECTION('Axis2P3D XDirection',(0.,1.,0.)) ;
#38=DIRECTION('Vector Direction',(1.,0.,0.)) ;
#47=DIRECTION('Vector Direction',(0.,1.,0.)) ;
#54=DIRECTION('Vector Direction',(1.,0.,0.)) ;
#61=DIRECTION('Vector Direction',(0.,1.,0.)) ;
#73=DIRECTION('Axis2P3D Direction',(0.,1.,0.)) ;
#74=DIRECTION('Axis2P3D XDirection',(1.83697019872E-016,0.,-1.)) ;
#78=DIRECTION('Axis2P3D Direction',(0.,1.,0.)) ;
#85=DIRECTION('Vector Direction',(0.,1.,0.)) ;
#92=DIRECTION('Axis2P3D Direction',(0.,1.,0.)) ;
#104=DIRECTION('Axis2P3D Direction',(1.,0.,0.)) ;
#105=DIRECTION('Axis2P3D XDirection',(-0.,-1.83697019872E-016,-1.)) ;
#109=DIRECTION('Vector Direction',(1.,0.,0.)) ;
#118=DIRECTION('Axis2P3D Direction',(1.,0.,0.)) ;
#123=DIRECTION('Axis2P3D Direction',(1.,0.,0.)) ;
#135=DIRECTION('Axis2P3D Direction',(-1.,0.,0.)) ;
#136=DIRECTION('Axis2P3D XDirection',(0.,0.965925826289,0.258819045103)) ;
#140=DIRECTION('Axis2P3D Direction',(0.,1.88737914186E-015,1.)) ;
#151=DIRECTION('Axis2P3D Direction',(0.,1.,0.)) ;
#152=DIRECTION('Axis2P3D XDirection',(0.,0.,1.)) ;
#156=DIRECTION('Vector Direction',(1.,0.,0.)) ;
#165=DIRECTION('Vector Direction',(0.,0.,1.)) ;
#170=DIRECTION('Vector Direction',(0.,0.,1.)) ;
#182=DIRECTION('Axis2P3D Direction',(0.,0.,1.)) ;
#183=DIRECTION('Axis2P3D XDirection',(1.83697019872E-016,1.,-0.)) ;
#187=DIRECTION('Vector Direction',(0.,0.,1.)) ;
#194=DIRECTION('Axis2P3D Direction',(0.,0.,1.)) ;
#206=DIRECTION('Axis2P3D Direction',(1.,0.,0.)) ;
#207=DIRECTION('Axis2P3D XDirection',(0.,1.,0.)) ;
#211=DIRECTION('Vector Direction',(1.,0.,0.)) ;
#220=DIRECTION('Axis2P3D Direction',(1.,0.,0.)) ;
#225=DIRECTION('Axis2P3D Direction',(1.,0.,0.)) ;
#237=DIRECTION('Axis2P3D Direction',(-1.,0.,0.)) ;
#238=DIRECTION('Axis2P3D XDirection',(0.,-0.258819045103,0.965925826289)) ;
#242=DIRECTION('Axis2P3D Direction',(-0.,-1.,-2.77555756156E-016)) ;
#253=DIRECTION('Axis2P3D Direction',(-0.,0.,1.)) ;
#254=DIRECTION('Axis2P3D XDirection',(0.,-1.,0.)) ;
#258=DIRECTION('Vector Direction',(1.,0.,0.)) ;
#267=DIRECTION('Vector Direction',(0.,-1.,0.)) ;
#272=DIRECTION('Vector Direction',(0.,-1.,0.)) ;
#284=DIRECTION('Axis2P3D Direction',(0.,-1.,0.)) ;
#285=DIRECTION('Axis2P3D XDirection',(1.83697019872E-016,0.,1.)) ;
#289=DIRECTION('Vector Direction',(0.,-1.,0.)) ;
#296=DIRECTION('Axis2P3D Direction',(0.,-1.,0.)) ;
#308=DIRECTION('Axis2P3D Direction',(1.,0.,0.)) ;
#309=DIRECTION('Axis2P3D XDirection',(0.,6.12323399574E-017,1.)) ;
#313=DIRECTION('Vector Direction',(1.,0.,0.)) ;
#322=DIRECTION('Axis2P3D Direction',(1.,0.,0.)) ;
#327=DIRECTION('Axis2P3D Direction',(1.,0.,0.)) ;
#339=DIRECTION('Axis2P3D Direction',(-1.,0.,0.)) ;
#340=DIRECTION('Axis2P3D XDirection',(0.,-0.965925826289,-0.258819045103)) ;
#344=DIRECTION('Axis2P3D Direction',(0.,1.7763568394E-015,-1.)) ;
#355=DIRECTION('Axis2P3D Direction',(0.,-1.,0.)) ;
#356=DIRECTION('Axis2P3D XDirection',(0.,0.,-1.)) ;
#360=DIRECTION('Vector Direction',(1.,0.,0.)) ;
#369=DIRECTION('Vector Direction',(0.,0.,-1.)) ;
#374=DIRECTION('Vector Direction',(0.,0.,-1.)) ;
#386=DIRECTION('Axis2P3D Direction',(0.,0.,-1.)) ;
#387=DIRECTION('Axis2P3D XDirection',(1.83697019872E-016,-1.,-0.)) ;
#391=DIRECTION('Vector Direction',(0.,0.,-1.)) ;
#396=DIRECTION('Axis2P3D Direction',(0.,0.,-1.)) ;
#408=DIRECTION('Axis2P3D Direction',(1.,0.,0.)) ;
#409=DIRECTION('Axis2P3D XDirection',(0.,-1.,1.22464679915E-016)) ;
#413=DIRECTION('Axis2P3D Direction',(1.,0.,0.)) ;
#418=DIRECTION('Axis2P3D Direction',(1.,0.,0.)) ;
#430=DIRECTION('Axis2P3D Direction',(-1.,0.,0.)) ;
#431=DIRECTION('Axis2P3D XDirection',(0.,0.258819045103,-0.965925826289)) ;
#441=DIRECTION('Axis2P3D Direction',(1.,0.,0.)) ;
#442=DIRECTION('Axis2P3D XDirection',(0.,1.,0.)) ;
#453=DIRECTION('Axis2P3D Direction',(1.,0.,0.)) ;
#454=DIRECTION('Axis2P3D XDirection',(0.,1.,0.)) ;
#30=PRESENTATION_LAYER_ASSIGNMENT('1',' ',(#21)) ;
#8=PRODUCT_RELATED_PRODUCT_CATEGORY('part',$,(#5)) ;
#7=PRODUCT_CATEGORY('part','specification') ;
#29=STYLED_ITEM(' ',(#28),#21) ;
#28=PRESENTATION_STYLE_ASSIGNMENT((#27)) ;
#27=SURFACE_STYLE_USAGE(.BOTH.,#26) ;
#26=SURFACE_SIDE_STYLE(' ',(#25)) ;
#25=SURFACE_STYLE_FILL_AREA(#24) ;
#24=FILL_AREA_STYLE(' ',(#23)) ;
#23=FILL_AREA_STYLE_COLOUR(' ',#22) ;
#39=VECTOR('Line Direction',#38,1.) ;
#48=VECTOR('Line Direction',#47,1.) ;
#55=VECTOR('Line Direction',#54,1.) ;
#62=VECTOR('Line Direction',#61,1.) ;
#86=VECTOR('Line Direction',#85,1.) ;
#110=VECTOR('Line Direction',#109,1.) ;
#157=VECTOR('Line Direction',#156,1.) ;
#166=VECTOR('Line Direction',#165,1.) ;
#171=VECTOR('Line Direction',#170,1.) ;
#188=VECTOR('Line Direction',#187,1.) ;
#212=VECTOR('Line Direction',#211,1.) ;
#259=VECTOR('Line Direction',#258,1.) ;
#268=VECTOR('Line Direction',#267,1.) ;
#273=VECTOR('Line Direction',#272,1.) ;
#290=VECTOR('Line Direction',#289,1.) ;
#314=VECTOR('Line Direction',#313,1.) ;
#361=VECTOR('Line Direction',#360,1.) ;
#370=VECTOR('Line Direction',#369,1.) ;
#375=VECTOR('Line Direction',#374,1.) ;
#392=VECTOR('Line Direction',#391,1.) ;
#15=UNCERTAINTY_MEASURE_WITH_UNIT(LENGTH_MEASURE(0.005),#12,'distance_accuracy_value','CONFUSED CURVE UNCERTAINTY') ;
#469=SHAPE_REPRESENTATION_RELATIONSHIP(' ',' ',#19,#468) ;
#66=ORIENTED_EDGE('',*,*,#45,.T.) ;
#67=ORIENTED_EDGE('',*,*,#52,.F.) ;
#68=ORIENTED_EDGE('',*,*,#59,.F.) ;
#69=ORIENTED_EDGE('',*,*,#64,.T.) ;
#97=ORIENTED_EDGE('',*,*,#83,.T.) ;
#98=ORIENTED_EDGE('',*,*,#90,.T.) ;
#99=ORIENTED_EDGE('',*,*,#95,.F.) ;
#100=ORIENTED_EDGE('',*,*,#64,.F.) ;
#128=ORIENTED_EDGE('',*,*,#116,.T.) ;
#129=ORIENTED_EDGE('',*,*,#121,.F.) ;
#130=ORIENTED_EDGE('',*,*,#45,.F.) ;
#131=ORIENTED_EDGE('',*,*,#126,.T.) ;
#145=ORIENTED_EDGE('',*,*,#95,.T.) ;
#146=ORIENTED_EDGE('',*,*,#143,.F.) ;
#147=ORIENTED_EDGE('',*,*,#126,.F.) ;
#175=ORIENTED_EDGE('',*,*,#163,.T.) ;
#176=ORIENTED_EDGE('',*,*,#168,.F.) ;
#177=ORIENTED_EDGE('',*,*,#116,.F.) ;
#178=ORIENTED_EDGE('',*,*,#173,.T.) ;
#199=ORIENTED_EDGE('',*,*,#143,.T.) ;
#200=ORIENTED_EDGE('',*,*,#192,.T.) ;
#201=ORIENTED_EDGE('',*,*,#197,.F.) ;
#202=ORIENTED_EDGE('',*,*,#173,.F.) ;
#230=ORIENTED_EDGE('',*,*,#218,.T.) ;
#231=ORIENTED_EDGE('',*,*,#223,.F.) ;
#232=ORIENTED_EDGE('',*,*,#163,.F.) ;
#233=ORIENTED_EDGE('',*,*,#228,.T.) ;
#247=ORIENTED_EDGE('',*,*,#197,.T.) ;
#248=ORIENTED_EDGE('',*,*,#245,.F.) ;
#249=ORIENTED_EDGE('',*,*,#228,.F.) ;
#277=ORIENTED_EDGE('',*,*,#265,.T.) ;
#278=ORIENTED_EDGE('',*,*,#270,.F.) ;
#279=ORIENTED_EDGE('',*,*,#218,.F.) ;
#280=ORIENTED_EDGE('',*,*,#275,.T.) ;
#301=ORIENTED_EDGE('',*,*,#245,.T.) ;
#302=ORIENTED_EDGE('',*,*,#294,.T.) ;
#303=ORIENTED_EDGE('',*,*,#299,.F.) ;
#304=ORIENTED_EDGE('',*,*,#275,.F.) ;
#332=ORIENTED_EDGE('',*,*,#320,.T.) ;
#333=ORIENTED_EDGE('',*,*,#325,.F.) ;
#334=ORIENTED_EDGE('',*,*,#265,.F.) ;
#335=ORIENTED_EDGE('',*,*,#330,.T.) ;
#349=ORIENTED_EDGE('',*,*,#299,.T.) ;
#350=ORIENTED_EDGE('',*,*,#347,.F.) ;
#351=ORIENTED_EDGE('',*,*,#330,.F.) ;
#379=ORIENTED_EDGE('',*,*,#367,.T.) ;
#380=ORIENTED_EDGE('',*,*,#372,.F.) ;
#381=ORIENTED_EDGE('',*,*,#320,.F.) ;
#382=ORIENTED_EDGE('',*,*,#377,.T.) ;
#401=ORIENTED_EDGE('',*,*,#347,.T.) ;
#402=ORIENTED_EDGE('',*,*,#394,.T.) ;
#403=ORIENTED_EDGE('',*,*,#399,.F.) ;
#404=ORIENTED_EDGE('',*,*,#377,.F.) ;
#423=ORIENTED_EDGE('',*,*,#59,.T.) ;
#424=ORIENTED_EDGE('',*,*,#416,.F.) ;
#425=ORIENTED_EDGE('',*,*,#367,.F.) ;
#426=ORIENTED_EDGE('',*,*,#421,.T.) ;
#435=ORIENTED_EDGE('',*,*,#399,.T.) ;
#436=ORIENTED_EDGE('',*,*,#83,.F.) ;
#437=ORIENTED_EDGE('',*,*,#421,.F.) ;
#446=ORIENTED_EDGE('',*,*,#192,.F.) ;
#447=ORIENTED_EDGE('',*,*,#90,.F.) ;
#448=ORIENTED_EDGE('',*,*,#394,.F.) ;
#449=ORIENTED_EDGE('',*,*,#294,.F.) ;
#458=ORIENTED_EDGE('',*,*,#52,.T.) ;
#459=ORIENTED_EDGE('',*,*,#121,.T.) ;
#460=ORIENTED_EDGE('',*,*,#168,.T.) ;
#461=ORIENTED_EDGE('',*,*,#223,.T.) ;
#462=ORIENTED_EDGE('',*,*,#270,.T.) ;
#463=ORIENTED_EDGE('',*,*,#325,.T.) ;
#464=ORIENTED_EDGE('',*,*,#372,.T.) ;
#465=ORIENTED_EDGE('',*,*,#416,.T.) ;
#31=CLOSED_SHELL('Closed Shell',(#71,#102,#133,#149,#180,#204,#235,#251,#282,#306,#337,#353,#384,#406,#428,#439,#451,#467)) ;
#468=ADVANCED_BREP_SHAPE_REPRESENTATION('NONE',(#21),#16) ;
#71=ADVANCED_FACE('Koerper.2',(#70),#36,.T.) ;
#102=ADVANCED_FACE('Koerper.2',(#101),#76,.T.) ;
#133=ADVANCED_FACE('Koerper.2',(#132),#107,.T.) ;
#149=ADVANCED_FACE('Koerper.2',(#148),#138,.T.) ;
#180=ADVANCED_FACE('Koerper.2',(#179),#154,.T.) ;
#204=ADVANCED_FACE('Koerper.2',(#203),#185,.T.) ;
#235=ADVANCED_FACE('Koerper.2',(#234),#209,.T.) ;
#251=ADVANCED_FACE('Koerper.2',(#250),#240,.T.) ;
#282=ADVANCED_FACE('Koerper.2',(#281),#256,.T.) ;
#306=ADVANCED_FACE('Koerper.2',(#305),#287,.T.) ;
#337=ADVANCED_FACE('Koerper.2',(#336),#311,.T.) ;
#353=ADVANCED_FACE('Koerper.2',(#352),#342,.T.) ;
#384=ADVANCED_FACE('Koerper.2',(#383),#358,.T.) ;
#406=ADVANCED_FACE('Koerper.2',(#405),#389,.T.) ;
#428=ADVANCED_FACE('Koerper.2',(#427),#411,.T.) ;
#439=ADVANCED_FACE('Koerper.2',(#438),#433,.T.) ;
#451=ADVANCED_FACE('Koerper.2',(#450),#444,.F.) ;
#467=ADVANCED_FACE('Koerper.2',(#466),#456,.T.) ;
#4=APPLICATION_PROTOCOL_DEFINITION('international standard','automotive_design',2001,#1) ;
#21=MANIFOLD_SOLID_BREP('Koerper.2',#31) ;
#80=CIRCLE('generated circle',#79,1.) ;
#94=CIRCLE('generated circle',#93,1.) ;
#120=CIRCLE('generated circle',#119,1.) ;
#125=CIRCLE('generated circle',#124,1.) ;
#142=CIRCLE('generated circle',#141,1.) ;
#196=CIRCLE('generated circle',#195,1.) ;
#222=CIRCLE('generated circle',#221,1.) ;
#227=CIRCLE('generated circle',#226,1.) ;
#244=CIRCLE('generated circle',#243,1.) ;
#298=CIRCLE('generated circle',#297,1.) ;
#324=CIRCLE('generated circle',#323,1.) ;
#329=CIRCLE('generated circle',#328,1.) ;
#346=CIRCLE('generated circle',#345,1.) ;
#398=CIRCLE('generated circle',#397,1.) ;
#415=CIRCLE('generated circle',#414,1.) ;
#420=CIRCLE('generated circle',#419,1.) ;
#22=COLOUR_RGB('Colour',0.819607843137,0.733333333333,0.807843137255) ;
#76=CYLINDRICAL_SURFACE('generated cylinder',#75,1.) ;
#107=CYLINDRICAL_SURFACE('generated cylinder',#106,1.) ;
#185=CYLINDRICAL_SURFACE('generated cylinder',#184,1.) ;
#209=CYLINDRICAL_SURFACE('generated cylinder',#208,1.) ;
#287=CYLINDRICAL_SURFACE('generated cylinder',#286,1.) ;
#311=CYLINDRICAL_SURFACE('generated cylinder',#310,1.) ;
#389=CYLINDRICAL_SURFACE('generated cylinder',#388,1.) ;
#411=CYLINDRICAL_SURFACE('generated cylinder',#410,1.) ;
#45=EDGE_CURVE('',#42,#44,#40,.T.) ;
#52=EDGE_CURVE('',#51,#44,#49,.T.) ;
#59=EDGE_CURVE('',#58,#51,#56,.T.) ;
#64=EDGE_CURVE('',#58,#42,#63,.T.) ;
#83=EDGE_CURVE('',#58,#82,#80,.T.) ;
#90=EDGE_CURVE('',#82,#89,#87,.T.) ;
#95=EDGE_CURVE('',#42,#89,#94,.T.) ;
#116=EDGE_CURVE('',#113,#115,#111,.T.) ;
#121=EDGE_CURVE('',#44,#115,#120,.T.) ;
#126=EDGE_CURVE('',#42,#113,#125,.T.) ;
#143=EDGE_CURVE('',#113,#89,#142,.T.) ;
#163=EDGE_CURVE('',#160,#162,#158,.T.) ;
#168=EDGE_CURVE('',#115,#162,#167,.T.) ;
#173=EDGE_CURVE('',#113,#160,#172,.T.) ;
#192=EDGE_CURVE('',#89,#191,#189,.T.) ;
#197=EDGE_CURVE('',#160,#191,#196,.T.) ;
#218=EDGE_CURVE('',#215,#217,#213,.T.) ;
#223=EDGE_CURVE('',#162,#217,#222,.T.) ;
#228=EDGE_CURVE('',#160,#215,#227,.T.) ;
#245=EDGE_CURVE('',#215,#191,#244,.T.) ;
#265=EDGE_CURVE('',#262,#264,#260,.T.) ;
#270=EDGE_CURVE('',#217,#264,#269,.T.) ;
#275=EDGE_CURVE('',#215,#262,#274,.T.) ;
#294=EDGE_CURVE('',#191,#293,#291,.T.) ;
#299=EDGE_CURVE('',#262,#293,#298,.T.) ;
#320=EDGE_CURVE('',#317,#319,#315,.T.) ;
#325=EDGE_CURVE('',#264,#319,#324,.T.) ;
#330=EDGE_CURVE('',#262,#317,#329,.T.) ;
#347=EDGE_CURVE('',#317,#293,#346,.T.) ;
#367=EDGE_CURVE('',#364,#366,#362,.T.) ;
#372=EDGE_CURVE('',#319,#366,#371,.T.) ;
#377=EDGE_CURVE('',#317,#364,#376,.T.) ;
#394=EDGE_CURVE('',#293,#82,#393,.T.) ;
#399=EDGE_CURVE('',#364,#82,#398,.T.) ;
#416=EDGE_CURVE('',#366,#51,#415,.T.) ;
#421=EDGE_CURVE('',#364,#58,#420,.T.) ;
#65=EDGE_LOOP('',(#66,#67,#68,#69)) ;
#96=EDGE_LOOP('',(#97,#98,#99,#100)) ;
#127=EDGE_LOOP('',(#128,#129,#130,#131)) ;
#144=EDGE_LOOP('',(#145,#146,#147)) ;
#174=EDGE_LOOP('',(#175,#176,#177,#178)) ;
#198=EDGE_LOOP('',(#199,#200,#201,#202)) ;
#229=EDGE_LOOP('',(#230,#231,#232,#233)) ;
#246=EDGE_LOOP('',(#247,#248,#249)) ;
#276=EDGE_LOOP('',(#277,#278,#279,#280)) ;
#300=EDGE_LOOP('',(#301,#302,#303,#304)) ;
#331=EDGE_LOOP('',(#332,#333,#334,#335)) ;
#348=EDGE_LOOP('',(#349,#350,#351)) ;
#378=EDGE_LOOP('',(#379,#380,#381,#382)) ;
#400=EDGE_LOOP('',(#401,#402,#403,#404)) ;
#422=EDGE_LOOP('',(#423,#424,#425,#426)) ;
#434=EDGE_LOOP('',(#435,#436,#437)) ;
#445=EDGE_LOOP('',(#446,#447,#448,#449)) ;
#457=EDGE_LOOP('',(#458,#459,#460,#461,#462,#463,#464,#465)) ;
#70=FACE_OUTER_BOUND('',#65,.T.) ;
#101=FACE_OUTER_BOUND('',#96,.T.) ;
#132=FACE_OUTER_BOUND('',#127,.T.) ;
#148=FACE_OUTER_BOUND('',#144,.T.) ;
#179=FACE_OUTER_BOUND('',#174,.T.) ;
#203=FACE_OUTER_BOUND('',#198,.T.) ;
#234=FACE_OUTER_BOUND('',#229,.T.) ;
#250=FACE_OUTER_BOUND('',#246,.T.) ;
#281=FACE_OUTER_BOUND('',#276,.T.) ;
#305=FACE_OUTER_BOUND('',#300,.T.) ;
#336=FACE_OUTER_BOUND('',#331,.T.) ;
#352=FACE_OUTER_BOUND('',#348,.T.) ;
#383=FACE_OUTER_BOUND('',#378,.T.) ;
#405=FACE_OUTER_BOUND('',#400,.T.) ;
#427=FACE_OUTER_BOUND('',#422,.T.) ;
#438=FACE_OUTER_BOUND('',#434,.T.) ;
#450=FACE_OUTER_BOUND('',#445,.T.) ;
#466=FACE_OUTER_BOUND('',#457,.T.) ;
#40=LINE('Line',#37,#39) ;
#49=LINE('Line',#46,#48) ;
#56=LINE('Line',#53,#55) ;
#63=LINE('Line',#60,#62) ;
#87=LINE('Line',#84,#86) ;
#111=LINE('Line',#108,#110) ;
#158=LINE('Line',#155,#157) ;
#167=LINE('Line',#164,#166) ;
#172=LINE('Line',#169,#171) ;
#189=LINE('Line',#186,#188) ;
#213=LINE('Line',#210,#212) ;
#260=LINE('Line',#257,#259) ;
#269=LINE('Line',#266,#268) ;
#274=LINE('Line',#271,#273) ;
#291=LINE('Line',#288,#290) ;
#315=LINE('Line',#312,#314) ;
#362=LINE('Line',#359,#361) ;
#371=LINE('Line',#368,#370) ;
#376=LINE('Line',#373,#375) ;
#393=LINE('Line',#390,#392) ;
#36=PLANE('',#35) ;
#154=PLANE('',#153) ;
#256=PLANE('',#255) ;
#358=PLANE('',#357) ;
#444=PLANE('',#443) ;
#456=PLANE('',#455) ;
#9=PRODUCT_CATEGORY_RELATIONSHIP(' ',' ',#7,#8) ;
#6=PRODUCT_DEFINITION_FORMATION_WITH_SPECIFIED_SOURCE('',' ',#5,.NOT_KNOWN.) ;
#20=SHAPE_DEFINITION_REPRESENTATION(#11,#19) ;
#138=SPHERICAL_SURFACE('',#137,1.) ;
#240=SPHERICAL_SURFACE('',#239,1.) ;
#342=SPHERICAL_SURFACE('',#341,1.) ;
#433=SPHERICAL_SURFACE('',#432,1.) ;
#42=VERTEX_POINT('',#41) ;
#44=VERTEX_POINT('',#43) ;
#51=VERTEX_POINT('',#50) ;
#58=VERTEX_POINT('',#57) ;
#82=VERTEX_POINT('',#81) ;
#89=VERTEX_POINT('',#88) ;
#113=VERTEX_POINT('',#112) ;
#115=VERTEX_POINT('',#114) ;
#160=VERTEX_POINT('',#159) ;
#162=VERTEX_POINT('',#161) ;
#191=VERTEX_POINT('',#190) ;
#215=VERTEX_POINT('',#214) ;
#217=VERTEX_POINT('',#216) ;
#262=VERTEX_POINT('',#261) ;
#264=VERTEX_POINT('',#263) ;
#293=VERTEX_POINT('',#292) ;
#317=VERTEX_POINT('',#316) ;
#319=VERTEX_POINT('',#318) ;
#364=VERTEX_POINT('',#363) ;
#366=VERTEX_POINT('',#365) ;
#12=(LENGTH_UNIT()NAMED_UNIT(*)SI_UNIT(.MILLI.,.METRE.)) ;
#13=(NAMED_UNIT(*)PLANE_ANGLE_UNIT()SI_UNIT($,.RADIAN.)) ;
#14=(NAMED_UNIT(*)SI_UNIT($,.STERADIAN.)SOLID_ANGLE_UNIT()) ;
#16=(GEOMETRIC_REPRESENTATION_CONTEXT(3)GLOBAL_UNCERTAINTY_ASSIGNED_CONTEXT((#15))GLOBAL_UNIT_ASSIGNED_CONTEXT((#12,#13,#14))REPRESENTATION_CONTEXT(' ',' ')) ;
ENDSEC;
END-ISO-10303-21;
