ISO-10303-21;
HEADER;
FILE_DESCRIPTION(('CATIA V5R24 STEP','CAx-IF Rec.Pracs.--- Model Styling and Organization---1.2---2011-12-15'),'2;1');

FILE_NAME ('D1445842_0', '2017-02-28T06:01:03+00:00', ('Weidmueller Interface'), ('Weidmueller'), 'CATIA Version 5-6 Release 2014 SP4 HF52', 'CATIA V5 STEP AP214', 'none');

FILE_SCHEMA(('AUTOMOTIVE_DESIGN { 1 0 10303 214 1 1 1 1 }'));

ENDSEC;
DATA;
#5=PRODUCT('v5-standard_part','','',(#2)) ;
#2=PRODUCT_CONTEXT(' ',#1,'mechanical') ;
#1=APPLICATION_CONTEXT('automotive design') ;
#10=PRODUCT_DEFINITION('',' ',#6,#3) ;
#3=PRODUCT_DEFINITION_CONTEXT('part definition',#1,' ') ;
#11=PRODUCT_DEFINITION_SHAPE(' ',' ',#10) ;
#436=MECHANICAL_DESIGN_GEOMETRIC_PRESENTATION_REPRESENTATION(' ',(#46),#16) ;
#19=SHAPE_REPRESENTATION(' ',(#18),#16) ;
#18=AXIS2_PLACEMENT_3D(' ',#17,$,$) ;
#24=AXIS2_PLACEMENT_3D('Plane Axis2P3D',#21,#22,#23) ;
#31=AXIS2_PLACEMENT_3D('Plane Axis2P3D',#28,#29,#30) ;
#36=AXIS2_PLACEMENT_3D('Plane Axis2P3D',#33,#34,#35) ;
#51=AXIS2_PLACEMENT_3D('Plane Axis2P3D',#48,#49,#50) ;
#55=AXIS2_PLACEMENT_3D('Circle Axis2P3D',#53,#54,$) ;
#75=AXIS2_PLACEMENT_3D('Cylinder Axis2P3D',#72,#73,#74) ;
#88=AXIS2_PLACEMENT_3D('Circle Axis2P3D',#86,#87,$) ;
#107=AXIS2_PLACEMENT_3D('Circle Axis2P3D',#105,#106,$) ;
#121=AXIS2_PLACEMENT_3D('Circle Axis2P3D',#119,#120,$) ;
#138=AXIS2_PLACEMENT_3D('Plane Axis2P3D',#135,#136,#137) ;
#155=AXIS2_PLACEMENT_3D('Cylinder Axis2P3D',#152,#153,#154) ;
#159=AXIS2_PLACEMENT_3D('Circle Axis2P3D',#157,#158,$) ;
#173=AXIS2_PLACEMENT_3D('Circle Axis2P3D',#171,#172,$) ;
#187=AXIS2_PLACEMENT_3D('Circle Axis2P3D',#185,#186,$) ;
#192=AXIS2_PLACEMENT_3D('Circle Axis2P3D',#190,#191,$) ;
#209=AXIS2_PLACEMENT_3D('Plane Axis2P3D',#206,#207,#208) ;
#228=AXIS2_PLACEMENT_3D('Plane Axis2P3D',#225,#226,#227) ;
#298=AXIS2_PLACEMENT_3D('Plane Axis2P3D',#295,#296,#297) ;
#315=AXIS2_PLACEMENT_3D('Plane Axis2P3D',#312,#313,#314) ;
#325=AXIS2_PLACEMENT_3D('Cylinder Axis2P3D',#322,#323,#324) ;
#343=AXIS2_PLACEMENT_3D('Circle Axis2P3D',#341,#342,$) ;
#356=AXIS2_PLACEMENT_3D('Cylinder Axis2P3D',#353,#354,#355) ;
#379=AXIS2_PLACEMENT_3D('Cone Axis2P3D',#376,#377,#378) ;
#390=AXIS2_PLACEMENT_3D('Circle Axis2P3D',#388,#389,$) ;
#410=AXIS2_PLACEMENT_3D('Cone Axis2P3D',#407,#408,#409) ;
#414=AXIS2_PLACEMENT_3D('Circle Axis2P3D',#412,#413,$) ;
#427=AXIS2_PLACEMENT_3D('Plane Axis2P3D',#424,#425,#426) ;
#17=CARTESIAN_POINT(' ',(0.,0.,0.)) ;
#21=CARTESIAN_POINT('Axis2P3D Location',(0.,0.,0.)) ;
#28=CARTESIAN_POINT('Axis2P3D Location',(0.,0.,0.)) ;
#33=CARTESIAN_POINT('Axis2P3D Location',(0.,0.,0.)) ;
#48=CARTESIAN_POINT('Axis2P3D Location',(4.25,4.25,11.3)) ;
#53=CARTESIAN_POINT('Axis2P3D Location',(4.25000000077,4.25,11.3)) ;
#57=CARTESIAN_POINT('Vertex',(3.65000000037,0.0425661019981,11.3)) ;
#59=CARTESIAN_POINT('Vertex',(3.65000000037,8.457433898,11.3)) ;
#62=CARTESIAN_POINT('Line Origine',(3.65000000037,4.25,11.3)) ;
#72=CARTESIAN_POINT('Axis2P3D Location',(4.25,4.25,0.)) ;
#77=CARTESIAN_POINT('Line Origine',(4.25,-8.881784197E-016,0.)) ;
#81=CARTESIAN_POINT('Vertex',(4.25,0.,8.)) ;
#83=CARTESIAN_POINT('Vertex',(4.25,0.,10.)) ;
#86=CARTESIAN_POINT('Axis2P3D Location',(4.25,4.25,10.)) ;
#90=CARTESIAN_POINT('Vertex',(3.65,0.0425661036154,10.)) ;
#93=CARTESIAN_POINT('Line Origine',(3.65,0.0425661027177,0.)) ;
#98=CARTESIAN_POINT('Line Origine',(3.65,8.45743389728,0.)) ;
#102=CARTESIAN_POINT('Vertex',(3.65,8.45743389776,10.)) ;
#105=CARTESIAN_POINT('Axis2P3D Location',(4.25,4.25,10.)) ;
#109=CARTESIAN_POINT('Vertex',(4.25,8.5,10.)) ;
#112=CARTESIAN_POINT('Line Origine',(4.25,8.5,0.)) ;
#116=CARTESIAN_POINT('Vertex',(4.25,8.5,8.)) ;
#119=CARTESIAN_POINT('Axis2P3D Location',(4.25,4.25,8.)) ;
#135=CARTESIAN_POINT('Axis2P3D Location',(3.65,8.7098206242,10.)) ;
#140=CARTESIAN_POINT('Line Origine',(3.65,4.25000000069,10.)) ;
#152=CARTESIAN_POINT('Axis2P3D Location',(4.25,4.25,0.)) ;
#157=CARTESIAN_POINT('Axis2P3D Location',(4.25,4.25,10.)) ;
#161=CARTESIAN_POINT('Vertex',(4.85,8.45743389728,10.)) ;
#164=CARTESIAN_POINT('Line Origine',(4.85,8.45743389728,0.)) ;
#168=CARTESIAN_POINT('Vertex',(4.84999999963,8.457433898,11.3)) ;
#171=CARTESIAN_POINT('Axis2P3D Location',(4.25,4.25,11.3000000007)) ;
#175=CARTESIAN_POINT('Vertex',(4.84999999963,0.0425661019981,11.3)) ;
#178=CARTESIAN_POINT('Line Origine',(4.85,0.0425661027177,0.)) ;
#182=CARTESIAN_POINT('Vertex',(4.85,0.0425661027177,10.)) ;
#185=CARTESIAN_POINT('Axis2P3D Location',(4.25,4.25,10.)) ;
#190=CARTESIAN_POINT('Axis2P3D Location',(4.25,4.25,8.)) ;
#206=CARTESIAN_POINT('Axis2P3D Location',(4.25,4.25,10.)) ;
#211=CARTESIAN_POINT('Line Origine',(4.84999999963,4.25,10.)) ;
#225=CARTESIAN_POINT('Axis2P3D Location',(8.5,4.25,8.)) ;
#235=CARTESIAN_POINT('Control Point',(4.25,1.75,8.)) ;
#236=CARTESIAN_POINT('Control Point',(4.01762300653,1.75,8.)) ;
#237=CARTESIAN_POINT('Control Point',(3.78524639489,1.77699953354,8.)) ;
#238=CARTESIAN_POINT('Control Point',(3.55704305276,1.83100463087,8.)) ;
#239=CARTESIAN_POINT('Control Point',(3.11738207961,1.99103933499,8.)) ;
#240=CARTESIAN_POINT('Control Point',(2.72612793596,2.24761613295,8.)) ;
#241=CARTESIAN_POINT('Control Point',(2.54633554605,2.39817512808,8.)) ;
#242=CARTESIAN_POINT('Control Point',(2.22503798016,2.73829385866,8.)) ;
#243=CARTESIAN_POINT('Control Point',(1.99028352622,3.14301821349,8.)) ;
#244=CARTESIAN_POINT('Control Point',(1.89704321946,3.35819154566,8.)) ;
#245=CARTESIAN_POINT('Control Point',(1.76226908978,3.80624155226,8.)) ;
#246=CARTESIAN_POINT('Control Point',(1.73381510775,4.27325528405,8.)) ;
#247=CARTESIAN_POINT('Control Point',(1.74690687893,4.50739610611,8.)) ;
#248=CARTESIAN_POINT('Control Point',(1.82724715229,4.96832811353,8.)) ;
#249=CARTESIAN_POINT('Control Point',(2.01112986617,5.39855898514,8.)) ;
#250=CARTESIAN_POINT('Control Point',(2.12777642639,5.60199668374,8.)) ;
#251=CARTESIAN_POINT('Control Point',(2.40618772754,5.97802863006,8.)) ;
#252=CARTESIAN_POINT('Control Point',(2.76339828111,6.28020751425,8.)) ;
#253=CARTESIAN_POINT('Control Point',(2.95885423916,6.40978483864,8.)) ;
#254=CARTESIAN_POINT('Control Point',(3.32610792047,6.59574356163,8.)) ;
#255=CARTESIAN_POINT('Control Point',(3.72226540998,6.7032587915,8.)) ;
#256=CARTESIAN_POINT('Control Point',(3.89695617248,6.73442002643,8.)) ;
#257=CARTESIAN_POINT('Control Point',(4.07347819641,6.75,8.)) ;
#258=CARTESIAN_POINT('Control Point',(4.25,6.75,8.)) ;
#259=CARTESIAN_POINT('Vertex',(4.25,1.75,8.)) ;
#261=CARTESIAN_POINT('Vertex',(4.25,6.75,8.)) ;
#265=CARTESIAN_POINT('Control Point',(4.25,6.75,8.)) ;
#266=CARTESIAN_POINT('Control Point',(4.48237699347,6.75,8.)) ;
#267=CARTESIAN_POINT('Control Point',(4.71475360511,6.72300046646,8.)) ;
#268=CARTESIAN_POINT('Control Point',(4.94295694724,6.66899536913,8.)) ;
#269=CARTESIAN_POINT('Control Point',(5.38261792039,6.50896066501,8.)) ;
#270=CARTESIAN_POINT('Control Point',(5.77387206404,6.25238386705,8.)) ;
#271=CARTESIAN_POINT('Control Point',(5.95366445395,6.10182487192,8.)) ;
#272=CARTESIAN_POINT('Control Point',(6.27496201984,5.76170614134,8.)) ;
#273=CARTESIAN_POINT('Control Point',(6.50971647378,5.35698178651,8.)) ;
#274=CARTESIAN_POINT('Control Point',(6.60295678054,5.14180845434,8.)) ;
#275=CARTESIAN_POINT('Control Point',(6.73773091022,4.69375844774,8.)) ;
#276=CARTESIAN_POINT('Control Point',(6.76618489225,4.22674471595,8.)) ;
#277=CARTESIAN_POINT('Control Point',(6.75309312107,3.99260389389,8.)) ;
#278=CARTESIAN_POINT('Control Point',(6.67275284771,3.53167188648,8.)) ;
#279=CARTESIAN_POINT('Control Point',(6.48887013383,3.10144101486,8.)) ;
#280=CARTESIAN_POINT('Control Point',(6.37222357361,2.89800331626,8.)) ;
#281=CARTESIAN_POINT('Control Point',(6.09381227246,2.52197136994,8.)) ;
#282=CARTESIAN_POINT('Control Point',(5.73660171889,2.21979248575,8.)) ;
#283=CARTESIAN_POINT('Control Point',(5.54114576084,2.09021516136,8.)) ;
#284=CARTESIAN_POINT('Control Point',(5.17389207953,1.90425643837,8.)) ;
#285=CARTESIAN_POINT('Control Point',(4.77773459002,1.7967412085,8.)) ;
#286=CARTESIAN_POINT('Control Point',(4.60304382752,1.76557997357,8.)) ;
#287=CARTESIAN_POINT('Control Point',(4.42652180359,1.75,8.)) ;
#288=CARTESIAN_POINT('Control Point',(4.25,1.75,8.)) ;
#295=CARTESIAN_POINT('Axis2P3D Location',(4.85,-0.209820624196,10.)) ;
#300=CARTESIAN_POINT('Line Origine',(4.85,4.24999999931,11.3000000007)) ;
#312=CARTESIAN_POINT('Axis2P3D Location',(4.25,4.25,11.3)) ;
#322=CARTESIAN_POINT('Axis2P3D Location',(4.25,4.25,0.)) ;
#327=CARTESIAN_POINT('Line Origine',(4.25,1.75,0.)) ;
#331=CARTESIAN_POINT('Vertex',(4.25,1.75,0.490499999374)) ;
#334=CARTESIAN_POINT('Line Origine',(4.25,6.75,0.)) ;
#338=CARTESIAN_POINT('Vertex',(4.25,6.75,0.490499999374)) ;
#341=CARTESIAN_POINT('Axis2P3D Location',(4.25,4.25,0.490499999374)) ;
#353=CARTESIAN_POINT('Axis2P3D Location',(4.25,4.25,0.)) ;
#359=CARTESIAN_POINT('Control Point',(4.25,6.75,0.490499999374)) ;
#360=CARTESIAN_POINT('Control Point',(5.0353981634,6.75,0.490499999437)) ;
#361=CARTESIAN_POINT('Control Point',(5.82079632679,6.44157486247,0.490499999499)) ;
#362=CARTESIAN_POINT('Control Point',(6.44157486247,5.82079632679,0.490499999562)) ;
#363=CARTESIAN_POINT('Control Point',(7.05842513753,4.25,0.490499999687)) ;
#364=CARTESIAN_POINT('Control Point',(6.44157486247,2.67920367321,0.490499999812)) ;
#365=CARTESIAN_POINT('Control Point',(5.82079632679,2.05842513753,0.490499999875)) ;
#366=CARTESIAN_POINT('Control Point',(5.0353981634,1.75,0.490499999937)) ;
#367=CARTESIAN_POINT('Control Point',(4.25,1.75,0.4905)) ;
#376=CARTESIAN_POINT('Axis2P3D Location',(4.25,4.25,0.4905)) ;
#381=CARTESIAN_POINT('Line Origine',(4.25000000004,353558.890593,353552.631093)) ;
#385=CARTESIAN_POINT('Vertex',(4.25,6.2595,4.99600361081E-016)) ;
#388=CARTESIAN_POINT('Axis2P3D Location',(4.25,4.25,6.10622663544E-016)) ;
#392=CARTESIAN_POINT('Vertex',(4.25,2.2405,7.21644966006E-016)) ;
#395=CARTESIAN_POINT('Line Origine',(4.24999999991,-353550.390593,353552.631093)) ;
#407=CARTESIAN_POINT('Axis2P3D Location',(4.25,4.25,0.4905)) ;
#412=CARTESIAN_POINT('Axis2P3D Location',(4.25,4.25,6.10622663544E-016)) ;
#424=CARTESIAN_POINT('Axis2P3D Location',(6.2595,4.25,0.)) ;
#22=DIRECTION('Axis2P3D Direction',(0.,0.,1.)) ;
#23=DIRECTION('Axis2P3D XDirection',(1.,0.,0.)) ;
#29=DIRECTION('Axis2P3D Direction',(1.,0.,0.)) ;
#30=DIRECTION('Axis2P3D XDirection',(0.,1.,0.)) ;
#34=DIRECTION('Axis2P3D Direction',(0.,1.,0.)) ;
#35=DIRECTION('Axis2P3D XDirection',(0.,0.,1.)) ;
#49=DIRECTION('Axis2P3D Direction',(0.,-6.12323399574E-017,-1.)) ;
#50=DIRECTION('Axis2P3D XDirection',(0.,1.,-6.12323399574E-017)) ;
#54=DIRECTION('Axis2P3D Direction',(0.,-6.12323399574E-017,-1.)) ;
#63=DIRECTION('Vector Direction',(0.,-1.,0.)) ;
#73=DIRECTION('Axis2P3D Direction',(0.,6.12323399574E-017,1.)) ;
#74=DIRECTION('Axis2P3D XDirection',(0.,1.,-6.12323399574E-017)) ;
#78=DIRECTION('Vector Direction',(0.,6.12319084325E-017,1.)) ;
#87=DIRECTION('Axis2P3D Direction',(0.,6.12323399574E-017,1.)) ;
#94=DIRECTION('Vector Direction',(0.,6.12319084325E-017,1.)) ;
#99=DIRECTION('Vector Direction',(0.,6.1232796611E-017,1.)) ;
#106=DIRECTION('Axis2P3D Direction',(0.,6.12323399574E-017,1.)) ;
#113=DIRECTION('Vector Direction',(0.,6.12319084325E-017,1.)) ;
#120=DIRECTION('Axis2P3D Direction',(0.,6.12323399574E-017,1.)) ;
#136=DIRECTION('Axis2P3D Direction',(-1.,0.,0.)) ;
#137=DIRECTION('Axis2P3D XDirection',(0.,-1.,6.12323399574E-017)) ;
#141=DIRECTION('Vector Direction',(0.,-1.,0.)) ;
#153=DIRECTION('Axis2P3D Direction',(0.,6.12323399574E-017,1.)) ;
#154=DIRECTION('Axis2P3D XDirection',(-1.22464679915E-016,-1.,6.12323399574E-017)) ;
#158=DIRECTION('Axis2P3D Direction',(0.,6.12323399574E-017,1.)) ;
#165=DIRECTION('Vector Direction',(0.,6.1232796611E-017,1.)) ;
#172=DIRECTION('Axis2P3D Direction',(0.,6.12323399574E-017,1.)) ;
#179=DIRECTION('Vector Direction',(0.,6.12319084325E-017,1.)) ;
#186=DIRECTION('Axis2P3D Direction',(0.,6.12323399574E-017,1.)) ;
#191=DIRECTION('Axis2P3D Direction',(0.,6.12323399574E-017,1.)) ;
#207=DIRECTION('Axis2P3D Direction',(-0.,6.12323399574E-017,1.)) ;
#208=DIRECTION('Axis2P3D XDirection',(0.,-1.,6.12323399574E-017)) ;
#212=DIRECTION('Vector Direction',(0.,1.,0.)) ;
#226=DIRECTION('Axis2P3D Direction',(-0.,6.12323399574E-017,1.)) ;
#227=DIRECTION('Axis2P3D XDirection',(0.,-1.,6.12323399574E-017)) ;
#296=DIRECTION('Axis2P3D Direction',(1.,-0.,0.)) ;
#297=DIRECTION('Axis2P3D XDirection',(0.,1.,-6.12323399574E-017)) ;
#301=DIRECTION('Vector Direction',(0.,1.,0.)) ;
#313=DIRECTION('Axis2P3D Direction',(0.,-6.12323399574E-017,-1.)) ;
#314=DIRECTION('Axis2P3D XDirection',(0.,1.,-6.12323399574E-017)) ;
#323=DIRECTION('Axis2P3D Direction',(0.,6.12323399574E-017,1.)) ;
#324=DIRECTION('Axis2P3D XDirection',(0.,1.,-6.12323399574E-017)) ;
#328=DIRECTION('Vector Direction',(0.,6.12319084325E-017,1.)) ;
#335=DIRECTION('Vector Direction',(0.,6.12319084325E-017,1.)) ;
#342=DIRECTION('Axis2P3D Direction',(0.,6.12323399574E-017,1.)) ;
#354=DIRECTION('Axis2P3D Direction',(0.,6.12323399574E-017,1.)) ;
#355=DIRECTION('Axis2P3D XDirection',(-1.22464679915E-016,-1.,6.12323399574E-017)) ;
#377=DIRECTION('Axis2P3D Direction',(0.,6.12323399574E-017,1.)) ;
#378=DIRECTION('Axis2P3D XDirection',(1.22464266653E-016,1.,0.)) ;
#382=DIRECTION('Vector Direction',(8.65953134033E-017,0.707106781187,0.707106781187)) ;
#389=DIRECTION('Axis2P3D Direction',(-0.,6.12323399574E-017,1.)) ;
#396=DIRECTION('Vector Direction',(-1.73191514982E-016,-0.707106781187,0.707106781187)) ;
#408=DIRECTION('Axis2P3D Direction',(0.,6.12323399574E-017,1.)) ;
#409=DIRECTION('Axis2P3D XDirection',(0.,-1.,0.)) ;
#413=DIRECTION('Axis2P3D Direction',(-0.,6.12323399574E-017,1.)) ;
#425=DIRECTION('Axis2P3D Direction',(-0.,6.12323399574E-017,1.)) ;
#426=DIRECTION('Axis2P3D XDirection',(0.,-1.,6.12323399574E-017)) ;
#8=PRODUCT_RELATED_PRODUCT_CATEGORY('part',$,(#5)) ;
#7=PRODUCT_CATEGORY('part','specification') ;
#46=STYLED_ITEM(' ',(#45),#38) ;
#45=PRESENTATION_STYLE_ASSIGNMENT((#44)) ;
#44=SURFACE_STYLE_USAGE(.BOTH.,#43) ;
#43=SURFACE_SIDE_STYLE(' ',(#42)) ;
#42=SURFACE_STYLE_FILL_AREA(#41) ;
#41=FILL_AREA_STYLE(' ',(#40)) ;
#40=FILL_AREA_STYLE_COLOUR(' ',#39) ;
#64=VECTOR('Line Direction',#63,1.) ;
#79=VECTOR('Line Direction',#78,1.) ;
#95=VECTOR('Line Direction',#94,1.) ;
#100=VECTOR('Line Direction',#99,1.) ;
#114=VECTOR('Line Direction',#113,1.) ;
#142=VECTOR('Line Direction',#141,1.) ;
#166=VECTOR('Line Direction',#165,1.) ;
#180=VECTOR('Line Direction',#179,1.) ;
#213=VECTOR('Line Direction',#212,1.) ;
#302=VECTOR('Line Direction',#301,1.) ;
#329=VECTOR('Line Direction',#328,1.) ;
#336=VECTOR('Line Direction',#335,1.) ;
#383=VECTOR('Line Direction',#382,1.) ;
#397=VECTOR('Line Direction',#396,1.) ;
#15=UNCERTAINTY_MEASURE_WITH_UNIT(LENGTH_MEASURE(0.005),#12,'distance_accuracy_value','CONFUSED CURVE UNCERTAINTY') ;
#435=SHAPE_REPRESENTATION_RELATIONSHIP(' ',' ',#19,#434) ;
#68=ORIENTED_EDGE('',*,*,#61,.F.) ;
#69=ORIENTED_EDGE('',*,*,#66,.F.) ;
#125=ORIENTED_EDGE('',*,*,#85,.T.) ;
#126=ORIENTED_EDGE('',*,*,#92,.F.) ;
#127=ORIENTED_EDGE('',*,*,#97,.T.) ;
#128=ORIENTED_EDGE('',*,*,#61,.T.) ;
#129=ORIENTED_EDGE('',*,*,#104,.T.) ;
#130=ORIENTED_EDGE('',*,*,#111,.F.) ;
#131=ORIENTED_EDGE('',*,*,#118,.T.) ;
#132=ORIENTED_EDGE('',*,*,#123,.F.) ;
#146=ORIENTED_EDGE('',*,*,#66,.T.) ;
#147=ORIENTED_EDGE('',*,*,#97,.F.) ;
#148=ORIENTED_EDGE('',*,*,#144,.F.) ;
#149=ORIENTED_EDGE('',*,*,#104,.F.) ;
#196=ORIENTED_EDGE('',*,*,#118,.F.) ;
#197=ORIENTED_EDGE('',*,*,#163,.F.) ;
#198=ORIENTED_EDGE('',*,*,#170,.T.) ;
#199=ORIENTED_EDGE('',*,*,#177,.T.) ;
#200=ORIENTED_EDGE('',*,*,#184,.T.) ;
#201=ORIENTED_EDGE('',*,*,#189,.F.) ;
#202=ORIENTED_EDGE('',*,*,#85,.F.) ;
#203=ORIENTED_EDGE('',*,*,#194,.F.) ;
#217=ORIENTED_EDGE('',*,*,#163,.T.) ;
#218=ORIENTED_EDGE('',*,*,#111,.T.) ;
#219=ORIENTED_EDGE('',*,*,#144,.T.) ;
#220=ORIENTED_EDGE('',*,*,#92,.T.) ;
#221=ORIENTED_EDGE('',*,*,#189,.T.) ;
#222=ORIENTED_EDGE('',*,*,#215,.T.) ;
#231=ORIENTED_EDGE('',*,*,#194,.T.) ;
#232=ORIENTED_EDGE('',*,*,#123,.T.) ;
#291=ORIENTED_EDGE('',*,*,#263,.F.) ;
#292=ORIENTED_EDGE('',*,*,#289,.F.) ;
#306=ORIENTED_EDGE('',*,*,#184,.F.) ;
#307=ORIENTED_EDGE('',*,*,#304,.T.) ;
#308=ORIENTED_EDGE('',*,*,#170,.F.) ;
#309=ORIENTED_EDGE('',*,*,#215,.F.) ;
#318=ORIENTED_EDGE('',*,*,#177,.F.) ;
#319=ORIENTED_EDGE('',*,*,#304,.F.) ;
#347=ORIENTED_EDGE('',*,*,#333,.T.) ;
#348=ORIENTED_EDGE('',*,*,#263,.T.) ;
#349=ORIENTED_EDGE('',*,*,#340,.T.) ;
#350=ORIENTED_EDGE('',*,*,#345,.F.) ;
#370=ORIENTED_EDGE('',*,*,#340,.F.) ;
#371=ORIENTED_EDGE('',*,*,#289,.T.) ;
#372=ORIENTED_EDGE('',*,*,#333,.F.) ;
#373=ORIENTED_EDGE('',*,*,#368,.F.) ;
#401=ORIENTED_EDGE('',*,*,#387,.F.) ;
#402=ORIENTED_EDGE('',*,*,#394,.F.) ;
#403=ORIENTED_EDGE('',*,*,#399,.F.) ;
#404=ORIENTED_EDGE('',*,*,#345,.T.) ;
#418=ORIENTED_EDGE('',*,*,#399,.T.) ;
#419=ORIENTED_EDGE('',*,*,#416,.F.) ;
#420=ORIENTED_EDGE('',*,*,#387,.T.) ;
#421=ORIENTED_EDGE('',*,*,#368,.T.) ;
#430=ORIENTED_EDGE('',*,*,#416,.T.) ;
#431=ORIENTED_EDGE('',*,*,#394,.T.) ;
#293=FACE_BOUND('',#290,.T.) ;
#47=CLOSED_SHELL('Closed Shell',(#71,#134,#151,#205,#224,#294,#311,#321,#352,#375,#406,#423,#433)) ;
#434=ADVANCED_BREP_SHAPE_REPRESENTATION('NONE',(#38),#16) ;
#71=ADVANCED_FACE('V1',(#70),#52,.F.) ;
#134=ADVANCED_FACE('V1',(#133),#76,.T.) ;
#151=ADVANCED_FACE('V1',(#150),#139,.F.) ;
#205=ADVANCED_FACE('V1',(#204),#156,.T.) ;
#224=ADVANCED_FACE('V1',(#223),#210,.T.) ;
#294=ADVANCED_FACE('V1',(#233,#293),#229,.F.) ;
#311=ADVANCED_FACE('V1',(#310),#299,.F.) ;
#321=ADVANCED_FACE('V1',(#320),#316,.F.) ;
#352=ADVANCED_FACE('V1',(#351),#326,.T.) ;
#375=ADVANCED_FACE('V1',(#374),#357,.T.) ;
#406=ADVANCED_FACE('V1',(#405),#380,.T.) ;
#423=ADVANCED_FACE('V1',(#422),#411,.T.) ;
#433=ADVANCED_FACE('V1',(#432),#428,.F.) ;
#4=APPLICATION_PROTOCOL_DEFINITION('international standard','automotive_design',2001,#1) ;
#234=B_SPLINE_CURVE_WITH_KNOTS('',5,(#235,#236,#237,#238,#239,#240,#241,#242,#243,#244,#245,#246,#247,#248,#249,#250,#251,#252,#253,#254,#255,#256,#257,#258),.UNSPECIFIED.,.F.,.U.,(6,3,3,3,3,3,3,6),(0.,1.64315347874,3.2863069603,4.92946043078,6.57261389544,8.21576737012,9.85892085164,11.1071184951),.UNSPECIFIED.) ;
#264=B_SPLINE_CURVE_WITH_KNOTS('',5,(#265,#266,#267,#268,#269,#270,#271,#272,#273,#274,#275,#276,#277,#278,#279,#280,#281,#282,#283,#284,#285,#286,#287,#288),.UNSPECIFIED.,.F.,.U.,(6,3,3,3,3,3,3,6),(0.,1.64315347874,3.2863069603,4.92946043079,6.57261389545,8.21576737013,9.85892085165,11.1071184951),.UNSPECIFIED.) ;
#358=B_SPLINE_CURVE_WITH_KNOTS('',5,(#359,#360,#361,#362,#363,#364,#365,#366,#367),.UNSPECIFIED.,.F.,.U.,(6,3,6),(-3.92699081699,2.22044604925E-016,3.92699081699),.UNSPECIFIED.) ;
#38=MANIFOLD_SOLID_BREP('V1',#47) ;
#56=CIRCLE('generated circle',#55,4.25000000077) ;
#89=CIRCLE('generated circle',#88,4.25) ;
#108=CIRCLE('generated circle',#107,4.25) ;
#122=CIRCLE('generated circle',#121,4.25) ;
#160=CIRCLE('generated circle',#159,4.25) ;
#174=CIRCLE('generated circle',#173,4.25) ;
#188=CIRCLE('generated circle',#187,4.25) ;
#193=CIRCLE('generated circle',#192,4.25) ;
#344=CIRCLE('generated circle',#343,2.5) ;
#391=CIRCLE('generated circle',#390,2.0095) ;
#415=CIRCLE('generated circle',#414,2.0095) ;
#39=COLOUR_RGB('Colour',0.823529411765,0.823529411765,1.) ;
#380=CONICAL_SURFACE('Cone',#379,2.5,0.785398163397) ;
#411=CONICAL_SURFACE('Cone',#410,2.5,0.785398163397) ;
#26=CONSTRUCTIVE_GEOMETRY_REPRESENTATION('supplemental geometry',(#25,#32,#37),#16) ;
#27=CONSTRUCTIVE_GEOMETRY_REPRESENTATION_RELATIONSHIP('supplemental geometry','',#19,#26) ;
#76=CYLINDRICAL_SURFACE('generated cylinder',#75,4.25) ;
#156=CYLINDRICAL_SURFACE('generated cylinder',#155,4.25) ;
#326=CYLINDRICAL_SURFACE('generated cylinder',#325,2.5) ;
#357=CYLINDRICAL_SURFACE('generated cylinder',#356,2.5) ;
#61=EDGE_CURVE('',#58,#60,#56,.T.) ;
#66=EDGE_CURVE('',#60,#58,#65,.T.) ;
#85=EDGE_CURVE('',#82,#84,#80,.T.) ;
#92=EDGE_CURVE('',#91,#84,#89,.T.) ;
#97=EDGE_CURVE('',#91,#58,#96,.T.) ;
#104=EDGE_CURVE('',#60,#103,#101,.F.) ;
#111=EDGE_CURVE('',#110,#103,#108,.T.) ;
#118=EDGE_CURVE('',#110,#117,#115,.F.) ;
#123=EDGE_CURVE('',#82,#117,#122,.F.) ;
#144=EDGE_CURVE('',#103,#91,#143,.T.) ;
#163=EDGE_CURVE('',#162,#110,#160,.T.) ;
#170=EDGE_CURVE('',#162,#169,#167,.T.) ;
#177=EDGE_CURVE('',#169,#176,#174,.F.) ;
#184=EDGE_CURVE('',#176,#183,#181,.F.) ;
#189=EDGE_CURVE('',#84,#183,#188,.T.) ;
#194=EDGE_CURVE('',#117,#82,#193,.F.) ;
#215=EDGE_CURVE('',#183,#162,#214,.T.) ;
#263=EDGE_CURVE('',#260,#262,#234,.T.) ;
#289=EDGE_CURVE('',#262,#260,#264,.T.) ;
#304=EDGE_CURVE('',#176,#169,#303,.T.) ;
#333=EDGE_CURVE('',#332,#260,#330,.T.) ;
#340=EDGE_CURVE('',#262,#339,#337,.F.) ;
#345=EDGE_CURVE('',#332,#339,#344,.F.) ;
#368=EDGE_CURVE('',#339,#332,#358,.T.) ;
#387=EDGE_CURVE('',#386,#339,#384,.T.) ;
#394=EDGE_CURVE('',#393,#386,#391,.F.) ;
#399=EDGE_CURVE('',#332,#393,#398,.F.) ;
#416=EDGE_CURVE('',#386,#393,#415,.F.) ;
#67=EDGE_LOOP('',(#68,#69)) ;
#124=EDGE_LOOP('',(#125,#126,#127,#128,#129,#130,#131,#132)) ;
#145=EDGE_LOOP('',(#146,#147,#148,#149)) ;
#195=EDGE_LOOP('',(#196,#197,#198,#199,#200,#201,#202,#203)) ;
#216=EDGE_LOOP('',(#217,#218,#219,#220,#221,#222)) ;
#230=EDGE_LOOP('',(#231,#232)) ;
#290=EDGE_LOOP('',(#291,#292)) ;
#305=EDGE_LOOP('',(#306,#307,#308,#309)) ;
#317=EDGE_LOOP('',(#318,#319)) ;
#346=EDGE_LOOP('',(#347,#348,#349,#350)) ;
#369=EDGE_LOOP('',(#370,#371,#372,#373)) ;
#400=EDGE_LOOP('',(#401,#402,#403,#404)) ;
#417=EDGE_LOOP('',(#418,#419,#420,#421)) ;
#429=EDGE_LOOP('',(#430,#431)) ;
#70=FACE_OUTER_BOUND('',#67,.T.) ;
#133=FACE_OUTER_BOUND('',#124,.T.) ;
#150=FACE_OUTER_BOUND('',#145,.T.) ;
#204=FACE_OUTER_BOUND('',#195,.T.) ;
#223=FACE_OUTER_BOUND('',#216,.T.) ;
#233=FACE_OUTER_BOUND('',#230,.T.) ;
#310=FACE_OUTER_BOUND('',#305,.T.) ;
#320=FACE_OUTER_BOUND('',#317,.T.) ;
#351=FACE_OUTER_BOUND('',#346,.T.) ;
#374=FACE_OUTER_BOUND('',#369,.T.) ;
#405=FACE_OUTER_BOUND('',#400,.T.) ;
#422=FACE_OUTER_BOUND('',#417,.T.) ;
#432=FACE_OUTER_BOUND('',#429,.T.) ;
#65=LINE('Line',#62,#64) ;
#80=LINE('Line',#77,#79) ;
#96=LINE('Line',#93,#95) ;
#101=LINE('Line',#98,#100) ;
#115=LINE('Line',#112,#114) ;
#143=LINE('Line',#140,#142) ;
#167=LINE('Line',#164,#166) ;
#181=LINE('Line',#178,#180) ;
#214=LINE('Line',#211,#213) ;
#303=LINE('Line',#300,#302) ;
#330=LINE('Line',#327,#329) ;
#337=LINE('Line',#334,#336) ;
#384=LINE('Line',#381,#383) ;
#398=LINE('Line',#395,#397) ;
#25=PLANE('Referenz_xy',#24) ;
#32=PLANE('Referenz_yz',#31) ;
#37=PLANE('Referenz_xz',#36) ;
#52=PLANE('',#51) ;
#139=PLANE('',#138) ;
#210=PLANE('',#209) ;
#229=PLANE('',#228) ;
#299=PLANE('',#298) ;
#316=PLANE('',#315) ;
#428=PLANE('',#427) ;
#9=PRODUCT_CATEGORY_RELATIONSHIP(' ',' ',#7,#8) ;
#6=PRODUCT_DEFINITION_FORMATION_WITH_SPECIFIED_SOURCE('',' ',#5,.NOT_KNOWN.) ;
#20=SHAPE_DEFINITION_REPRESENTATION(#11,#19) ;
#58=VERTEX_POINT('',#57) ;
#60=VERTEX_POINT('',#59) ;
#82=VERTEX_POINT('',#81) ;
#84=VERTEX_POINT('',#83) ;
#91=VERTEX_POINT('',#90) ;
#103=VERTEX_POINT('',#102) ;
#110=VERTEX_POINT('',#109) ;
#117=VERTEX_POINT('',#116) ;
#162=VERTEX_POINT('',#161) ;
#169=VERTEX_POINT('',#168) ;
#176=VERTEX_POINT('',#175) ;
#183=VERTEX_POINT('',#182) ;
#260=VERTEX_POINT('',#259) ;
#262=VERTEX_POINT('',#261) ;
#332=VERTEX_POINT('',#331) ;
#339=VERTEX_POINT('',#338) ;
#386=VERTEX_POINT('',#385) ;
#393=VERTEX_POINT('',#392) ;
#12=(LENGTH_UNIT()NAMED_UNIT(*)SI_UNIT(.MILLI.,.METRE.)) ;
#13=(NAMED_UNIT(*)PLANE_ANGLE_UNIT()SI_UNIT($,.RADIAN.)) ;
#14=(NAMED_UNIT(*)SI_UNIT($,.STERADIAN.)SOLID_ANGLE_UNIT()) ;
#16=(GEOMETRIC_REPRESENTATION_CONTEXT(3)GLOBAL_UNCERTAINTY_ASSIGNED_CONTEXT((#15))GLOBAL_UNIT_ASSIGNED_CONTEXT((#12,#13,#14))REPRESENTATION_CONTEXT(' ',' ')) ;
ENDSEC;
END-ISO-10303-21;
