ISO-10303-21;
HEADER;
FILE_DESCRIPTION(('CATIA V5R24 STEP','CAx-IF Rec.Pracs.--- Model Styling and Organization---1.2---2011-12-15'),'2;1');

FILE_NAME ('037625-2_1_1397000000_1397000000.stp','2018-09-07T13:06:26+00:00',('none'),('Weidmueller'),'CATIA Version 5-6 Release 2014 SP4 HF52','CATIA V5 STEP AP214','none');

FILE_SCHEMA(('AUTOMOTIVE_DESIGN { 1 0 10303 214 1 1 1 1 }'));

ENDSEC;
DATA;
#5=PRODUCT('1397000000','','',(#2)) ;
#2=PRODUCT_CONTEXT(' ',#1,'mechanical') ;
#1=APPLICATION_CONTEXT('automotive design') ;
#10=PRODUCT_DEFINITION('',' ',#6,#3) ;
#3=PRODUCT_DEFINITION_CONTEXT('part definition',#1,' ') ;
#11=PRODUCT_DEFINITION_SHAPE(' ',' ',#10) ;
#199=MECHANICAL_DESIGN_GEOMETRIC_PRESENTATION_REPRESENTATION(' ',(#46),#16) ;
#19=SHAPE_REPRESENTATION(' ',(#18),#16) ;
#18=AXIS2_PLACEMENT_3D(' ',#17,$,$) ;
#24=AXIS2_PLACEMENT_3D('Plane Axis2P3D',#21,#22,#23) ;
#31=AXIS2_PLACEMENT_3D('Plane Axis2P3D',#28,#29,#30) ;
#36=AXIS2_PLACEMENT_3D('Plane Axis2P3D',#33,#34,#35) ;
#52=AXIS2_PLACEMENT_3D('Plane Axis2P3D',#49,#50,#51) ;
#92=AXIS2_PLACEMENT_3D('Plane Axis2P3D',#89,#90,#91) ;
#123=AXIS2_PLACEMENT_3D('Plane Axis2P3D',#120,#121,#122) ;
#154=AXIS2_PLACEMENT_3D('Plane Axis2P3D',#151,#152,#153) ;
#176=AXIS2_PLACEMENT_3D('Plane Axis2P3D',#173,#174,#175) ;
#188=AXIS2_PLACEMENT_3D('Plane Axis2P3D',#185,#186,#187) ;
#17=CARTESIAN_POINT(' ',(0.,0.,0.)) ;
#21=CARTESIAN_POINT('Axis2P3D Location',(0.,0.,0.)) ;
#28=CARTESIAN_POINT('Axis2P3D Location',(0.,0.,0.)) ;
#33=CARTESIAN_POINT('Axis2P3D Location',(0.,0.,0.)) ;
#49=CARTESIAN_POINT('Axis2P3D Location',(0.,0.,0.)) ;
#54=CARTESIAN_POINT('Line Origine',(1000.,0.,0.)) ;
#58=CARTESIAN_POINT('Vertex',(0.,0.,0.)) ;
#60=CARTESIAN_POINT('Vertex',(2000.,-1.67241483552E-015,0.)) ;
#63=CARTESIAN_POINT('Line Origine',(0.,5.,0.)) ;
#67=CARTESIAN_POINT('Vertex',(0.,10.,0.)) ;
#70=CARTESIAN_POINT('Line Origine',(1000.,10.,0.)) ;
#74=CARTESIAN_POINT('Vertex',(2000.,10.,0.)) ;
#77=CARTESIAN_POINT('Line Origine',(2000.,5.,0.)) ;
#89=CARTESIAN_POINT('Axis2P3D Location',(4.4408920985E-016,10.,0.)) ;
#94=CARTESIAN_POINT('Line Origine',(4.4408920985E-016,10.,1.5)) ;
#98=CARTESIAN_POINT('Vertex',(0.,10.,3.)) ;
#101=CARTESIAN_POINT('Line Origine',(1000.,10.,3.)) ;
#105=CARTESIAN_POINT('Vertex',(2000.,10.,3.)) ;
#108=CARTESIAN_POINT('Line Origine',(2000.,10.,1.5)) ;
#120=CARTESIAN_POINT('Axis2P3D Location',(4.4408920985E-016,10.,3.)) ;
#125=CARTESIAN_POINT('Line Origine',(4.4408920985E-016,5.,3.)) ;
#129=CARTESIAN_POINT('Vertex',(0.,0.,3.)) ;
#132=CARTESIAN_POINT('Line Origine',(1000.,1.7763568394E-015,3.)) ;
#136=CARTESIAN_POINT('Vertex',(2000.,-1.67241483552E-015,3.)) ;
#139=CARTESIAN_POINT('Line Origine',(2000.,5.,3.)) ;
#151=CARTESIAN_POINT('Axis2P3D Location',(0.,0.,3.)) ;
#156=CARTESIAN_POINT('Line Origine',(0.,0.,1.5)) ;
#161=CARTESIAN_POINT('Line Origine',(2000.,0.,1.5)) ;
#173=CARTESIAN_POINT('Axis2P3D Location',(0.,0.,0.)) ;
#185=CARTESIAN_POINT('Axis2P3D Location',(2000.,-1.67241483552E-015,0.)) ;
#22=DIRECTION('Axis2P3D Direction',(0.,0.,1.)) ;
#23=DIRECTION('Axis2P3D XDirection',(1.,0.,0.)) ;
#29=DIRECTION('Axis2P3D Direction',(1.,0.,0.)) ;
#30=DIRECTION('Axis2P3D XDirection',(0.,1.,0.)) ;
#34=DIRECTION('Axis2P3D Direction',(0.,1.,0.)) ;
#35=DIRECTION('Axis2P3D XDirection',(0.,0.,1.)) ;
#50=DIRECTION('Axis2P3D Direction',(0.,0.,-1.)) ;
#51=DIRECTION('Axis2P3D XDirection',(0.,1.,0.)) ;
#55=DIRECTION('Vector Direction',(1.,0.,0.)) ;
#64=DIRECTION('Vector Direction',(0.,1.,0.)) ;
#71=DIRECTION('Vector Direction',(1.,0.,0.)) ;
#78=DIRECTION('Vector Direction',(0.,1.,0.)) ;
#90=DIRECTION('Axis2P3D Direction',(0.,1.,0.)) ;
#91=DIRECTION('Axis2P3D XDirection',(0.,0.,1.)) ;
#95=DIRECTION('Vector Direction',(0.,0.,1.)) ;
#102=DIRECTION('Vector Direction',(1.,0.,0.)) ;
#109=DIRECTION('Vector Direction',(0.,0.,1.)) ;
#121=DIRECTION('Axis2P3D Direction',(-0.,0.,1.)) ;
#122=DIRECTION('Axis2P3D XDirection',(0.,-1.,0.)) ;
#126=DIRECTION('Vector Direction',(0.,-1.,0.)) ;
#133=DIRECTION('Vector Direction',(1.,0.,0.)) ;
#140=DIRECTION('Vector Direction',(0.,-1.,0.)) ;
#152=DIRECTION('Axis2P3D Direction',(0.,-1.,0.)) ;
#153=DIRECTION('Axis2P3D XDirection',(0.,0.,-1.)) ;
#157=DIRECTION('Vector Direction',(0.,0.,-1.)) ;
#162=DIRECTION('Vector Direction',(0.,0.,-1.)) ;
#174=DIRECTION('Axis2P3D Direction',(1.,0.,0.)) ;
#175=DIRECTION('Axis2P3D XDirection',(0.,1.,0.)) ;
#186=DIRECTION('Axis2P3D Direction',(1.,0.,0.)) ;
#187=DIRECTION('Axis2P3D XDirection',(0.,1.,0.)) ;
#47=PRESENTATION_LAYER_ASSIGNMENT('1',' ',(#38)) ;
#8=PRODUCT_RELATED_PRODUCT_CATEGORY('part',$,(#5)) ;
#7=PRODUCT_CATEGORY('part','specification') ;
#46=STYLED_ITEM(' ',(#45),#38) ;
#45=PRESENTATION_STYLE_ASSIGNMENT((#44)) ;
#44=SURFACE_STYLE_USAGE(.BOTH.,#43) ;
#43=SURFACE_SIDE_STYLE(' ',(#42)) ;
#42=SURFACE_STYLE_FILL_AREA(#41) ;
#41=FILL_AREA_STYLE(' ',(#40)) ;
#40=FILL_AREA_STYLE_COLOUR(' ',#39) ;
#56=VECTOR('Line Direction',#55,1.) ;
#65=VECTOR('Line Direction',#64,1.) ;
#72=VECTOR('Line Direction',#71,1.) ;
#79=VECTOR('Line Direction',#78,1.) ;
#96=VECTOR('Line Direction',#95,1.) ;
#103=VECTOR('Line Direction',#102,1.) ;
#110=VECTOR('Line Direction',#109,1.) ;
#127=VECTOR('Line Direction',#126,1.) ;
#134=VECTOR('Line Direction',#133,1.) ;
#141=VECTOR('Line Direction',#140,1.) ;
#158=VECTOR('Line Direction',#157,1.) ;
#163=VECTOR('Line Direction',#162,1.) ;
#15=UNCERTAINTY_MEASURE_WITH_UNIT(LENGTH_MEASURE(0.005),#12,'distance_accuracy_value','CONFUSED CURVE UNCERTAINTY') ;
#198=SHAPE_REPRESENTATION_RELATIONSHIP(' ',' ',#19,#197) ;
#83=ORIENTED_EDGE('',*,*,#62,.F.) ;
#84=ORIENTED_EDGE('',*,*,#69,.T.) ;
#85=ORIENTED_EDGE('',*,*,#76,.T.) ;
#86=ORIENTED_EDGE('',*,*,#81,.F.) ;
#114=ORIENTED_EDGE('',*,*,#76,.F.) ;
#115=ORIENTED_EDGE('',*,*,#100,.T.) ;
#116=ORIENTED_EDGE('',*,*,#107,.T.) ;
#117=ORIENTED_EDGE('',*,*,#112,.F.) ;
#145=ORIENTED_EDGE('',*,*,#107,.F.) ;
#146=ORIENTED_EDGE('',*,*,#131,.T.) ;
#147=ORIENTED_EDGE('',*,*,#138,.T.) ;
#148=ORIENTED_EDGE('',*,*,#143,.F.) ;
#167=ORIENTED_EDGE('',*,*,#138,.F.) ;
#168=ORIENTED_EDGE('',*,*,#160,.T.) ;
#169=ORIENTED_EDGE('',*,*,#62,.T.) ;
#170=ORIENTED_EDGE('',*,*,#165,.F.) ;
#179=ORIENTED_EDGE('',*,*,#160,.F.) ;
#180=ORIENTED_EDGE('',*,*,#131,.F.) ;
#181=ORIENTED_EDGE('',*,*,#100,.F.) ;
#182=ORIENTED_EDGE('',*,*,#69,.F.) ;
#191=ORIENTED_EDGE('',*,*,#81,.T.) ;
#192=ORIENTED_EDGE('',*,*,#112,.T.) ;
#193=ORIENTED_EDGE('',*,*,#143,.T.) ;
#194=ORIENTED_EDGE('',*,*,#165,.T.) ;
#48=CLOSED_SHELL('Closed Shell',(#88,#119,#150,#172,#184,#196)) ;
#197=ADVANCED_BREP_SHAPE_REPRESENTATION('NONE',(#38),#16) ;
#88=ADVANCED_FACE('Koerper.2',(#87),#53,.T.) ;
#119=ADVANCED_FACE('Koerper.2',(#118),#93,.T.) ;
#150=ADVANCED_FACE('Koerper.2',(#149),#124,.T.) ;
#172=ADVANCED_FACE('Koerper.2',(#171),#155,.T.) ;
#184=ADVANCED_FACE('Koerper.2',(#183),#177,.F.) ;
#196=ADVANCED_FACE('Koerper.2',(#195),#189,.T.) ;
#4=APPLICATION_PROTOCOL_DEFINITION('international standard','automotive_design',2001,#1) ;
#38=MANIFOLD_SOLID_BREP('Koerper.2',#48) ;
#39=COLOUR_RGB('Colour',0.823529411765,0.823529411765,1.) ;
#26=CONSTRUCTIVE_GEOMETRY_REPRESENTATION('supplemental geometry',(#25,#32,#37),#16) ;
#27=CONSTRUCTIVE_GEOMETRY_REPRESENTATION_RELATIONSHIP('supplemental geometry','',#19,#26) ;
#62=EDGE_CURVE('',#59,#61,#57,.T.) ;
#69=EDGE_CURVE('',#59,#68,#66,.T.) ;
#76=EDGE_CURVE('',#68,#75,#73,.T.) ;
#81=EDGE_CURVE('',#61,#75,#80,.T.) ;
#100=EDGE_CURVE('',#68,#99,#97,.T.) ;
#107=EDGE_CURVE('',#99,#106,#104,.T.) ;
#112=EDGE_CURVE('',#75,#106,#111,.T.) ;
#131=EDGE_CURVE('',#99,#130,#128,.T.) ;
#138=EDGE_CURVE('',#130,#137,#135,.T.) ;
#143=EDGE_CURVE('',#106,#137,#142,.T.) ;
#160=EDGE_CURVE('',#130,#59,#159,.T.) ;
#165=EDGE_CURVE('',#137,#61,#164,.T.) ;
#82=EDGE_LOOP('',(#83,#84,#85,#86)) ;
#113=EDGE_LOOP('',(#114,#115,#116,#117)) ;
#144=EDGE_LOOP('',(#145,#146,#147,#148)) ;
#166=EDGE_LOOP('',(#167,#168,#169,#170)) ;
#178=EDGE_LOOP('',(#179,#180,#181,#182)) ;
#190=EDGE_LOOP('',(#191,#192,#193,#194)) ;
#87=FACE_OUTER_BOUND('',#82,.T.) ;
#118=FACE_OUTER_BOUND('',#113,.T.) ;
#149=FACE_OUTER_BOUND('',#144,.T.) ;
#171=FACE_OUTER_BOUND('',#166,.T.) ;
#183=FACE_OUTER_BOUND('',#178,.T.) ;
#195=FACE_OUTER_BOUND('',#190,.T.) ;
#57=LINE('Line',#54,#56) ;
#66=LINE('Line',#63,#65) ;
#73=LINE('Line',#70,#72) ;
#80=LINE('Line',#77,#79) ;
#97=LINE('Line',#94,#96) ;
#104=LINE('Line',#101,#103) ;
#111=LINE('Line',#108,#110) ;
#128=LINE('Line',#125,#127) ;
#135=LINE('Line',#132,#134) ;
#142=LINE('Line',#139,#141) ;
#159=LINE('Line',#156,#158) ;
#164=LINE('Line',#161,#163) ;
#25=PLANE('Referenz_xy',#24) ;
#32=PLANE('Referenz_yz',#31) ;
#37=PLANE('Referenz_zx',#36) ;
#53=PLANE('',#52) ;
#93=PLANE('',#92) ;
#124=PLANE('',#123) ;
#155=PLANE('',#154) ;
#177=PLANE('',#176) ;
#189=PLANE('',#188) ;
#9=PRODUCT_CATEGORY_RELATIONSHIP(' ',' ',#7,#8) ;
#6=PRODUCT_DEFINITION_FORMATION_WITH_SPECIFIED_SOURCE('',' ',#5,.NOT_KNOWN.) ;
#20=SHAPE_DEFINITION_REPRESENTATION(#11,#19) ;
#59=VERTEX_POINT('',#58) ;
#61=VERTEX_POINT('',#60) ;
#68=VERTEX_POINT('',#67) ;
#75=VERTEX_POINT('',#74) ;
#99=VERTEX_POINT('',#98) ;
#106=VERTEX_POINT('',#105) ;
#130=VERTEX_POINT('',#129) ;
#137=VERTEX_POINT('',#136) ;
#12=(LENGTH_UNIT()NAMED_UNIT(*)SI_UNIT(.MILLI.,.METRE.)) ;
#13=(NAMED_UNIT(*)PLANE_ANGLE_UNIT()SI_UNIT($,.RADIAN.)) ;
#14=(NAMED_UNIT(*)SI_UNIT($,.STERADIAN.)SOLID_ANGLE_UNIT()) ;
#16=(GEOMETRIC_REPRESENTATION_CONTEXT(3)GLOBAL_UNCERTAINTY_ASSIGNED_CONTEXT((#15))GLOBAL_UNIT_ASSIGNED_CONTEXT((#12,#13,#14))REPRESENTATION_CONTEXT(' ',' ')) ;
ENDSEC;
END-ISO-10303-21;
