ISO-10303-21;
HEADER;
FILE_DESCRIPTION(('CATIA V5 STEP Exchange','CAx-IF Rec.Pracs.--- Model Styling and Organization---1.4--- 2014-01-23'),'2;1');

FILE_NAME ('1461210-6_0', '2022-10-01T09:00:11+00:00', ('none'), ('Weidmueller'), 'CATIA Version 5-6 Release 2016 SP3 HF44', 'CATIA V5 STEP AP214', 'none');

FILE_SCHEMA(('AUTOMOTIVE_DESIGN { 1 0 10303 214 1 1 1 1 }'));

ENDSEC;
DATA;
#5=PRODUCT('77913_THM_SE-M_25_BL','','GERAETEMARKIERER',(#2)) ;
#2=PRODUCT_CONTEXT(' ',#1,'mechanical') ;
#1=APPLICATION_CONTEXT('automotive design') ;
#10=PRODUCT_DEFINITION('',' ',#6,#3) ;
#3=PRODUCT_DEFINITION_CONTEXT('part definition',#1,' ') ;
#11=PRODUCT_DEFINITION_SHAPE(' ',' ',#10) ;
#269=MECHANICAL_DESIGN_GEOMETRIC_PRESENTATION_REPRESENTATION(' ',(#79,#97,#108,#119,#29,#165,#197,#229,#252,#260,#268,#123),#16) ;
#19=SHAPE_REPRESENTATION(' ',(#18),#16) ;
#18=AXIS2_PLACEMENT_3D(' ',#17,$,$) ;
#35=AXIS2_PLACEMENT_3D('Cylinder Axis2P3D',#32,#33,#34) ;
#48=AXIS2_PLACEMENT_3D('Circle Axis2P3D',#46,#47,$) ;
#62=AXIS2_PLACEMENT_3D('Circle Axis2P3D',#60,#61,$) ;
#82=AXIS2_PLACEMENT_3D('Circle Axis2P3D',#80,#81,$) ;
#87=AXIS2_PLACEMENT_3D('Circle Axis2P3D',#85,#86,$) ;
#101=AXIS2_PLACEMENT_3D('Plane Axis2P3D',#98,#99,#100) ;
#112=AXIS2_PLACEMENT_3D('Plane Axis2P3D',#109,#110,#111) ;
#128=AXIS2_PLACEMENT_3D('Plane Axis2P3D',#125,#126,#127) ;
#169=AXIS2_PLACEMENT_3D('Plane Axis2P3D',#166,#167,#168) ;
#201=AXIS2_PLACEMENT_3D('Plane Axis2P3D',#198,#199,#200) ;
#233=AXIS2_PLACEMENT_3D('Plane Axis2P3D',#230,#231,#232) ;
#17=CARTESIAN_POINT(' ',(0.,0.,0.)) ;
#32=CARTESIAN_POINT('Axis2P3D Location',(12.5,30.5,0.025)) ;
#37=CARTESIAN_POINT('Line Origine',(25.,30.5,0.025)) ;
#41=CARTESIAN_POINT('Vertex',(25.,30.5,0.)) ;
#43=CARTESIAN_POINT('Vertex',(25.,30.5,0.05)) ;
#46=CARTESIAN_POINT('Axis2P3D Location',(12.5,30.5,0.)) ;
#50=CARTESIAN_POINT('Vertex',(0.,30.5,0.)) ;
#53=CARTESIAN_POINT('Line Origine',(0.,30.5,0.025)) ;
#57=CARTESIAN_POINT('Vertex',(0.,30.5,0.05)) ;
#60=CARTESIAN_POINT('Axis2P3D Location',(12.5,30.5,0.05)) ;
#80=CARTESIAN_POINT('Axis2P3D Location',(12.5,30.5,0.)) ;
#85=CARTESIAN_POINT('Axis2P3D Location',(12.5,30.5,0.05)) ;
#98=CARTESIAN_POINT('Axis2P3D Location',(12.5,30.5,0.)) ;
#109=CARTESIAN_POINT('Axis2P3D Location',(12.5,30.5,0.05)) ;
#125=CARTESIAN_POINT('Axis2P3D Location',(0.,15.,0.)) ;
#130=CARTESIAN_POINT('Line Origine',(0.,15.,0.025)) ;
#134=CARTESIAN_POINT('Vertex',(0.,15.,0.)) ;
#136=CARTESIAN_POINT('Vertex',(0.,15.,0.05)) ;
#139=CARTESIAN_POINT('Line Origine',(0.,7.5,0.)) ;
#143=CARTESIAN_POINT('Vertex',(0.,0.,0.)) ;
#146=CARTESIAN_POINT('Line Origine',(0.,0.,0.025)) ;
#150=CARTESIAN_POINT('Vertex',(0.,0.,0.05)) ;
#153=CARTESIAN_POINT('Line Origine',(0.,7.5,0.05)) ;
#166=CARTESIAN_POINT('Axis2P3D Location',(25.,0.,0.)) ;
#171=CARTESIAN_POINT('Line Origine',(12.5,0.,0.)) ;
#175=CARTESIAN_POINT('Vertex',(25.,0.,0.)) ;
#178=CARTESIAN_POINT('Line Origine',(25.,0.,0.025)) ;
#182=CARTESIAN_POINT('Vertex',(25.,0.,0.05)) ;
#185=CARTESIAN_POINT('Line Origine',(12.5,0.,0.05)) ;
#198=CARTESIAN_POINT('Axis2P3D Location',(25.,-3.5527136788E-015,0.)) ;
#203=CARTESIAN_POINT('Line Origine',(25.,7.5,0.)) ;
#207=CARTESIAN_POINT('Vertex',(25.,15.,0.)) ;
#210=CARTESIAN_POINT('Line Origine',(25.,15.,0.025)) ;
#214=CARTESIAN_POINT('Vertex',(25.,15.,0.05)) ;
#217=CARTESIAN_POINT('Line Origine',(25.,7.5,0.05)) ;
#230=CARTESIAN_POINT('Axis2P3D Location',(1.7763568394E-015,15.,0.)) ;
#235=CARTESIAN_POINT('Line Origine',(12.5,15.,0.)) ;
#240=CARTESIAN_POINT('Line Origine',(12.5,15.,0.05)) ;
#33=DIRECTION('Axis2P3D Direction',(0.,0.,1.)) ;
#34=DIRECTION('Axis2P3D XDirection',(1.,0.,0.)) ;
#38=DIRECTION('Vector Direction',(0.,0.,1.)) ;
#47=DIRECTION('Axis2P3D Direction',(0.,0.,1.)) ;
#54=DIRECTION('Vector Direction',(0.,0.,1.)) ;
#61=DIRECTION('Axis2P3D Direction',(0.,0.,1.)) ;
#81=DIRECTION('Axis2P3D Direction',(0.,0.,1.)) ;
#86=DIRECTION('Axis2P3D Direction',(0.,0.,1.)) ;
#99=DIRECTION('Axis2P3D Direction',(0.,0.,1.)) ;
#100=DIRECTION('Axis2P3D XDirection',(1.,0.,0.)) ;
#110=DIRECTION('Axis2P3D Direction',(0.,0.,1.)) ;
#111=DIRECTION('Axis2P3D XDirection',(1.,0.,0.)) ;
#126=DIRECTION('Axis2P3D Direction',(-1.,0.,0.)) ;
#127=DIRECTION('Axis2P3D XDirection',(0.,-1.,0.)) ;
#131=DIRECTION('Vector Direction',(0.,0.,1.)) ;
#140=DIRECTION('Vector Direction',(0.,-1.,0.)) ;
#147=DIRECTION('Vector Direction',(0.,0.,1.)) ;
#154=DIRECTION('Vector Direction',(0.,-1.,0.)) ;
#167=DIRECTION('Axis2P3D Direction',(0.,1.,-0.)) ;
#168=DIRECTION('Axis2P3D XDirection',(-1.,0.,0.)) ;
#172=DIRECTION('Vector Direction',(-1.,0.,0.)) ;
#179=DIRECTION('Vector Direction',(0.,0.,1.)) ;
#186=DIRECTION('Vector Direction',(-1.,0.,0.)) ;
#199=DIRECTION('Axis2P3D Direction',(1.,0.,0.)) ;
#200=DIRECTION('Axis2P3D XDirection',(0.,1.,0.)) ;
#204=DIRECTION('Vector Direction',(0.,1.,0.)) ;
#211=DIRECTION('Vector Direction',(0.,0.,1.)) ;
#218=DIRECTION('Vector Direction',(0.,1.,0.)) ;
#231=DIRECTION('Axis2P3D Direction',(0.,-1.,0.)) ;
#232=DIRECTION('Axis2P3D XDirection',(1.,0.,0.)) ;
#236=DIRECTION('Vector Direction',(1.,0.,0.)) ;
#241=DIRECTION('Vector Direction',(1.,0.,0.)) ;
#30=PRESENTATION_LAYER_ASSIGNMENT('1',' ',(#21,#122)) ;
#8=PRODUCT_RELATED_PRODUCT_CATEGORY('part',$,(#5)) ;
#7=PRODUCT_CATEGORY('part','specification') ;
#29=STYLED_ITEM(' ',(#28),#21) ;
#123=STYLED_ITEM(' ',(#28),#122) ;
#28=PRESENTATION_STYLE_ASSIGNMENT((#27)) ;
#78=PRESENTATION_STYLE_ASSIGNMENT((#77)) ;
#27=SURFACE_STYLE_USAGE(.BOTH.,#26) ;
#77=SURFACE_STYLE_USAGE(.BOTH.,#76) ;
#26=SURFACE_SIDE_STYLE(' ',(#25)) ;
#76=SURFACE_SIDE_STYLE(' ',(#75)) ;
#25=SURFACE_STYLE_FILL_AREA(#24) ;
#75=SURFACE_STYLE_FILL_AREA(#74) ;
#24=FILL_AREA_STYLE(' ',(#23)) ;
#74=FILL_AREA_STYLE(' ',(#73)) ;
#23=FILL_AREA_STYLE_COLOUR(' ',#22) ;
#73=FILL_AREA_STYLE_COLOUR(' ',#72) ;
#39=VECTOR('Line Direction',#38,1.) ;
#55=VECTOR('Line Direction',#54,1.) ;
#132=VECTOR('Line Direction',#131,1.) ;
#141=VECTOR('Line Direction',#140,1.) ;
#148=VECTOR('Line Direction',#147,1.) ;
#155=VECTOR('Line Direction',#154,1.) ;
#173=VECTOR('Line Direction',#172,1.) ;
#180=VECTOR('Line Direction',#179,1.) ;
#187=VECTOR('Line Direction',#186,1.) ;
#205=VECTOR('Line Direction',#204,1.) ;
#212=VECTOR('Line Direction',#211,1.) ;
#219=VECTOR('Line Direction',#218,1.) ;
#237=VECTOR('Line Direction',#236,1.) ;
#242=VECTOR('Line Direction',#241,1.) ;
#15=UNCERTAINTY_MEASURE_WITH_UNIT(LENGTH_MEASURE(0.005),#12,'distance_accuracy_value','CONFUSED CURVE UNCERTAINTY') ;
#121=SHAPE_REPRESENTATION_RELATIONSHIP(' ',' ',#19,#120) ;
#66=ORIENTED_EDGE('',*,*,#45,.F.) ;
#67=ORIENTED_EDGE('',*,*,#52,.T.) ;
#68=ORIENTED_EDGE('',*,*,#59,.T.) ;
#69=ORIENTED_EDGE('',*,*,#64,.F.) ;
#91=ORIENTED_EDGE('',*,*,#59,.F.) ;
#92=ORIENTED_EDGE('',*,*,#84,.T.) ;
#93=ORIENTED_EDGE('',*,*,#45,.T.) ;
#94=ORIENTED_EDGE('',*,*,#89,.F.) ;
#104=ORIENTED_EDGE('',*,*,#84,.F.) ;
#105=ORIENTED_EDGE('',*,*,#52,.F.) ;
#115=ORIENTED_EDGE('',*,*,#64,.T.) ;
#116=ORIENTED_EDGE('',*,*,#89,.T.) ;
#159=ORIENTED_EDGE('',*,*,#138,.F.) ;
#160=ORIENTED_EDGE('',*,*,#145,.T.) ;
#161=ORIENTED_EDGE('',*,*,#152,.T.) ;
#162=ORIENTED_EDGE('',*,*,#157,.F.) ;
#191=ORIENTED_EDGE('',*,*,#152,.F.) ;
#192=ORIENTED_EDGE('',*,*,#177,.T.) ;
#193=ORIENTED_EDGE('',*,*,#184,.T.) ;
#194=ORIENTED_EDGE('',*,*,#189,.F.) ;
#223=ORIENTED_EDGE('',*,*,#184,.F.) ;
#224=ORIENTED_EDGE('',*,*,#209,.T.) ;
#225=ORIENTED_EDGE('',*,*,#216,.T.) ;
#226=ORIENTED_EDGE('',*,*,#221,.F.) ;
#246=ORIENTED_EDGE('',*,*,#216,.F.) ;
#247=ORIENTED_EDGE('',*,*,#239,.T.) ;
#248=ORIENTED_EDGE('',*,*,#138,.T.) ;
#249=ORIENTED_EDGE('',*,*,#244,.F.) ;
#254=ORIENTED_EDGE('',*,*,#239,.F.) ;
#255=ORIENTED_EDGE('',*,*,#209,.F.) ;
#256=ORIENTED_EDGE('',*,*,#177,.F.) ;
#257=ORIENTED_EDGE('',*,*,#145,.F.) ;
#262=ORIENTED_EDGE('',*,*,#157,.T.) ;
#263=ORIENTED_EDGE('',*,*,#189,.T.) ;
#264=ORIENTED_EDGE('',*,*,#221,.T.) ;
#265=ORIENTED_EDGE('',*,*,#244,.T.) ;
#31=CLOSED_SHELL('Closed Shell',(#71,#96,#107,#118)) ;
#124=CLOSED_SHELL('Closed Shell',(#164,#196,#228,#251,#259,#267)) ;
#120=ADVANCED_BREP_SHAPE_REPRESENTATION('NONE',(#21,#122),#16) ;
#71=ADVANCED_FACE('S3D positioniert',(#70),#36,.T.) ;
#96=ADVANCED_FACE('S3D positioniert',(#95),#36,.T.) ;
#107=ADVANCED_FACE('S3D positioniert',(#106),#102,.F.) ;
#118=ADVANCED_FACE('S3D positioniert',(#117),#113,.T.) ;
#164=ADVANCED_FACE('S3D positioniert',(#163),#129,.T.) ;
#196=ADVANCED_FACE('S3D positioniert',(#195),#170,.F.) ;
#228=ADVANCED_FACE('S3D positioniert',(#227),#202,.T.) ;
#251=ADVANCED_FACE('S3D positioniert',(#250),#234,.F.) ;
#259=ADVANCED_FACE('S3D positioniert',(#258),#102,.F.) ;
#267=ADVANCED_FACE('S3D positioniert',(#266),#113,.T.) ;
#4=APPLICATION_PROTOCOL_DEFINITION('international standard','automotive_design',2001,#1) ;
#21=MANIFOLD_SOLID_BREP('S3D positioniert.1',#31) ;
#122=MANIFOLD_SOLID_BREP('S3D positioniert.2',#124) ;
#49=CIRCLE('generated circle',#48,12.5) ;
#63=CIRCLE('generated circle',#62,12.5) ;
#83=CIRCLE('generated circle',#82,12.5) ;
#88=CIRCLE('generated circle',#87,12.5) ;
#22=COLOUR_RGB('Colour',0.823529411765,0.823529411765,1.) ;
#72=COLOUR_RGB('Colour',0.,0.501960784314,1.) ;
#79=OVER_RIDING_STYLED_ITEM(' ',(#78),#71,#29) ;
#97=OVER_RIDING_STYLED_ITEM(' ',(#78),#96,#29) ;
#108=OVER_RIDING_STYLED_ITEM(' ',(#78),#107,#29) ;
#119=OVER_RIDING_STYLED_ITEM(' ',(#78),#118,#29) ;
#165=OVER_RIDING_STYLED_ITEM(' ',(#78),#164,#123) ;
#197=OVER_RIDING_STYLED_ITEM(' ',(#78),#196,#123) ;
#229=OVER_RIDING_STYLED_ITEM(' ',(#78),#228,#123) ;
#252=OVER_RIDING_STYLED_ITEM(' ',(#78),#251,#123) ;
#260=OVER_RIDING_STYLED_ITEM(' ',(#78),#259,#123) ;
#268=OVER_RIDING_STYLED_ITEM(' ',(#78),#267,#123) ;
#36=CYLINDRICAL_SURFACE('generated cylinder',#35,12.5) ;
#45=EDGE_CURVE('',#42,#44,#40,.T.) ;
#52=EDGE_CURVE('',#42,#51,#49,.T.) ;
#59=EDGE_CURVE('',#51,#58,#56,.T.) ;
#64=EDGE_CURVE('',#44,#58,#63,.T.) ;
#84=EDGE_CURVE('',#51,#42,#83,.T.) ;
#89=EDGE_CURVE('',#58,#44,#88,.T.) ;
#138=EDGE_CURVE('',#135,#137,#133,.T.) ;
#145=EDGE_CURVE('',#135,#144,#142,.T.) ;
#152=EDGE_CURVE('',#144,#151,#149,.T.) ;
#157=EDGE_CURVE('',#137,#151,#156,.T.) ;
#177=EDGE_CURVE('',#144,#176,#174,.F.) ;
#184=EDGE_CURVE('',#176,#183,#181,.T.) ;
#189=EDGE_CURVE('',#151,#183,#188,.F.) ;
#209=EDGE_CURVE('',#176,#208,#206,.T.) ;
#216=EDGE_CURVE('',#208,#215,#213,.T.) ;
#221=EDGE_CURVE('',#183,#215,#220,.T.) ;
#239=EDGE_CURVE('',#208,#135,#238,.F.) ;
#244=EDGE_CURVE('',#215,#137,#243,.F.) ;
#65=EDGE_LOOP('',(#66,#67,#68,#69)) ;
#90=EDGE_LOOP('',(#91,#92,#93,#94)) ;
#103=EDGE_LOOP('',(#104,#105)) ;
#114=EDGE_LOOP('',(#115,#116)) ;
#158=EDGE_LOOP('',(#159,#160,#161,#162)) ;
#190=EDGE_LOOP('',(#191,#192,#193,#194)) ;
#222=EDGE_LOOP('',(#223,#224,#225,#226)) ;
#245=EDGE_LOOP('',(#246,#247,#248,#249)) ;
#253=EDGE_LOOP('',(#254,#255,#256,#257)) ;
#261=EDGE_LOOP('',(#262,#263,#264,#265)) ;
#70=FACE_OUTER_BOUND('',#65,.T.) ;
#95=FACE_OUTER_BOUND('',#90,.T.) ;
#106=FACE_OUTER_BOUND('',#103,.T.) ;
#117=FACE_OUTER_BOUND('',#114,.T.) ;
#163=FACE_OUTER_BOUND('',#158,.T.) ;
#195=FACE_OUTER_BOUND('',#190,.T.) ;
#227=FACE_OUTER_BOUND('',#222,.T.) ;
#250=FACE_OUTER_BOUND('',#245,.T.) ;
#258=FACE_OUTER_BOUND('',#253,.T.) ;
#266=FACE_OUTER_BOUND('',#261,.T.) ;
#40=LINE('Line',#37,#39) ;
#56=LINE('Line',#53,#55) ;
#133=LINE('Line',#130,#132) ;
#142=LINE('Line',#139,#141) ;
#149=LINE('Line',#146,#148) ;
#156=LINE('Line',#153,#155) ;
#174=LINE('Line',#171,#173) ;
#181=LINE('Line',#178,#180) ;
#188=LINE('Line',#185,#187) ;
#206=LINE('Line',#203,#205) ;
#213=LINE('Line',#210,#212) ;
#220=LINE('Line',#217,#219) ;
#238=LINE('Line',#235,#237) ;
#243=LINE('Line',#240,#242) ;
#102=PLANE('',#101) ;
#113=PLANE('',#112) ;
#129=PLANE('',#128) ;
#170=PLANE('',#169) ;
#202=PLANE('',#201) ;
#234=PLANE('',#233) ;
#9=PRODUCT_CATEGORY_RELATIONSHIP(' ',' ',#7,#8) ;
#6=PRODUCT_DEFINITION_FORMATION_WITH_SPECIFIED_SOURCE('',' ',#5,.BOUGHT.) ;
#20=SHAPE_DEFINITION_REPRESENTATION(#11,#19) ;
#42=VERTEX_POINT('',#41) ;
#44=VERTEX_POINT('',#43) ;
#51=VERTEX_POINT('',#50) ;
#58=VERTEX_POINT('',#57) ;
#135=VERTEX_POINT('',#134) ;
#137=VERTEX_POINT('',#136) ;
#144=VERTEX_POINT('',#143) ;
#151=VERTEX_POINT('',#150) ;
#176=VERTEX_POINT('',#175) ;
#183=VERTEX_POINT('',#182) ;
#208=VERTEX_POINT('',#207) ;
#215=VERTEX_POINT('',#214) ;
#12=(LENGTH_UNIT()NAMED_UNIT(*)SI_UNIT(.MILLI.,.METRE.)) ;
#13=(NAMED_UNIT(*)PLANE_ANGLE_UNIT()SI_UNIT($,.RADIAN.)) ;
#14=(NAMED_UNIT(*)SI_UNIT($,.STERADIAN.)SOLID_ANGLE_UNIT()) ;
#16=(GEOMETRIC_REPRESENTATION_CONTEXT(3)GLOBAL_UNCERTAINTY_ASSIGNED_CONTEXT((#15))GLOBAL_UNIT_ASSIGNED_CONTEXT((#12,#13,#14))REPRESENTATION_CONTEXT(' ',' ')) ;
ENDSEC;
END-ISO-10303-21;
