ISO-10303-21;
HEADER;
FILE_DESCRIPTION(('CATIA V5R19 STEP'),'2;1');

FILE_NAME ('D1454349_0_1670380000_1670380000.stp','2015-11-03T07:40:53+00:00',('none'),('Weidmueller'),'CATIA Version 5 Release 20 SP 5 (IN-10)','CATIA V5 STEP AP214','none');

FILE_SCHEMA(('AUTOMOTIVE_DESIGN { 1 0 10303 214 1 1 1 1 }'));

ENDSEC;
/* file written by CATIA V5R20 */
DATA;
#5=PRODUCT('ESO 5 POLY F. SCHT 5','','<Q-CHECKER_SEAL> Q-Checker Version 2.14.8  \X2\000A\X0\CATIA-Version         : Catia V5 R20 SP5 Build Date 01-06-2014.17.15\X2\000A\X0\Model size (in KByte) : 0\X2\000A\X0\Checking date         : 2015-01-14 12:13:21\X2\000A\X0\Checking profile      : ADMIN / Release_2D-3D [CATPart]\X2\000A\X0\Model assessment      : In Ordnung (IO)\X2\000A\X0\Total weight sum      : 0\X2\000A\X0\<CROSS_CHECK_SUM>\X2\000A\X0\  <CHKSUM_DATE> -68143967 </CHKSUM_DATE>\X2\000A\X0\  <CHKSUM_ENTITIES> -2058001663 </CHKSUM_ENTITIES>\X2\000A\X0\  <CHKSUM_PROFILE> 1594213346 </CHKSUM_PROFILE>\X2\000A\X0\  <CHKSUM_DIMENSION> -186917087 </CHKSUM_DIMENSION>\X2\000A\X0\  <CHKSUM_PROJINTERSEC> -896974048 </CHKSUM_PROJINTERSEC>\X2\000A\X0\  <CHKSUM_IDENTCRV> -896974048 </CHKSUM_IDENTCRV>\X2\000A\X0\  <CHKSUM_INFINITY> 138018827 </CHKSUM_INFINITY>\X2\000A\X0\</CROSS_CHECK_SUM>\X2\000A\X0\</Q-CHECKER_SEAL> \X2\000A\X0\ \X2\000D\X0\\X2\000A\X0\ \X2\000D\X0\\X2\000A\X0\ \X2\000D\X0\\X2\000A\X0\ \X2\000D\X0\\X2\000A\X0\',(#2)) ;
#2=PRODUCT_CONTEXT(' ',#1,'mechanical') ;
#1=APPLICATION_CONTEXT('automotive design') ;
#10=PRODUCT_DEFINITION('',' ',#6,#3) ;
#3=PRODUCT_DEFINITION_CONTEXT('part definition',#1,' ') ;
#11=PRODUCT_DEFINITION_SHAPE(' ',' ',#10) ;
#226=MECHANICAL_DESIGN_GEOMETRIC_PRESENTATION_REPRESENTATION(' ',(#80,#118,#149,#180,#204,#223,#30),#17) ;
#20=SHAPE_REPRESENTATION(' ',(#19),#17) ;
#19=AXIS2_PLACEMENT_3D(' ',#18,$,$) ;
#36=AXIS2_PLACEMENT_3D('Plane Axis2P3D',#33,#34,#35) ;
#84=AXIS2_PLACEMENT_3D('Plane Axis2P3D',#81,#82,#83) ;
#122=AXIS2_PLACEMENT_3D('Plane Axis2P3D',#119,#120,#121) ;
#153=AXIS2_PLACEMENT_3D('Plane Axis2P3D',#150,#151,#152) ;
#184=AXIS2_PLACEMENT_3D('Plane Axis2P3D',#181,#182,#183) ;
#208=AXIS2_PLACEMENT_3D('Plane Axis2P3D',#205,#206,#207) ;
#18=CARTESIAN_POINT(' ',(0.,0.,0.)) ;
#33=CARTESIAN_POINT('Axis2P3D Location',(16.25,39.75,4.97512762154E-016)) ;
#38=CARTESIAN_POINT('Line Origine',(16.25,39.75,0.0650000004098)) ;
#42=CARTESIAN_POINT('Vertex',(16.25,39.75,4.97512762154E-016)) ;
#44=CARTESIAN_POINT('Vertex',(16.25,39.75,0.13000000082)) ;
#47=CARTESIAN_POINT('Line Origine',(8.125,39.75,1.24935845864E-028)) ;
#51=CARTESIAN_POINT('Vertex',(0.,39.75,-4.97512762154E-016)) ;
#54=CARTESIAN_POINT('Line Origine',(-3.98010212232E-018,39.75,0.0650000004098)) ;
#58=CARTESIAN_POINT('Vertex',(-7.96020424465E-018,39.75,0.13000000082)) ;
#61=CARTESIAN_POINT('Line Origine',(8.125,39.75,0.13000000082)) ;
#81=CARTESIAN_POINT('Axis2P3D Location',(16.25,39.75,4.97512762154E-016)) ;
#86=CARTESIAN_POINT('Line Origine',(16.25,2.43710966219E-034,0.0650000004098)) ;
#90=CARTESIAN_POINT('Vertex',(16.25,-9.95025524308E-016,4.97512762154E-016)) ;
#92=CARTESIAN_POINT('Vertex',(16.25,-9.95025524308E-016,0.13000000082)) ;
#95=CARTESIAN_POINT('Line Origine',(16.25,19.875,4.97512762154E-016)) ;
#100=CARTESIAN_POINT('Line Origine',(16.25,19.875,0.13000000082)) ;
#119=CARTESIAN_POINT('Axis2P3D Location',(8.125,19.875,0.)) ;
#124=CARTESIAN_POINT('Line Origine',(8.125,0.,0.)) ;
#128=CARTESIAN_POINT('Vertex',(-1.7763568394E-015,3.5527136788E-015,-4.97512762154E-016)) ;
#131=CARTESIAN_POINT('Line Origine',(0.,19.875,-4.97512762154E-016)) ;
#150=CARTESIAN_POINT('Axis2P3D Location',(-1.7763568394E-015,3.5527136788E-015,-4.97512762154E-016)) ;
#155=CARTESIAN_POINT('Line Origine',(-1.78033694152E-015,3.5527136788E-015,0.0650000004098)) ;
#159=CARTESIAN_POINT('Vertex',(-1.78431704364E-015,3.5527136788E-015,0.13000000082)) ;
#162=CARTESIAN_POINT('Line Origine',(-5.67324286991E-016,19.875,0.13000000082)) ;
#181=CARTESIAN_POINT('Axis2P3D Location',(8.125,19.875,0.13)) ;
#186=CARTESIAN_POINT('Line Origine',(8.125,0.,0.13)) ;
#205=CARTESIAN_POINT('Axis2P3D Location',(-3.5527136788E-015,0.,-4.97512762154E-016)) ;
#34=DIRECTION('Axis2P3D Direction',(6.12323399574E-017,1.,0.)) ;
#35=DIRECTION('Axis2P3D XDirection',(-1.,6.12323399574E-017,-6.12323399574E-017)) ;
#39=DIRECTION('Vector Direction',(0.,0.,1.)) ;
#48=DIRECTION('Vector Direction',(-1.,0.,-6.12323399574E-017)) ;
#55=DIRECTION('Vector Direction',(-6.12323399574E-017,0.,1.)) ;
#62=DIRECTION('Vector Direction',(-1.,0.,-6.148927521E-017)) ;
#82=DIRECTION('Axis2P3D Direction',(-1.,6.12323399574E-017,-6.12323399574E-017)) ;
#83=DIRECTION('Axis2P3D XDirection',(-6.12323399574E-017,-1.,0.)) ;
#87=DIRECTION('Vector Direction',(0.,3.74939945666E-033,1.)) ;
#96=DIRECTION('Vector Direction',(-8.93764447497E-017,-1.,0.)) ;
#101=DIRECTION('Vector Direction',(-8.93764447497E-017,-1.,0.)) ;
#120=DIRECTION('Axis2P3D Direction',(-6.12323399574E-017,3.74939945666E-033,1.)) ;
#121=DIRECTION('Axis2P3D XDirection',(-6.12323399574E-017,-1.,0.)) ;
#125=DIRECTION('Vector Direction',(1.,-6.12323399574E-017,6.12323399574E-017)) ;
#132=DIRECTION('Vector Direction',(8.93764447497E-017,1.,0.)) ;
#151=DIRECTION('Axis2P3D Direction',(1.,-6.12323399574E-017,6.12323399574E-017)) ;
#152=DIRECTION('Axis2P3D XDirection',(6.12323399574E-017,1.,0.)) ;
#156=DIRECTION('Vector Direction',(-6.12323399574E-017,0.,1.)) ;
#163=DIRECTION('Vector Direction',(6.12323399574E-017,1.,0.)) ;
#182=DIRECTION('Axis2P3D Direction',(-6.12323399574E-017,3.74939945666E-033,1.)) ;
#183=DIRECTION('Axis2P3D XDirection',(-6.12323399574E-017,-1.,0.)) ;
#187=DIRECTION('Vector Direction',(1.,-6.12323399574E-017,6.148927521E-017)) ;
#206=DIRECTION('Axis2P3D Direction',(-6.12323399574E-017,-1.,0.)) ;
#207=DIRECTION('Axis2P3D XDirection',(1.,-6.12323399574E-017,6.12323399574E-017)) ;
#31=PRESENTATION_LAYER_ASSIGNMENT('1',' ',(#22)) ;
#8=PRODUCT_RELATED_PRODUCT_CATEGORY('part',$,(#5)) ;
#7=PRODUCT_CATEGORY('part','specification') ;
#30=STYLED_ITEM(' ',(#29),#22) ;
#29=PRESENTATION_STYLE_ASSIGNMENT((#28)) ;
#79=PRESENTATION_STYLE_ASSIGNMENT((#78)) ;
#117=PRESENTATION_STYLE_ASSIGNMENT((#116)) ;
#148=PRESENTATION_STYLE_ASSIGNMENT((#147)) ;
#179=PRESENTATION_STYLE_ASSIGNMENT((#178)) ;
#203=PRESENTATION_STYLE_ASSIGNMENT((#202)) ;
#222=PRESENTATION_STYLE_ASSIGNMENT((#221)) ;
#28=SURFACE_STYLE_USAGE(.BOTH.,#27) ;
#78=SURFACE_STYLE_USAGE(.BOTH.,#77) ;
#116=SURFACE_STYLE_USAGE(.BOTH.,#115) ;
#147=SURFACE_STYLE_USAGE(.BOTH.,#146) ;
#178=SURFACE_STYLE_USAGE(.BOTH.,#177) ;
#202=SURFACE_STYLE_USAGE(.BOTH.,#201) ;
#221=SURFACE_STYLE_USAGE(.BOTH.,#220) ;
#27=SURFACE_SIDE_STYLE(' ',(#26)) ;
#77=SURFACE_SIDE_STYLE(' ',(#76)) ;
#115=SURFACE_SIDE_STYLE(' ',(#114)) ;
#146=SURFACE_SIDE_STYLE(' ',(#145)) ;
#177=SURFACE_SIDE_STYLE(' ',(#176)) ;
#201=SURFACE_SIDE_STYLE(' ',(#200)) ;
#220=SURFACE_SIDE_STYLE(' ',(#219)) ;
#26=SURFACE_STYLE_FILL_AREA(#25) ;
#76=SURFACE_STYLE_FILL_AREA(#75) ;
#114=SURFACE_STYLE_FILL_AREA(#113) ;
#145=SURFACE_STYLE_FILL_AREA(#144) ;
#176=SURFACE_STYLE_FILL_AREA(#175) ;
#200=SURFACE_STYLE_FILL_AREA(#199) ;
#219=SURFACE_STYLE_FILL_AREA(#218) ;
#25=FILL_AREA_STYLE(' ',(#24)) ;
#75=FILL_AREA_STYLE(' ',(#74)) ;
#113=FILL_AREA_STYLE(' ',(#112)) ;
#144=FILL_AREA_STYLE(' ',(#143)) ;
#175=FILL_AREA_STYLE(' ',(#174)) ;
#199=FILL_AREA_STYLE(' ',(#198)) ;
#218=FILL_AREA_STYLE(' ',(#217)) ;
#24=FILL_AREA_STYLE_COLOUR(' ',#23) ;
#74=FILL_AREA_STYLE_COLOUR(' ',#73) ;
#112=FILL_AREA_STYLE_COLOUR(' ',#73) ;
#143=FILL_AREA_STYLE_COLOUR(' ',#73) ;
#174=FILL_AREA_STYLE_COLOUR(' ',#73) ;
#198=FILL_AREA_STYLE_COLOUR(' ',#73) ;
#217=FILL_AREA_STYLE_COLOUR(' ',#73) ;
#40=VECTOR('Line Direction',#39,1.) ;
#49=VECTOR('Line Direction',#48,1.) ;
#56=VECTOR('Line Direction',#55,1.) ;
#63=VECTOR('Line Direction',#62,1.) ;
#88=VECTOR('Line Direction',#87,1.) ;
#97=VECTOR('Line Direction',#96,1.) ;
#102=VECTOR('Line Direction',#101,1.) ;
#126=VECTOR('Line Direction',#125,1.) ;
#133=VECTOR('Line Direction',#132,1.) ;
#157=VECTOR('Line Direction',#156,1.) ;
#164=VECTOR('Line Direction',#163,1.) ;
#188=VECTOR('Line Direction',#187,1.) ;
#16=UNCERTAINTY_MEASURE_WITH_UNIT(LENGTH_MEASURE(0.005),#12,'distance_accuracy_value','CONFUSED CURVE UNCERTAINTY') ;
#225=SHAPE_REPRESENTATION_RELATIONSHIP(' ',' ',#20,#224) ;
#67=ORIENTED_EDGE('',*,*,#46,.F.) ;
#68=ORIENTED_EDGE('',*,*,#53,.T.) ;
#69=ORIENTED_EDGE('',*,*,#60,.T.) ;
#70=ORIENTED_EDGE('',*,*,#65,.F.) ;
#106=ORIENTED_EDGE('',*,*,#94,.F.) ;
#107=ORIENTED_EDGE('',*,*,#99,.T.) ;
#108=ORIENTED_EDGE('',*,*,#46,.T.) ;
#109=ORIENTED_EDGE('',*,*,#104,.F.) ;
#137=ORIENTED_EDGE('',*,*,#99,.F.) ;
#138=ORIENTED_EDGE('',*,*,#130,.F.) ;
#139=ORIENTED_EDGE('',*,*,#135,.F.) ;
#140=ORIENTED_EDGE('',*,*,#53,.F.) ;
#168=ORIENTED_EDGE('',*,*,#60,.F.) ;
#169=ORIENTED_EDGE('',*,*,#135,.T.) ;
#170=ORIENTED_EDGE('',*,*,#161,.T.) ;
#171=ORIENTED_EDGE('',*,*,#166,.F.) ;
#192=ORIENTED_EDGE('',*,*,#65,.T.) ;
#193=ORIENTED_EDGE('',*,*,#166,.T.) ;
#194=ORIENTED_EDGE('',*,*,#190,.T.) ;
#195=ORIENTED_EDGE('',*,*,#104,.T.) ;
#211=ORIENTED_EDGE('',*,*,#161,.F.) ;
#212=ORIENTED_EDGE('',*,*,#130,.T.) ;
#213=ORIENTED_EDGE('',*,*,#94,.T.) ;
#214=ORIENTED_EDGE('',*,*,#190,.F.) ;
#32=CLOSED_SHELL('Closed Shell',(#72,#111,#142,#173,#197,#216)) ;
#224=ADVANCED_BREP_SHAPE_REPRESENTATION('NONE',(#22),#17) ;
#72=ADVANCED_FACE('S3D - gedreht',(#71),#37,.T.) ;
#111=ADVANCED_FACE('S3D - gedreht',(#110),#85,.F.) ;
#142=ADVANCED_FACE('S3D - gedreht',(#141),#123,.F.) ;
#173=ADVANCED_FACE('S3D - gedreht',(#172),#154,.F.) ;
#197=ADVANCED_FACE('S3D - gedreht',(#196),#185,.T.) ;
#216=ADVANCED_FACE('S3D - gedreht',(#215),#209,.T.) ;
#4=APPLICATION_PROTOCOL_DEFINITION('international standard','automotive_design',2001,#1) ;
#22=MANIFOLD_SOLID_BREP('S3D - gedreht',#32) ;
#23=COLOUR_RGB('Colour',0.823529411765,0.823529411765,1.) ;
#80=OVER_RIDING_STYLED_ITEM(' ',(#79),#72,#30) ;
#118=OVER_RIDING_STYLED_ITEM(' ',(#117),#111,#30) ;
#149=OVER_RIDING_STYLED_ITEM(' ',(#148),#142,#30) ;
#180=OVER_RIDING_STYLED_ITEM(' ',(#179),#173,#30) ;
#204=OVER_RIDING_STYLED_ITEM(' ',(#203),#197,#30) ;
#223=OVER_RIDING_STYLED_ITEM(' ',(#222),#216,#30) ;
#73=DRAUGHTING_PRE_DEFINED_COLOUR('yellow') ;
#46=EDGE_CURVE('',#43,#45,#41,.T.) ;
#53=EDGE_CURVE('',#43,#52,#50,.T.) ;
#60=EDGE_CURVE('',#52,#59,#57,.T.) ;
#65=EDGE_CURVE('',#45,#59,#64,.T.) ;
#94=EDGE_CURVE('',#91,#93,#89,.T.) ;
#99=EDGE_CURVE('',#91,#43,#98,.F.) ;
#104=EDGE_CURVE('',#93,#45,#103,.F.) ;
#130=EDGE_CURVE('',#129,#91,#127,.T.) ;
#135=EDGE_CURVE('',#52,#129,#134,.F.) ;
#161=EDGE_CURVE('',#129,#160,#158,.T.) ;
#166=EDGE_CURVE('',#59,#160,#165,.F.) ;
#190=EDGE_CURVE('',#160,#93,#189,.T.) ;
#66=EDGE_LOOP('',(#67,#68,#69,#70)) ;
#105=EDGE_LOOP('',(#106,#107,#108,#109)) ;
#136=EDGE_LOOP('',(#137,#138,#139,#140)) ;
#167=EDGE_LOOP('',(#168,#169,#170,#171)) ;
#191=EDGE_LOOP('',(#192,#193,#194,#195)) ;
#210=EDGE_LOOP('',(#211,#212,#213,#214)) ;
#71=FACE_OUTER_BOUND('',#66,.T.) ;
#110=FACE_OUTER_BOUND('',#105,.T.) ;
#141=FACE_OUTER_BOUND('',#136,.T.) ;
#172=FACE_OUTER_BOUND('',#167,.T.) ;
#196=FACE_OUTER_BOUND('',#191,.T.) ;
#215=FACE_OUTER_BOUND('',#210,.T.) ;
#41=LINE('Line',#38,#40) ;
#50=LINE('Line',#47,#49) ;
#57=LINE('Line',#54,#56) ;
#64=LINE('Line',#61,#63) ;
#89=LINE('Line',#86,#88) ;
#98=LINE('Line',#95,#97) ;
#103=LINE('Line',#100,#102) ;
#127=LINE('Line',#124,#126) ;
#134=LINE('Line',#131,#133) ;
#158=LINE('Line',#155,#157) ;
#165=LINE('Line',#162,#164) ;
#189=LINE('Line',#186,#188) ;
#37=PLANE('',#36) ;
#85=PLANE('',#84) ;
#123=PLANE('',#122) ;
#154=PLANE('',#153) ;
#185=PLANE('',#184) ;
#209=PLANE('',#208) ;
#14=PLANE_ANGLE_MEASURE_WITH_UNIT(PLANE_ANGLE_MEASURE(0.0174532925199),#13) ;
#9=PRODUCT_CATEGORY_RELATIONSHIP(' ',' ',#7,#8) ;
#6=PRODUCT_DEFINITION_FORMATION_WITH_SPECIFIED_SOURCE('',' ',#5,.NOT_KNOWN.) ;
#21=SHAPE_DEFINITION_REPRESENTATION(#11,#20) ;
#43=VERTEX_POINT('',#42) ;
#45=VERTEX_POINT('',#44) ;
#52=VERTEX_POINT('',#51) ;
#59=VERTEX_POINT('',#58) ;
#91=VERTEX_POINT('',#90) ;
#93=VERTEX_POINT('',#92) ;
#129=VERTEX_POINT('',#128) ;
#160=VERTEX_POINT('',#159) ;
#12=(LENGTH_UNIT()NAMED_UNIT(*)SI_UNIT(.MILLI.,.METRE.)) ;
#13=(NAMED_UNIT(*)PLANE_ANGLE_UNIT()SI_UNIT($,.RADIAN.)) ;
#15=(NAMED_UNIT(*)SI_UNIT($,.STERADIAN.)SOLID_ANGLE_UNIT()) ;
#17=(GEOMETRIC_REPRESENTATION_CONTEXT(3)GLOBAL_UNCERTAINTY_ASSIGNED_CONTEXT((#16))GLOBAL_UNIT_ASSIGNED_CONTEXT((#12,#13,#15))REPRESENTATION_CONTEXT(' ',' ')) ;
ENDSEC;
END-ISO-10303-21;
