ISO-10303-21;
HEADER;
FILE_DESCRIPTION(('CATIA V5 STEP Exchange','CAx-IF Rec.Pracs.--- Model Styling and Organization---1.4--- 2014-01-23'),'2;1');

FILE_NAME ('011418-6_0', '2022-08-09T06:53:19+00:00', ('none'), ('Weidmueller'), 'CATIA Version 5-6 Release 2016 SP3 HF44', 'CATIA V5 STEP AP214', 'none');

FILE_SCHEMA(('AUTOMOTIVE_DESIGN { 1 0 10303 214 1 1 1 1 }'));

ENDSEC;
DATA;
#5=PRODUCT('55339_CC-M_85X54_4X3_AL','','MetalliCard',(#2)) ;
#2=PRODUCT_CONTEXT(' ',#1,'mechanical') ;
#1=APPLICATION_CONTEXT('automotive design') ;
#10=PRODUCT_DEFINITION('',' ',#6,#3) ;
#3=PRODUCT_DEFINITION_CONTEXT('part definition',#1,' ') ;
#11=PRODUCT_DEFINITION_SHAPE(' ',' ',#10) ;
#442=MECHANICAL_DESIGN_GEOMETRIC_PRESENTATION_REPRESENTATION(' ',(#29),#16) ;
#19=SHAPE_REPRESENTATION(' ',(#18),#16) ;
#18=AXIS2_PLACEMENT_3D(' ',#17,$,$) ;
#35=AXIS2_PLACEMENT_3D('Cylinder Axis2P3D',#32,#33,#34) ;
#39=AXIS2_PLACEMENT_3D('Circle Axis2P3D',#37,#38,$) ;
#55=AXIS2_PLACEMENT_3D('Circle Axis2P3D',#53,#54,$) ;
#74=AXIS2_PLACEMENT_3D('Circle Axis2P3D',#72,#73,$) ;
#79=AXIS2_PLACEMENT_3D('Circle Axis2P3D',#77,#78,$) ;
#92=AXIS2_PLACEMENT_3D('Plane Axis2P3D',#89,#90,#91) ;
#134=AXIS2_PLACEMENT_3D('Circle Axis2P3D',#132,#133,$) ;
#143=AXIS2_PLACEMENT_3D('Circle Axis2P3D',#141,#142,$) ;
#152=AXIS2_PLACEMENT_3D('Circle Axis2P3D',#150,#151,$) ;
#161=AXIS2_PLACEMENT_3D('Circle Axis2P3D',#159,#160,$) ;
#170=AXIS2_PLACEMENT_3D('Circle Axis2P3D',#168,#169,$) ;
#179=AXIS2_PLACEMENT_3D('Circle Axis2P3D',#177,#178,$) ;
#190=AXIS2_PLACEMENT_3D('Plane Axis2P3D',#187,#188,#189) ;
#221=AXIS2_PLACEMENT_3D('Plane Axis2P3D',#218,#219,#220) ;
#245=AXIS2_PLACEMENT_3D('Plane Axis2P3D',#242,#243,#244) ;
#269=AXIS2_PLACEMENT_3D('Plane Axis2P3D',#266,#267,#268) ;
#286=AXIS2_PLACEMENT_3D('Cylinder Axis2P3D',#283,#284,#285) ;
#290=AXIS2_PLACEMENT_3D('Circle Axis2P3D',#288,#289,$) ;
#316=AXIS2_PLACEMENT_3D('Circle Axis2P3D',#314,#315,$) ;
#329=AXIS2_PLACEMENT_3D('Cylinder Axis2P3D',#326,#327,#328) ;
#333=AXIS2_PLACEMENT_3D('Circle Axis2P3D',#331,#332,$) ;
#359=AXIS2_PLACEMENT_3D('Circle Axis2P3D',#357,#358,$) ;
#372=AXIS2_PLACEMENT_3D('Cylinder Axis2P3D',#369,#370,#371) ;
#376=AXIS2_PLACEMENT_3D('Circle Axis2P3D',#374,#375,$) ;
#402=AXIS2_PLACEMENT_3D('Circle Axis2P3D',#400,#401,$) ;
#415=AXIS2_PLACEMENT_3D('Plane Axis2P3D',#412,#413,#414) ;
#17=CARTESIAN_POINT(' ',(0.,0.,0.)) ;
#32=CARTESIAN_POINT('Axis2P3D Location',(3.8,50.5,-0.41000000076)) ;
#37=CARTESIAN_POINT('Axis2P3D Location',(3.8,50.5,0.)) ;
#41=CARTESIAN_POINT('Vertex',(2.15,50.5,-5.55111512313E-017)) ;
#43=CARTESIAN_POINT('Vertex',(5.45,50.5,0.)) ;
#46=CARTESIAN_POINT('Line Origine',(2.15,50.5,-0.41000000076)) ;
#50=CARTESIAN_POINT('Vertex',(2.15,50.5,0.5)) ;
#53=CARTESIAN_POINT('Axis2P3D Location',(3.8,50.5,0.5)) ;
#57=CARTESIAN_POINT('Vertex',(5.45,50.5,0.5)) ;
#60=CARTESIAN_POINT('Line Origine',(5.45,50.5,-0.41000000076)) ;
#72=CARTESIAN_POINT('Axis2P3D Location',(3.8,50.5,0.)) ;
#77=CARTESIAN_POINT('Axis2P3D Location',(3.8,50.5,0.5)) ;
#89=CARTESIAN_POINT('Axis2P3D Location',(42.8,27.,0.5)) ;
#94=CARTESIAN_POINT('Line Origine',(0.,27.,0.5)) ;
#98=CARTESIAN_POINT('Vertex',(0.,54.,0.5)) ;
#100=CARTESIAN_POINT('Vertex',(0.,0.,0.5)) ;
#103=CARTESIAN_POINT('Line Origine',(42.8,0.,0.5)) ;
#107=CARTESIAN_POINT('Vertex',(85.6,0.,0.5)) ;
#110=CARTESIAN_POINT('Line Origine',(85.6,27.,0.5)) ;
#114=CARTESIAN_POINT('Vertex',(85.6,54.,0.5)) ;
#117=CARTESIAN_POINT('Line Origine',(42.8,54.,0.5)) ;
#132=CARTESIAN_POINT('Axis2P3D Location',(81.8,50.5,0.5)) ;
#136=CARTESIAN_POINT('Vertex',(80.15,50.5,0.5)) ;
#138=CARTESIAN_POINT('Vertex',(83.45,50.5,0.5)) ;
#141=CARTESIAN_POINT('Axis2P3D Location',(81.8,50.5,0.5)) ;
#150=CARTESIAN_POINT('Axis2P3D Location',(3.8,3.5,0.5)) ;
#154=CARTESIAN_POINT('Vertex',(5.45,3.5,0.5)) ;
#156=CARTESIAN_POINT('Vertex',(2.15,3.5,0.5)) ;
#159=CARTESIAN_POINT('Axis2P3D Location',(3.8,3.5,0.5)) ;
#168=CARTESIAN_POINT('Axis2P3D Location',(81.8,3.5,0.5)) ;
#172=CARTESIAN_POINT('Vertex',(80.15,3.5,0.5)) ;
#174=CARTESIAN_POINT('Vertex',(83.45,3.5,0.5)) ;
#177=CARTESIAN_POINT('Axis2P3D Location',(81.8,3.5,0.5)) ;
#187=CARTESIAN_POINT('Axis2P3D Location',(0.,54.,0.)) ;
#192=CARTESIAN_POINT('Line Origine',(0.,54.,0.25)) ;
#196=CARTESIAN_POINT('Vertex',(0.,54.,0.)) ;
#199=CARTESIAN_POINT('Line Origine',(0.,27.,0.)) ;
#203=CARTESIAN_POINT('Vertex',(0.,0.,0.)) ;
#206=CARTESIAN_POINT('Line Origine',(0.,0.,0.25)) ;
#218=CARTESIAN_POINT('Axis2P3D Location',(85.6,0.,0.)) ;
#223=CARTESIAN_POINT('Line Origine',(42.8,0.,0.)) ;
#227=CARTESIAN_POINT('Vertex',(85.6,0.,0.)) ;
#230=CARTESIAN_POINT('Line Origine',(85.6,0.,0.25)) ;
#242=CARTESIAN_POINT('Axis2P3D Location',(85.6,0.,0.)) ;
#247=CARTESIAN_POINT('Line Origine',(85.6,27.,0.)) ;
#251=CARTESIAN_POINT('Vertex',(85.6,54.,0.)) ;
#254=CARTESIAN_POINT('Line Origine',(85.6,54.,0.25)) ;
#266=CARTESIAN_POINT('Axis2P3D Location',(0.,54.,0.)) ;
#271=CARTESIAN_POINT('Line Origine',(42.8,54.,0.)) ;
#283=CARTESIAN_POINT('Axis2P3D Location',(81.8,3.5,-0.41000000076)) ;
#288=CARTESIAN_POINT('Axis2P3D Location',(81.8,3.5,0.)) ;
#292=CARTESIAN_POINT('Vertex',(83.45,3.5,-5.55111512313E-017)) ;
#294=CARTESIAN_POINT('Vertex',(80.15,3.5,0.)) ;
#297=CARTESIAN_POINT('Line Origine',(83.45,3.5,-0.41000000076)) ;
#302=CARTESIAN_POINT('Line Origine',(80.15,3.5,-0.41000000076)) ;
#314=CARTESIAN_POINT('Axis2P3D Location',(81.8,3.5,0.)) ;
#326=CARTESIAN_POINT('Axis2P3D Location',(3.8,3.5,-0.41000000076)) ;
#331=CARTESIAN_POINT('Axis2P3D Location',(3.8,3.5,0.)) ;
#335=CARTESIAN_POINT('Vertex',(2.15,3.5,-5.55111512313E-017)) ;
#337=CARTESIAN_POINT('Vertex',(5.45,3.5,0.)) ;
#340=CARTESIAN_POINT('Line Origine',(2.15,3.5,-0.41000000076)) ;
#345=CARTESIAN_POINT('Line Origine',(5.45,3.5,-0.41000000076)) ;
#357=CARTESIAN_POINT('Axis2P3D Location',(3.8,3.5,0.)) ;
#369=CARTESIAN_POINT('Axis2P3D Location',(81.8,50.5,-0.41000000076)) ;
#374=CARTESIAN_POINT('Axis2P3D Location',(81.8,50.5,0.)) ;
#378=CARTESIAN_POINT('Vertex',(83.45,50.5,-5.55111512313E-017)) ;
#380=CARTESIAN_POINT('Vertex',(80.15,50.5,0.)) ;
#383=CARTESIAN_POINT('Line Origine',(83.45,50.5,-0.41000000076)) ;
#388=CARTESIAN_POINT('Line Origine',(80.15,50.5,-0.41000000076)) ;
#400=CARTESIAN_POINT('Axis2P3D Location',(81.8,50.5,0.)) ;
#412=CARTESIAN_POINT('Axis2P3D Location',(42.8,27.,0.)) ;
#33=DIRECTION('Axis2P3D Direction',(0.,0.,1.)) ;
#34=DIRECTION('Axis2P3D XDirection',(1.,0.,0.)) ;
#38=DIRECTION('Axis2P3D Direction',(0.,0.,1.)) ;
#47=DIRECTION('Vector Direction',(0.,0.,1.)) ;
#54=DIRECTION('Axis2P3D Direction',(0.,0.,1.)) ;
#61=DIRECTION('Vector Direction',(0.,0.,1.)) ;
#73=DIRECTION('Axis2P3D Direction',(0.,0.,1.)) ;
#78=DIRECTION('Axis2P3D Direction',(0.,0.,1.)) ;
#90=DIRECTION('Axis2P3D Direction',(0.,0.,1.)) ;
#91=DIRECTION('Axis2P3D XDirection',(1.,0.,0.)) ;
#95=DIRECTION('Vector Direction',(0.,-1.,0.)) ;
#104=DIRECTION('Vector Direction',(-1.,0.,0.)) ;
#111=DIRECTION('Vector Direction',(0.,1.,0.)) ;
#118=DIRECTION('Vector Direction',(1.,0.,0.)) ;
#133=DIRECTION('Axis2P3D Direction',(0.,0.,1.)) ;
#142=DIRECTION('Axis2P3D Direction',(0.,0.,1.)) ;
#151=DIRECTION('Axis2P3D Direction',(0.,0.,1.)) ;
#160=DIRECTION('Axis2P3D Direction',(0.,0.,1.)) ;
#169=DIRECTION('Axis2P3D Direction',(0.,0.,1.)) ;
#178=DIRECTION('Axis2P3D Direction',(0.,0.,1.)) ;
#188=DIRECTION('Axis2P3D Direction',(-1.,0.,0.)) ;
#189=DIRECTION('Axis2P3D XDirection',(0.,-1.,0.)) ;
#193=DIRECTION('Vector Direction',(0.,0.,1.)) ;
#200=DIRECTION('Vector Direction',(0.,-1.,0.)) ;
#207=DIRECTION('Vector Direction',(0.,0.,1.)) ;
#219=DIRECTION('Axis2P3D Direction',(0.,1.,-0.)) ;
#220=DIRECTION('Axis2P3D XDirection',(-1.,0.,0.)) ;
#224=DIRECTION('Vector Direction',(-1.,0.,0.)) ;
#231=DIRECTION('Vector Direction',(0.,0.,1.)) ;
#243=DIRECTION('Axis2P3D Direction',(1.,0.,0.)) ;
#244=DIRECTION('Axis2P3D XDirection',(0.,1.,0.)) ;
#248=DIRECTION('Vector Direction',(0.,1.,0.)) ;
#255=DIRECTION('Vector Direction',(0.,0.,1.)) ;
#267=DIRECTION('Axis2P3D Direction',(0.,-1.,0.)) ;
#268=DIRECTION('Axis2P3D XDirection',(1.,0.,0.)) ;
#272=DIRECTION('Vector Direction',(1.,0.,0.)) ;
#284=DIRECTION('Axis2P3D Direction',(0.,0.,1.)) ;
#285=DIRECTION('Axis2P3D XDirection',(-1.,1.22464679915E-016,0.)) ;
#289=DIRECTION('Axis2P3D Direction',(0.,0.,1.)) ;
#298=DIRECTION('Vector Direction',(0.,0.,1.)) ;
#303=DIRECTION('Vector Direction',(0.,0.,1.)) ;
#315=DIRECTION('Axis2P3D Direction',(0.,0.,1.)) ;
#327=DIRECTION('Axis2P3D Direction',(0.,0.,1.)) ;
#328=DIRECTION('Axis2P3D XDirection',(1.,0.,0.)) ;
#332=DIRECTION('Axis2P3D Direction',(0.,0.,1.)) ;
#341=DIRECTION('Vector Direction',(0.,0.,1.)) ;
#346=DIRECTION('Vector Direction',(0.,0.,1.)) ;
#358=DIRECTION('Axis2P3D Direction',(0.,0.,1.)) ;
#370=DIRECTION('Axis2P3D Direction',(0.,0.,1.)) ;
#371=DIRECTION('Axis2P3D XDirection',(-1.,1.22464679915E-016,0.)) ;
#375=DIRECTION('Axis2P3D Direction',(0.,0.,1.)) ;
#384=DIRECTION('Vector Direction',(0.,0.,1.)) ;
#389=DIRECTION('Vector Direction',(0.,0.,1.)) ;
#401=DIRECTION('Axis2P3D Direction',(0.,0.,1.)) ;
#413=DIRECTION('Axis2P3D Direction',(0.,0.,1.)) ;
#414=DIRECTION('Axis2P3D XDirection',(1.,0.,0.)) ;
#30=PRESENTATION_LAYER_ASSIGNMENT('1',' ',(#21)) ;
#8=PRODUCT_RELATED_PRODUCT_CATEGORY('part',$,(#5)) ;
#7=PRODUCT_CATEGORY('part','specification') ;
#29=STYLED_ITEM(' ',(#28),#21) ;
#28=PRESENTATION_STYLE_ASSIGNMENT((#27)) ;
#27=SURFACE_STYLE_USAGE(.BOTH.,#26) ;
#26=SURFACE_SIDE_STYLE(' ',(#25)) ;
#25=SURFACE_STYLE_FILL_AREA(#24) ;
#24=FILL_AREA_STYLE(' ',(#23)) ;
#23=FILL_AREA_STYLE_COLOUR(' ',#22) ;
#48=VECTOR('Line Direction',#47,1.) ;
#62=VECTOR('Line Direction',#61,1.) ;
#96=VECTOR('Line Direction',#95,1.) ;
#105=VECTOR('Line Direction',#104,1.) ;
#112=VECTOR('Line Direction',#111,1.) ;
#119=VECTOR('Line Direction',#118,1.) ;
#194=VECTOR('Line Direction',#193,1.) ;
#201=VECTOR('Line Direction',#200,1.) ;
#208=VECTOR('Line Direction',#207,1.) ;
#225=VECTOR('Line Direction',#224,1.) ;
#232=VECTOR('Line Direction',#231,1.) ;
#249=VECTOR('Line Direction',#248,1.) ;
#256=VECTOR('Line Direction',#255,1.) ;
#273=VECTOR('Line Direction',#272,1.) ;
#299=VECTOR('Line Direction',#298,1.) ;
#304=VECTOR('Line Direction',#303,1.) ;
#342=VECTOR('Line Direction',#341,1.) ;
#347=VECTOR('Line Direction',#346,1.) ;
#385=VECTOR('Line Direction',#384,1.) ;
#390=VECTOR('Line Direction',#389,1.) ;
#15=UNCERTAINTY_MEASURE_WITH_UNIT(LENGTH_MEASURE(0.005),#12,'distance_accuracy_value','CONFUSED CURVE UNCERTAINTY') ;
#441=SHAPE_REPRESENTATION_RELATIONSHIP(' ',' ',#19,#440) ;
#66=ORIENTED_EDGE('',*,*,#45,.F.) ;
#67=ORIENTED_EDGE('',*,*,#52,.F.) ;
#68=ORIENTED_EDGE('',*,*,#59,.T.) ;
#69=ORIENTED_EDGE('',*,*,#64,.T.) ;
#83=ORIENTED_EDGE('',*,*,#76,.F.) ;
#84=ORIENTED_EDGE('',*,*,#64,.F.) ;
#85=ORIENTED_EDGE('',*,*,#81,.T.) ;
#86=ORIENTED_EDGE('',*,*,#52,.T.) ;
#123=ORIENTED_EDGE('',*,*,#102,.T.) ;
#124=ORIENTED_EDGE('',*,*,#109,.T.) ;
#125=ORIENTED_EDGE('',*,*,#116,.T.) ;
#126=ORIENTED_EDGE('',*,*,#121,.T.) ;
#129=ORIENTED_EDGE('',*,*,#81,.F.) ;
#130=ORIENTED_EDGE('',*,*,#59,.F.) ;
#147=ORIENTED_EDGE('',*,*,#140,.F.) ;
#148=ORIENTED_EDGE('',*,*,#145,.F.) ;
#165=ORIENTED_EDGE('',*,*,#158,.F.) ;
#166=ORIENTED_EDGE('',*,*,#163,.F.) ;
#183=ORIENTED_EDGE('',*,*,#176,.F.) ;
#184=ORIENTED_EDGE('',*,*,#181,.F.) ;
#212=ORIENTED_EDGE('',*,*,#198,.F.) ;
#213=ORIENTED_EDGE('',*,*,#205,.T.) ;
#214=ORIENTED_EDGE('',*,*,#210,.T.) ;
#215=ORIENTED_EDGE('',*,*,#102,.F.) ;
#236=ORIENTED_EDGE('',*,*,#210,.F.) ;
#237=ORIENTED_EDGE('',*,*,#229,.T.) ;
#238=ORIENTED_EDGE('',*,*,#234,.T.) ;
#239=ORIENTED_EDGE('',*,*,#109,.F.) ;
#260=ORIENTED_EDGE('',*,*,#234,.F.) ;
#261=ORIENTED_EDGE('',*,*,#253,.T.) ;
#262=ORIENTED_EDGE('',*,*,#258,.T.) ;
#263=ORIENTED_EDGE('',*,*,#116,.F.) ;
#277=ORIENTED_EDGE('',*,*,#258,.F.) ;
#278=ORIENTED_EDGE('',*,*,#275,.T.) ;
#279=ORIENTED_EDGE('',*,*,#198,.T.) ;
#280=ORIENTED_EDGE('',*,*,#121,.F.) ;
#308=ORIENTED_EDGE('',*,*,#296,.F.) ;
#309=ORIENTED_EDGE('',*,*,#301,.F.) ;
#310=ORIENTED_EDGE('',*,*,#181,.T.) ;
#311=ORIENTED_EDGE('',*,*,#306,.T.) ;
#320=ORIENTED_EDGE('',*,*,#318,.F.) ;
#321=ORIENTED_EDGE('',*,*,#306,.F.) ;
#322=ORIENTED_EDGE('',*,*,#176,.T.) ;
#323=ORIENTED_EDGE('',*,*,#301,.T.) ;
#351=ORIENTED_EDGE('',*,*,#339,.F.) ;
#352=ORIENTED_EDGE('',*,*,#344,.F.) ;
#353=ORIENTED_EDGE('',*,*,#163,.T.) ;
#354=ORIENTED_EDGE('',*,*,#349,.T.) ;
#363=ORIENTED_EDGE('',*,*,#361,.F.) ;
#364=ORIENTED_EDGE('',*,*,#349,.F.) ;
#365=ORIENTED_EDGE('',*,*,#158,.T.) ;
#366=ORIENTED_EDGE('',*,*,#344,.T.) ;
#394=ORIENTED_EDGE('',*,*,#382,.F.) ;
#395=ORIENTED_EDGE('',*,*,#387,.F.) ;
#396=ORIENTED_EDGE('',*,*,#145,.T.) ;
#397=ORIENTED_EDGE('',*,*,#392,.T.) ;
#406=ORIENTED_EDGE('',*,*,#404,.F.) ;
#407=ORIENTED_EDGE('',*,*,#392,.F.) ;
#408=ORIENTED_EDGE('',*,*,#140,.T.) ;
#409=ORIENTED_EDGE('',*,*,#387,.T.) ;
#418=ORIENTED_EDGE('',*,*,#275,.F.) ;
#419=ORIENTED_EDGE('',*,*,#253,.F.) ;
#420=ORIENTED_EDGE('',*,*,#229,.F.) ;
#421=ORIENTED_EDGE('',*,*,#205,.F.) ;
#424=ORIENTED_EDGE('',*,*,#45,.T.) ;
#425=ORIENTED_EDGE('',*,*,#76,.T.) ;
#428=ORIENTED_EDGE('',*,*,#382,.T.) ;
#429=ORIENTED_EDGE('',*,*,#404,.T.) ;
#432=ORIENTED_EDGE('',*,*,#339,.T.) ;
#433=ORIENTED_EDGE('',*,*,#361,.T.) ;
#436=ORIENTED_EDGE('',*,*,#296,.T.) ;
#437=ORIENTED_EDGE('',*,*,#318,.T.) ;
#131=FACE_BOUND('',#128,.T.) ;
#149=FACE_BOUND('',#146,.T.) ;
#167=FACE_BOUND('',#164,.T.) ;
#185=FACE_BOUND('',#182,.T.) ;
#426=FACE_BOUND('',#423,.T.) ;
#430=FACE_BOUND('',#427,.T.) ;
#434=FACE_BOUND('',#431,.T.) ;
#438=FACE_BOUND('',#435,.T.) ;
#31=CLOSED_SHELL('Closed Shell',(#71,#88,#186,#217,#241,#265,#282,#313,#325,#356,#368,#399,#411,#439)) ;
#440=ADVANCED_BREP_SHAPE_REPRESENTATION('NONE',(#21),#16) ;
#71=ADVANCED_FACE('S3D positioniert',(#70),#36,.F.) ;
#88=ADVANCED_FACE('S3D positioniert',(#87),#36,.F.) ;
#186=ADVANCED_FACE('S3D positioniert',(#127,#131,#149,#167,#185),#93,.T.) ;
#217=ADVANCED_FACE('S3D positioniert',(#216),#191,.T.) ;
#241=ADVANCED_FACE('S3D positioniert',(#240),#222,.F.) ;
#265=ADVANCED_FACE('S3D positioniert',(#264),#246,.T.) ;
#282=ADVANCED_FACE('S3D positioniert',(#281),#270,.F.) ;
#313=ADVANCED_FACE('S3D positioniert',(#312),#287,.F.) ;
#325=ADVANCED_FACE('S3D positioniert',(#324),#287,.F.) ;
#356=ADVANCED_FACE('S3D positioniert',(#355),#330,.F.) ;
#368=ADVANCED_FACE('S3D positioniert',(#367),#330,.F.) ;
#399=ADVANCED_FACE('S3D positioniert',(#398),#373,.F.) ;
#411=ADVANCED_FACE('S3D positioniert',(#410),#373,.F.) ;
#439=ADVANCED_FACE('S3D positioniert',(#422,#426,#430,#434,#438),#416,.F.) ;
#4=APPLICATION_PROTOCOL_DEFINITION('international standard','automotive_design',2001,#1) ;
#21=MANIFOLD_SOLID_BREP('S3D positioniert',#31) ;
#40=CIRCLE('generated circle',#39,1.65) ;
#56=CIRCLE('generated circle',#55,1.65) ;
#75=CIRCLE('generated circle',#74,1.65) ;
#80=CIRCLE('generated circle',#79,1.65) ;
#135=CIRCLE('generated circle',#134,1.65) ;
#144=CIRCLE('generated circle',#143,1.65) ;
#153=CIRCLE('generated circle',#152,1.65) ;
#162=CIRCLE('generated circle',#161,1.65) ;
#171=CIRCLE('generated circle',#170,1.65) ;
#180=CIRCLE('generated circle',#179,1.65) ;
#291=CIRCLE('generated circle',#290,1.65) ;
#317=CIRCLE('generated circle',#316,1.65) ;
#334=CIRCLE('generated circle',#333,1.65) ;
#360=CIRCLE('generated circle',#359,1.65) ;
#377=CIRCLE('generated circle',#376,1.65) ;
#403=CIRCLE('generated circle',#402,1.65) ;
#22=COLOUR_RGB('Colour',0.666666666667,0.666666666667,0.666666666667) ;
#36=CYLINDRICAL_SURFACE('generated cylinder',#35,1.65) ;
#287=CYLINDRICAL_SURFACE('generated cylinder',#286,1.65) ;
#330=CYLINDRICAL_SURFACE('generated cylinder',#329,1.65) ;
#373=CYLINDRICAL_SURFACE('generated cylinder',#372,1.65) ;
#45=EDGE_CURVE('',#42,#44,#40,.T.) ;
#52=EDGE_CURVE('',#51,#42,#49,.F.) ;
#59=EDGE_CURVE('',#51,#58,#56,.T.) ;
#64=EDGE_CURVE('',#58,#44,#63,.F.) ;
#76=EDGE_CURVE('',#44,#42,#75,.T.) ;
#81=EDGE_CURVE('',#58,#51,#80,.T.) ;
#102=EDGE_CURVE('',#99,#101,#97,.T.) ;
#109=EDGE_CURVE('',#101,#108,#106,.F.) ;
#116=EDGE_CURVE('',#108,#115,#113,.T.) ;
#121=EDGE_CURVE('',#115,#99,#120,.F.) ;
#140=EDGE_CURVE('',#137,#139,#135,.T.) ;
#145=EDGE_CURVE('',#139,#137,#144,.T.) ;
#158=EDGE_CURVE('',#155,#157,#153,.T.) ;
#163=EDGE_CURVE('',#157,#155,#162,.T.) ;
#176=EDGE_CURVE('',#173,#175,#171,.T.) ;
#181=EDGE_CURVE('',#175,#173,#180,.T.) ;
#198=EDGE_CURVE('',#197,#99,#195,.T.) ;
#205=EDGE_CURVE('',#197,#204,#202,.T.) ;
#210=EDGE_CURVE('',#204,#101,#209,.T.) ;
#229=EDGE_CURVE('',#204,#228,#226,.F.) ;
#234=EDGE_CURVE('',#228,#108,#233,.T.) ;
#253=EDGE_CURVE('',#228,#252,#250,.T.) ;
#258=EDGE_CURVE('',#252,#115,#257,.T.) ;
#275=EDGE_CURVE('',#252,#197,#274,.F.) ;
#296=EDGE_CURVE('',#293,#295,#291,.T.) ;
#301=EDGE_CURVE('',#175,#293,#300,.F.) ;
#306=EDGE_CURVE('',#173,#295,#305,.F.) ;
#318=EDGE_CURVE('',#295,#293,#317,.T.) ;
#339=EDGE_CURVE('',#336,#338,#334,.T.) ;
#344=EDGE_CURVE('',#157,#336,#343,.F.) ;
#349=EDGE_CURVE('',#155,#338,#348,.F.) ;
#361=EDGE_CURVE('',#338,#336,#360,.T.) ;
#382=EDGE_CURVE('',#379,#381,#377,.T.) ;
#387=EDGE_CURVE('',#139,#379,#386,.F.) ;
#392=EDGE_CURVE('',#137,#381,#391,.F.) ;
#404=EDGE_CURVE('',#381,#379,#403,.T.) ;
#65=EDGE_LOOP('',(#66,#67,#68,#69)) ;
#82=EDGE_LOOP('',(#83,#84,#85,#86)) ;
#122=EDGE_LOOP('',(#123,#124,#125,#126)) ;
#128=EDGE_LOOP('',(#129,#130)) ;
#146=EDGE_LOOP('',(#147,#148)) ;
#164=EDGE_LOOP('',(#165,#166)) ;
#182=EDGE_LOOP('',(#183,#184)) ;
#211=EDGE_LOOP('',(#212,#213,#214,#215)) ;
#235=EDGE_LOOP('',(#236,#237,#238,#239)) ;
#259=EDGE_LOOP('',(#260,#261,#262,#263)) ;
#276=EDGE_LOOP('',(#277,#278,#279,#280)) ;
#307=EDGE_LOOP('',(#308,#309,#310,#311)) ;
#319=EDGE_LOOP('',(#320,#321,#322,#323)) ;
#350=EDGE_LOOP('',(#351,#352,#353,#354)) ;
#362=EDGE_LOOP('',(#363,#364,#365,#366)) ;
#393=EDGE_LOOP('',(#394,#395,#396,#397)) ;
#405=EDGE_LOOP('',(#406,#407,#408,#409)) ;
#417=EDGE_LOOP('',(#418,#419,#420,#421)) ;
#423=EDGE_LOOP('',(#424,#425)) ;
#427=EDGE_LOOP('',(#428,#429)) ;
#431=EDGE_LOOP('',(#432,#433)) ;
#435=EDGE_LOOP('',(#436,#437)) ;
#70=FACE_OUTER_BOUND('',#65,.T.) ;
#87=FACE_OUTER_BOUND('',#82,.T.) ;
#127=FACE_OUTER_BOUND('',#122,.T.) ;
#216=FACE_OUTER_BOUND('',#211,.T.) ;
#240=FACE_OUTER_BOUND('',#235,.T.) ;
#264=FACE_OUTER_BOUND('',#259,.T.) ;
#281=FACE_OUTER_BOUND('',#276,.T.) ;
#312=FACE_OUTER_BOUND('',#307,.T.) ;
#324=FACE_OUTER_BOUND('',#319,.T.) ;
#355=FACE_OUTER_BOUND('',#350,.T.) ;
#367=FACE_OUTER_BOUND('',#362,.T.) ;
#398=FACE_OUTER_BOUND('',#393,.T.) ;
#410=FACE_OUTER_BOUND('',#405,.T.) ;
#422=FACE_OUTER_BOUND('',#417,.T.) ;
#49=LINE('Line',#46,#48) ;
#63=LINE('Line',#60,#62) ;
#97=LINE('Line',#94,#96) ;
#106=LINE('Line',#103,#105) ;
#113=LINE('Line',#110,#112) ;
#120=LINE('Line',#117,#119) ;
#195=LINE('Line',#192,#194) ;
#202=LINE('Line',#199,#201) ;
#209=LINE('Line',#206,#208) ;
#226=LINE('Line',#223,#225) ;
#233=LINE('Line',#230,#232) ;
#250=LINE('Line',#247,#249) ;
#257=LINE('Line',#254,#256) ;
#274=LINE('Line',#271,#273) ;
#300=LINE('Line',#297,#299) ;
#305=LINE('Line',#302,#304) ;
#343=LINE('Line',#340,#342) ;
#348=LINE('Line',#345,#347) ;
#386=LINE('Line',#383,#385) ;
#391=LINE('Line',#388,#390) ;
#93=PLANE('',#92) ;
#191=PLANE('',#190) ;
#222=PLANE('',#221) ;
#246=PLANE('',#245) ;
#270=PLANE('',#269) ;
#416=PLANE('',#415) ;
#9=PRODUCT_CATEGORY_RELATIONSHIP(' ',' ',#7,#8) ;
#6=PRODUCT_DEFINITION_FORMATION_WITH_SPECIFIED_SOURCE('',' ',#5,.NOT_KNOWN.) ;
#20=SHAPE_DEFINITION_REPRESENTATION(#11,#19) ;
#42=VERTEX_POINT('',#41) ;
#44=VERTEX_POINT('',#43) ;
#51=VERTEX_POINT('',#50) ;
#58=VERTEX_POINT('',#57) ;
#99=VERTEX_POINT('',#98) ;
#101=VERTEX_POINT('',#100) ;
#108=VERTEX_POINT('',#107) ;
#115=VERTEX_POINT('',#114) ;
#137=VERTEX_POINT('',#136) ;
#139=VERTEX_POINT('',#138) ;
#155=VERTEX_POINT('',#154) ;
#157=VERTEX_POINT('',#156) ;
#173=VERTEX_POINT('',#172) ;
#175=VERTEX_POINT('',#174) ;
#197=VERTEX_POINT('',#196) ;
#204=VERTEX_POINT('',#203) ;
#228=VERTEX_POINT('',#227) ;
#252=VERTEX_POINT('',#251) ;
#293=VERTEX_POINT('',#292) ;
#295=VERTEX_POINT('',#294) ;
#336=VERTEX_POINT('',#335) ;
#338=VERTEX_POINT('',#337) ;
#379=VERTEX_POINT('',#378) ;
#381=VERTEX_POINT('',#380) ;
#12=(LENGTH_UNIT()NAMED_UNIT(*)SI_UNIT(.MILLI.,.METRE.)) ;
#13=(NAMED_UNIT(*)PLANE_ANGLE_UNIT()SI_UNIT($,.RADIAN.)) ;
#14=(NAMED_UNIT(*)SI_UNIT($,.STERADIAN.)SOLID_ANGLE_UNIT()) ;
#16=(GEOMETRIC_REPRESENTATION_CONTEXT(3)GLOBAL_UNCERTAINTY_ASSIGNED_CONTEXT((#15))GLOBAL_UNIT_ASSIGNED_CONTEXT((#12,#13,#14))REPRESENTATION_CONTEXT(' ',' ')) ;
ENDSEC;
END-ISO-10303-21;
