ISO-10303-21;
HEADER;
FILE_DESCRIPTION(('CATIA V5 STEP Exchange','CAx-IF Rec.Pracs.--- Model Styling and Organization---1.4--- 2014-01-23'),'2;1');

FILE_NAME ('1469289-1_0', '2022-09-02T13:05:14+00:00', ('none'), ('Weidmueller'), 'CATIA Version 5-6 Release 2016 SP3 HF44', 'CATIA V5 STEP AP214', 'none');

FILE_SCHEMA(('AUTOMOTIVE_DESIGN { 1 0 10303 214 1 1 1 1 }'));

ENDSEC;
DATA;
#5=PRODUCT('55343_CC-M_15X45_2X3_LRP_AL_RT_ROTE','','GERAETEMARKIERER\X2\000D\X0\\X2\000A\X0\MetalliCard',(#2)) ;
#2=PRODUCT_CONTEXT(' ',#1,'mechanical') ;
#1=APPLICATION_CONTEXT('automotive design') ;
#10=PRODUCT_DEFINITION('',' ',#6,#3) ;
#3=PRODUCT_DEFINITION_CONTEXT('part definition',#1,' ') ;
#11=PRODUCT_DEFINITION_SHAPE(' ',' ',#10) ;
#351=MECHANICAL_DESIGN_GEOMETRIC_PRESENTATION_REPRESENTATION(' ',(#91,#159,#177,#240,#263,#281,#299,#312,#335,#348,#29),#16) ;
#19=SHAPE_REPRESENTATION(' ',(#18),#16) ;
#18=AXIS2_PLACEMENT_3D(' ',#17,$,$) ;
#35=AXIS2_PLACEMENT_3D('Cylinder Axis2P3D',#32,#33,#34) ;
#95=AXIS2_PLACEMENT_3D('Plane Axis2P3D',#92,#93,#94) ;
#133=AXIS2_PLACEMENT_3D('Circle Axis2P3D',#131,#132,$) ;
#142=AXIS2_PLACEMENT_3D('Circle Axis2P3D',#140,#141,$) ;
#151=AXIS2_PLACEMENT_3D('Circle Axis2P3D',#149,#150,$) ;
#163=AXIS2_PLACEMENT_3D('Cylinder Axis2P3D',#160,#161,#162) ;
#167=AXIS2_PLACEMENT_3D('Circle Axis2P3D',#165,#166,$) ;
#181=AXIS2_PLACEMENT_3D('Plane Axis2P3D',#178,#179,#180) ;
#223=AXIS2_PLACEMENT_3D('Circle Axis2P3D',#221,#222,$) ;
#232=AXIS2_PLACEMENT_3D('Circle Axis2P3D',#230,#231,$) ;
#244=AXIS2_PLACEMENT_3D('Plane Axis2P3D',#241,#242,#243) ;
#267=AXIS2_PLACEMENT_3D('Plane Axis2P3D',#264,#265,#266) ;
#285=AXIS2_PLACEMENT_3D('Plane Axis2P3D',#282,#283,#284) ;
#303=AXIS2_PLACEMENT_3D('Plane Axis2P3D',#300,#301,#302) ;
#316=AXIS2_PLACEMENT_3D('Cylinder Axis2P3D',#313,#314,#315) ;
#339=AXIS2_PLACEMENT_3D('Cylinder Axis2P3D',#336,#337,#338) ;
#17=CARTESIAN_POINT(' ',(0.,0.,0.)) ;
#32=CARTESIAN_POINT('Axis2P3D Location',(3.5,7.5,-0.41000000076)) ;
#38=CARTESIAN_POINT('Control Point',(1.85,7.5,2.52038929407E-026)) ;
#39=CARTESIAN_POINT('Control Point',(1.85,6.98163721216,-6.10988315497E-011)) ;
#40=CARTESIAN_POINT('Control Point',(2.05356059077,6.46327442432,-1.22197663099E-010)) ;
#41=CARTESIAN_POINT('Control Point',(2.46327442432,6.05356059077,-1.83296522405E-010)) ;
#42=CARTESIAN_POINT('Control Point',(3.5,5.64643940923,-3.05494185504E-010)) ;
#43=CARTESIAN_POINT('Control Point',(4.53672557568,6.05356059077,-4.27691848603E-010)) ;
#44=CARTESIAN_POINT('Control Point',(4.94643940923,6.46327442432,-4.88790707909E-010)) ;
#45=CARTESIAN_POINT('Control Point',(5.15,6.98163721216,-5.49889539458E-010)) ;
#46=CARTESIAN_POINT('Control Point',(5.15,7.5,-6.10988371008E-010)) ;
#47=CARTESIAN_POINT('Vertex',(1.85,7.5,-6.10988371008E-010)) ;
#49=CARTESIAN_POINT('Vertex',(5.15000000037,7.5,0.)) ;
#52=CARTESIAN_POINT('Line Origine',(1.85,7.5,-0.410000000149)) ;
#56=CARTESIAN_POINT('Vertex',(1.84999999963,7.5,0.5)) ;
#60=CARTESIAN_POINT('Control Point',(1.85,7.5,0.5)) ;
#61=CARTESIAN_POINT('Control Point',(1.85,6.98163721216,0.499999999939)) ;
#62=CARTESIAN_POINT('Control Point',(2.05356059077,6.46327442432,0.499999999878)) ;
#63=CARTESIAN_POINT('Control Point',(2.46327442432,6.05356059077,0.499999999817)) ;
#64=CARTESIAN_POINT('Control Point',(3.5,5.64643940923,0.499999999695)) ;
#65=CARTESIAN_POINT('Control Point',(4.53672557568,6.05356059077,0.499999999572)) ;
#66=CARTESIAN_POINT('Control Point',(4.94643940923,6.46327442432,0.499999999511)) ;
#67=CARTESIAN_POINT('Control Point',(5.15,6.98163721216,0.49999999945)) ;
#68=CARTESIAN_POINT('Control Point',(5.15,7.5,0.499999999389)) ;
#69=CARTESIAN_POINT('Vertex',(5.15,7.5,0.499999999389)) ;
#72=CARTESIAN_POINT('Line Origine',(5.15,7.5,-0.410000000149)) ;
#92=CARTESIAN_POINT('Axis2P3D Location',(22.5,7.5,0.)) ;
#97=CARTESIAN_POINT('Line Origine',(22.5,15.,0.)) ;
#101=CARTESIAN_POINT('Vertex',(45.,15.,0.)) ;
#103=CARTESIAN_POINT('Vertex',(0.,15.,0.)) ;
#106=CARTESIAN_POINT('Line Origine',(45.,7.5,0.)) ;
#110=CARTESIAN_POINT('Vertex',(45.,0.,0.)) ;
#113=CARTESIAN_POINT('Line Origine',(22.5,0.,0.)) ;
#117=CARTESIAN_POINT('Vertex',(0.,0.,0.)) ;
#120=CARTESIAN_POINT('Line Origine',(0.,7.5,0.)) ;
#131=CARTESIAN_POINT('Axis2P3D Location',(3.5,7.5,0.)) ;
#140=CARTESIAN_POINT('Axis2P3D Location',(41.5,7.5,0.)) ;
#144=CARTESIAN_POINT('Vertex',(43.15,7.5,-6.10988371008E-010)) ;
#146=CARTESIAN_POINT('Vertex',(39.8499999996,7.5,0.)) ;
#149=CARTESIAN_POINT('Axis2P3D Location',(41.5,7.5,0.)) ;
#160=CARTESIAN_POINT('Axis2P3D Location',(3.5,7.5,-0.41000000076)) ;
#165=CARTESIAN_POINT('Axis2P3D Location',(3.5,7.5,0.499999999389)) ;
#178=CARTESIAN_POINT('Axis2P3D Location',(22.5,7.5,0.5)) ;
#183=CARTESIAN_POINT('Line Origine',(0.,7.5,0.5)) ;
#187=CARTESIAN_POINT('Vertex',(0.,15.,0.5)) ;
#189=CARTESIAN_POINT('Vertex',(0.,0.,0.5)) ;
#192=CARTESIAN_POINT('Line Origine',(22.5,0.,0.5)) ;
#196=CARTESIAN_POINT('Vertex',(45.,0.,0.5)) ;
#199=CARTESIAN_POINT('Line Origine',(45.,7.5,0.5)) ;
#203=CARTESIAN_POINT('Vertex',(45.,15.,0.5)) ;
#206=CARTESIAN_POINT('Line Origine',(22.5,15.,0.5)) ;
#221=CARTESIAN_POINT('Axis2P3D Location',(41.5,7.5,0.5)) ;
#225=CARTESIAN_POINT('Vertex',(39.8499999996,7.5,0.5)) ;
#227=CARTESIAN_POINT('Vertex',(43.1500000004,7.5,0.5)) ;
#230=CARTESIAN_POINT('Axis2P3D Location',(41.5,7.5,0.5)) ;
#241=CARTESIAN_POINT('Axis2P3D Location',(0.,15.,0.)) ;
#246=CARTESIAN_POINT('Line Origine',(45.,15.,0.25)) ;
#251=CARTESIAN_POINT('Line Origine',(0.,15.,0.25)) ;
#264=CARTESIAN_POINT('Axis2P3D Location',(45.,-3.5527136788E-015,0.)) ;
#269=CARTESIAN_POINT('Line Origine',(45.,-3.5527136788E-015,0.25)) ;
#282=CARTESIAN_POINT('Axis2P3D Location',(45.,0.,0.)) ;
#287=CARTESIAN_POINT('Line Origine',(0.,0.,0.25)) ;
#300=CARTESIAN_POINT('Axis2P3D Location',(0.,15.,0.)) ;
#313=CARTESIAN_POINT('Axis2P3D Location',(41.5,7.5,-0.41000000076)) ;
#318=CARTESIAN_POINT('Line Origine',(43.15,7.5,-0.410000000149)) ;
#323=CARTESIAN_POINT('Line Origine',(39.85,7.5,-0.410000000149)) ;
#336=CARTESIAN_POINT('Axis2P3D Location',(41.5,7.5,-0.41000000076)) ;
#33=DIRECTION('Axis2P3D Direction',(0.,0.,1.)) ;
#34=DIRECTION('Axis2P3D XDirection',(-1.,1.22464679915E-016,0.)) ;
#53=DIRECTION('Vector Direction',(0.,0.,1.)) ;
#73=DIRECTION('Vector Direction',(0.,0.,1.)) ;
#93=DIRECTION('Axis2P3D Direction',(0.,0.,1.)) ;
#94=DIRECTION('Axis2P3D XDirection',(1.,0.,0.)) ;
#98=DIRECTION('Vector Direction',(1.,0.,0.)) ;
#107=DIRECTION('Vector Direction',(0.,1.,0.)) ;
#114=DIRECTION('Vector Direction',(-1.,0.,0.)) ;
#121=DIRECTION('Vector Direction',(0.,-1.,0.)) ;
#132=DIRECTION('Axis2P3D Direction',(0.,0.,1.)) ;
#141=DIRECTION('Axis2P3D Direction',(0.,0.,1.)) ;
#150=DIRECTION('Axis2P3D Direction',(0.,0.,1.)) ;
#161=DIRECTION('Axis2P3D Direction',(0.,0.,1.)) ;
#162=DIRECTION('Axis2P3D XDirection',(1.,0.,0.)) ;
#166=DIRECTION('Axis2P3D Direction',(0.,0.,1.)) ;
#179=DIRECTION('Axis2P3D Direction',(0.,0.,1.)) ;
#180=DIRECTION('Axis2P3D XDirection',(1.,0.,0.)) ;
#184=DIRECTION('Vector Direction',(0.,-1.,0.)) ;
#193=DIRECTION('Vector Direction',(-1.,0.,0.)) ;
#200=DIRECTION('Vector Direction',(0.,1.,0.)) ;
#207=DIRECTION('Vector Direction',(1.,0.,0.)) ;
#222=DIRECTION('Axis2P3D Direction',(0.,0.,1.)) ;
#231=DIRECTION('Axis2P3D Direction',(0.,0.,1.)) ;
#242=DIRECTION('Axis2P3D Direction',(0.,-1.,0.)) ;
#243=DIRECTION('Axis2P3D XDirection',(1.,0.,0.)) ;
#247=DIRECTION('Vector Direction',(0.,0.,1.)) ;
#252=DIRECTION('Vector Direction',(0.,0.,1.)) ;
#265=DIRECTION('Axis2P3D Direction',(1.,0.,0.)) ;
#266=DIRECTION('Axis2P3D XDirection',(0.,1.,0.)) ;
#270=DIRECTION('Vector Direction',(0.,0.,1.)) ;
#283=DIRECTION('Axis2P3D Direction',(0.,1.,-0.)) ;
#284=DIRECTION('Axis2P3D XDirection',(-1.,0.,0.)) ;
#288=DIRECTION('Vector Direction',(0.,0.,1.)) ;
#301=DIRECTION('Axis2P3D Direction',(-1.,0.,0.)) ;
#302=DIRECTION('Axis2P3D XDirection',(0.,-1.,0.)) ;
#314=DIRECTION('Axis2P3D Direction',(0.,0.,1.)) ;
#315=DIRECTION('Axis2P3D XDirection',(1.,-2.4492935983E-016,0.)) ;
#319=DIRECTION('Vector Direction',(0.,0.,1.)) ;
#324=DIRECTION('Vector Direction',(0.,0.,1.)) ;
#337=DIRECTION('Axis2P3D Direction',(0.,0.,1.)) ;
#338=DIRECTION('Axis2P3D XDirection',(-1.,1.22464679915E-016,0.)) ;
#30=PRESENTATION_LAYER_ASSIGNMENT('1',' ',(#21)) ;
#8=PRODUCT_RELATED_PRODUCT_CATEGORY('part',$,(#5)) ;
#7=PRODUCT_CATEGORY('part','specification') ;
#29=STYLED_ITEM(' ',(#28),#21) ;
#28=PRESENTATION_STYLE_ASSIGNMENT((#27)) ;
#90=PRESENTATION_STYLE_ASSIGNMENT((#89)) ;
#27=SURFACE_STYLE_USAGE(.BOTH.,#26) ;
#89=SURFACE_STYLE_USAGE(.BOTH.,#88) ;
#26=SURFACE_SIDE_STYLE(' ',(#25)) ;
#88=SURFACE_SIDE_STYLE(' ',(#87)) ;
#25=SURFACE_STYLE_FILL_AREA(#24) ;
#87=SURFACE_STYLE_FILL_AREA(#86) ;
#24=FILL_AREA_STYLE(' ',(#23)) ;
#86=FILL_AREA_STYLE(' ',(#85)) ;
#23=FILL_AREA_STYLE_COLOUR(' ',#22) ;
#85=FILL_AREA_STYLE_COLOUR(' ',#84) ;
#54=VECTOR('Line Direction',#53,1.) ;
#74=VECTOR('Line Direction',#73,1.) ;
#99=VECTOR('Line Direction',#98,1.) ;
#108=VECTOR('Line Direction',#107,1.) ;
#115=VECTOR('Line Direction',#114,1.) ;
#122=VECTOR('Line Direction',#121,1.) ;
#185=VECTOR('Line Direction',#184,1.) ;
#194=VECTOR('Line Direction',#193,1.) ;
#201=VECTOR('Line Direction',#200,1.) ;
#208=VECTOR('Line Direction',#207,1.) ;
#248=VECTOR('Line Direction',#247,1.) ;
#253=VECTOR('Line Direction',#252,1.) ;
#271=VECTOR('Line Direction',#270,1.) ;
#289=VECTOR('Line Direction',#288,1.) ;
#320=VECTOR('Line Direction',#319,1.) ;
#325=VECTOR('Line Direction',#324,1.) ;
#15=UNCERTAINTY_MEASURE_WITH_UNIT(LENGTH_MEASURE(0.005),#12,'distance_accuracy_value','CONFUSED CURVE UNCERTAINTY') ;
#350=SHAPE_REPRESENTATION_RELATIONSHIP(' ',' ',#19,#349) ;
#78=ORIENTED_EDGE('',*,*,#51,.F.) ;
#79=ORIENTED_EDGE('',*,*,#58,.F.) ;
#80=ORIENTED_EDGE('',*,*,#71,.T.) ;
#81=ORIENTED_EDGE('',*,*,#76,.T.) ;
#126=ORIENTED_EDGE('',*,*,#105,.F.) ;
#127=ORIENTED_EDGE('',*,*,#112,.F.) ;
#128=ORIENTED_EDGE('',*,*,#119,.F.) ;
#129=ORIENTED_EDGE('',*,*,#124,.F.) ;
#137=ORIENTED_EDGE('',*,*,#51,.T.) ;
#138=ORIENTED_EDGE('',*,*,#135,.T.) ;
#155=ORIENTED_EDGE('',*,*,#148,.T.) ;
#156=ORIENTED_EDGE('',*,*,#153,.T.) ;
#171=ORIENTED_EDGE('',*,*,#135,.F.) ;
#172=ORIENTED_EDGE('',*,*,#76,.F.) ;
#173=ORIENTED_EDGE('',*,*,#169,.T.) ;
#174=ORIENTED_EDGE('',*,*,#58,.T.) ;
#212=ORIENTED_EDGE('',*,*,#191,.T.) ;
#213=ORIENTED_EDGE('',*,*,#198,.T.) ;
#214=ORIENTED_EDGE('',*,*,#205,.T.) ;
#215=ORIENTED_EDGE('',*,*,#210,.T.) ;
#218=ORIENTED_EDGE('',*,*,#169,.F.) ;
#219=ORIENTED_EDGE('',*,*,#71,.F.) ;
#236=ORIENTED_EDGE('',*,*,#229,.F.) ;
#237=ORIENTED_EDGE('',*,*,#234,.F.) ;
#257=ORIENTED_EDGE('',*,*,#250,.F.) ;
#258=ORIENTED_EDGE('',*,*,#105,.T.) ;
#259=ORIENTED_EDGE('',*,*,#255,.T.) ;
#260=ORIENTED_EDGE('',*,*,#210,.F.) ;
#275=ORIENTED_EDGE('',*,*,#273,.F.) ;
#276=ORIENTED_EDGE('',*,*,#112,.T.) ;
#277=ORIENTED_EDGE('',*,*,#250,.T.) ;
#278=ORIENTED_EDGE('',*,*,#205,.F.) ;
#293=ORIENTED_EDGE('',*,*,#291,.F.) ;
#294=ORIENTED_EDGE('',*,*,#119,.T.) ;
#295=ORIENTED_EDGE('',*,*,#273,.T.) ;
#296=ORIENTED_EDGE('',*,*,#198,.F.) ;
#306=ORIENTED_EDGE('',*,*,#255,.F.) ;
#307=ORIENTED_EDGE('',*,*,#124,.T.) ;
#308=ORIENTED_EDGE('',*,*,#291,.T.) ;
#309=ORIENTED_EDGE('',*,*,#191,.F.) ;
#329=ORIENTED_EDGE('',*,*,#148,.F.) ;
#330=ORIENTED_EDGE('',*,*,#322,.F.) ;
#331=ORIENTED_EDGE('',*,*,#234,.T.) ;
#332=ORIENTED_EDGE('',*,*,#327,.T.) ;
#342=ORIENTED_EDGE('',*,*,#153,.F.) ;
#343=ORIENTED_EDGE('',*,*,#327,.F.) ;
#344=ORIENTED_EDGE('',*,*,#229,.T.) ;
#345=ORIENTED_EDGE('',*,*,#322,.T.) ;
#139=FACE_BOUND('',#136,.T.) ;
#157=FACE_BOUND('',#154,.T.) ;
#220=FACE_BOUND('',#217,.T.) ;
#238=FACE_BOUND('',#235,.T.) ;
#31=CLOSED_SHELL('Closed Shell',(#83,#158,#176,#239,#262,#280,#298,#311,#334,#347)) ;
#349=ADVANCED_BREP_SHAPE_REPRESENTATION('NONE',(#21),#16) ;
#83=ADVANCED_FACE('S3D positioniert',(#82),#36,.F.) ;
#158=ADVANCED_FACE('S3D positioniert',(#130,#139,#157),#96,.F.) ;
#176=ADVANCED_FACE('S3D positioniert',(#175),#164,.F.) ;
#239=ADVANCED_FACE('S3D positioniert',(#216,#220,#238),#182,.T.) ;
#262=ADVANCED_FACE('S3D positioniert',(#261),#245,.F.) ;
#280=ADVANCED_FACE('S3D positioniert',(#279),#268,.T.) ;
#298=ADVANCED_FACE('S3D positioniert',(#297),#286,.F.) ;
#311=ADVANCED_FACE('S3D positioniert',(#310),#304,.T.) ;
#334=ADVANCED_FACE('S3D positioniert',(#333),#317,.F.) ;
#347=ADVANCED_FACE('S3D positioniert',(#346),#340,.F.) ;
#4=APPLICATION_PROTOCOL_DEFINITION('international standard','automotive_design',2001,#1) ;
#37=B_SPLINE_CURVE_WITH_KNOTS('',5,(#38,#39,#40,#41,#42,#43,#44,#45,#46),.UNSPECIFIED.,.F.,.U.,(6,3,6),(-2.59181393921,0.,2.59181393921),.UNSPECIFIED.) ;
#59=B_SPLINE_CURVE_WITH_KNOTS('',5,(#60,#61,#62,#63,#64,#65,#66,#67,#68),.UNSPECIFIED.,.F.,.U.,(6,3,6),(-2.59181393921,0.,2.59181393921),.UNSPECIFIED.) ;
#21=MANIFOLD_SOLID_BREP('S3D positioniert',#31) ;
#134=CIRCLE('generated circle',#133,1.65000000037) ;
#143=CIRCLE('generated circle',#142,1.65000000037) ;
#152=CIRCLE('generated circle',#151,1.65000000037) ;
#168=CIRCLE('generated circle',#167,1.65) ;
#224=CIRCLE('generated circle',#223,1.65000000037) ;
#233=CIRCLE('generated circle',#232,1.65000000037) ;
#22=COLOUR_RGB('Colour',0.823529411765,0.823529411765,1.) ;
#91=OVER_RIDING_STYLED_ITEM(' ',(#90),#83,#29) ;
#159=OVER_RIDING_STYLED_ITEM(' ',(#90),#158,#29) ;
#177=OVER_RIDING_STYLED_ITEM(' ',(#90),#176,#29) ;
#240=OVER_RIDING_STYLED_ITEM(' ',(#90),#239,#29) ;
#263=OVER_RIDING_STYLED_ITEM(' ',(#90),#262,#29) ;
#281=OVER_RIDING_STYLED_ITEM(' ',(#90),#280,#29) ;
#299=OVER_RIDING_STYLED_ITEM(' ',(#90),#298,#29) ;
#312=OVER_RIDING_STYLED_ITEM(' ',(#90),#311,#29) ;
#335=OVER_RIDING_STYLED_ITEM(' ',(#90),#334,#29) ;
#348=OVER_RIDING_STYLED_ITEM(' ',(#90),#347,#29) ;
#36=CYLINDRICAL_SURFACE('generated cylinder',#35,1.65) ;
#164=CYLINDRICAL_SURFACE('generated cylinder',#163,1.65) ;
#317=CYLINDRICAL_SURFACE('generated cylinder',#316,1.65) ;
#340=CYLINDRICAL_SURFACE('generated cylinder',#339,1.65) ;
#84=DRAUGHTING_PRE_DEFINED_COLOUR('red') ;
#51=EDGE_CURVE('',#48,#50,#37,.T.) ;
#58=EDGE_CURVE('',#57,#48,#55,.F.) ;
#71=EDGE_CURVE('',#57,#70,#59,.T.) ;
#76=EDGE_CURVE('',#70,#50,#75,.F.) ;
#105=EDGE_CURVE('',#102,#104,#100,.F.) ;
#112=EDGE_CURVE('',#111,#102,#109,.T.) ;
#119=EDGE_CURVE('',#118,#111,#116,.F.) ;
#124=EDGE_CURVE('',#104,#118,#123,.T.) ;
#135=EDGE_CURVE('',#50,#48,#134,.T.) ;
#148=EDGE_CURVE('',#145,#147,#143,.T.) ;
#153=EDGE_CURVE('',#147,#145,#152,.T.) ;
#169=EDGE_CURVE('',#70,#57,#168,.T.) ;
#191=EDGE_CURVE('',#188,#190,#186,.T.) ;
#198=EDGE_CURVE('',#190,#197,#195,.F.) ;
#205=EDGE_CURVE('',#197,#204,#202,.T.) ;
#210=EDGE_CURVE('',#204,#188,#209,.F.) ;
#229=EDGE_CURVE('',#226,#228,#224,.T.) ;
#234=EDGE_CURVE('',#228,#226,#233,.T.) ;
#250=EDGE_CURVE('',#102,#204,#249,.T.) ;
#255=EDGE_CURVE('',#104,#188,#254,.T.) ;
#273=EDGE_CURVE('',#111,#197,#272,.T.) ;
#291=EDGE_CURVE('',#118,#190,#290,.T.) ;
#322=EDGE_CURVE('',#228,#145,#321,.F.) ;
#327=EDGE_CURVE('',#226,#147,#326,.F.) ;
#77=EDGE_LOOP('',(#78,#79,#80,#81)) ;
#125=EDGE_LOOP('',(#126,#127,#128,#129)) ;
#136=EDGE_LOOP('',(#137,#138)) ;
#154=EDGE_LOOP('',(#155,#156)) ;
#170=EDGE_LOOP('',(#171,#172,#173,#174)) ;
#211=EDGE_LOOP('',(#212,#213,#214,#215)) ;
#217=EDGE_LOOP('',(#218,#219)) ;
#235=EDGE_LOOP('',(#236,#237)) ;
#256=EDGE_LOOP('',(#257,#258,#259,#260)) ;
#274=EDGE_LOOP('',(#275,#276,#277,#278)) ;
#292=EDGE_LOOP('',(#293,#294,#295,#296)) ;
#305=EDGE_LOOP('',(#306,#307,#308,#309)) ;
#328=EDGE_LOOP('',(#329,#330,#331,#332)) ;
#341=EDGE_LOOP('',(#342,#343,#344,#345)) ;
#82=FACE_OUTER_BOUND('',#77,.T.) ;
#130=FACE_OUTER_BOUND('',#125,.T.) ;
#175=FACE_OUTER_BOUND('',#170,.T.) ;
#216=FACE_OUTER_BOUND('',#211,.T.) ;
#261=FACE_OUTER_BOUND('',#256,.T.) ;
#279=FACE_OUTER_BOUND('',#274,.T.) ;
#297=FACE_OUTER_BOUND('',#292,.T.) ;
#310=FACE_OUTER_BOUND('',#305,.T.) ;
#333=FACE_OUTER_BOUND('',#328,.T.) ;
#346=FACE_OUTER_BOUND('',#341,.T.) ;
#55=LINE('Line',#52,#54) ;
#75=LINE('Line',#72,#74) ;
#100=LINE('Line',#97,#99) ;
#109=LINE('Line',#106,#108) ;
#116=LINE('Line',#113,#115) ;
#123=LINE('Line',#120,#122) ;
#186=LINE('Line',#183,#185) ;
#195=LINE('Line',#192,#194) ;
#202=LINE('Line',#199,#201) ;
#209=LINE('Line',#206,#208) ;
#249=LINE('Line',#246,#248) ;
#254=LINE('Line',#251,#253) ;
#272=LINE('Line',#269,#271) ;
#290=LINE('Line',#287,#289) ;
#321=LINE('Line',#318,#320) ;
#326=LINE('Line',#323,#325) ;
#96=PLANE('',#95) ;
#182=PLANE('',#181) ;
#245=PLANE('',#244) ;
#268=PLANE('',#267) ;
#286=PLANE('',#285) ;
#304=PLANE('',#303) ;
#9=PRODUCT_CATEGORY_RELATIONSHIP(' ',' ',#7,#8) ;
#6=PRODUCT_DEFINITION_FORMATION_WITH_SPECIFIED_SOURCE('',' ',#5,.NOT_KNOWN.) ;
#20=SHAPE_DEFINITION_REPRESENTATION(#11,#19) ;
#48=VERTEX_POINT('',#47) ;
#50=VERTEX_POINT('',#49) ;
#57=VERTEX_POINT('',#56) ;
#70=VERTEX_POINT('',#69) ;
#102=VERTEX_POINT('',#101) ;
#104=VERTEX_POINT('',#103) ;
#111=VERTEX_POINT('',#110) ;
#118=VERTEX_POINT('',#117) ;
#145=VERTEX_POINT('',#144) ;
#147=VERTEX_POINT('',#146) ;
#188=VERTEX_POINT('',#187) ;
#190=VERTEX_POINT('',#189) ;
#197=VERTEX_POINT('',#196) ;
#204=VERTEX_POINT('',#203) ;
#226=VERTEX_POINT('',#225) ;
#228=VERTEX_POINT('',#227) ;
#12=(LENGTH_UNIT()NAMED_UNIT(*)SI_UNIT(.MILLI.,.METRE.)) ;
#13=(NAMED_UNIT(*)PLANE_ANGLE_UNIT()SI_UNIT($,.RADIAN.)) ;
#14=(NAMED_UNIT(*)SI_UNIT($,.STERADIAN.)SOLID_ANGLE_UNIT()) ;
#16=(GEOMETRIC_REPRESENTATION_CONTEXT(3)GLOBAL_UNCERTAINTY_ASSIGNED_CONTEXT((#15))GLOBAL_UNIT_ASSIGNED_CONTEXT((#12,#13,#14))REPRESENTATION_CONTEXT(' ',' ')) ;
ENDSEC;
END-ISO-10303-21;
