ISO-10303-21;
HEADER;
FILE_DESCRIPTION(('CATIA V5 STEP Exchange','CAx-IF Rec.Pracs.--- Model Styling and Organization---1.4--- 2014-01-23'),'2;1');

FILE_NAME ('D1456088_0_1781030000_1781030000.stp','2020-01-27T11:33:47+00:00',('none'),('Weidmueller'),'CATIA Version 5-6 Release 2016 SP3 HF44','CATIA V5 STEP AP214','none');

FILE_SCHEMA(('AUTOMOTIVE_DESIGN { 1 0 10303 214 1 1 1 1 }'));

ENDSEC;
DATA;
#5=PRODUCT('1781030000_WQL_2_WF12','','',(#2)) ;
#2=PRODUCT_CONTEXT(' ',#1,'mechanical') ;
#1=APPLICATION_CONTEXT('automotive design') ;
#10=PRODUCT_DEFINITION('',' ',#6,#3) ;
#3=PRODUCT_DEFINITION_CONTEXT('part definition',#1,' ') ;
#11=PRODUCT_DEFINITION_SHAPE(' ',' ',#10) ;
#312=MECHANICAL_DESIGN_GEOMETRIC_PRESENTATION_REPRESENTATION(' ',(#29),#16) ;
#19=SHAPE_REPRESENTATION(' ',(#18),#16) ;
#18=AXIS2_PLACEMENT_3D(' ',#17,$,$) ;
#35=AXIS2_PLACEMENT_3D('Plane Axis2P3D',#32,#33,#34) ;
#75=AXIS2_PLACEMENT_3D('Plane Axis2P3D',#72,#73,#74) ;
#106=AXIS2_PLACEMENT_3D('Plane Axis2P3D',#103,#104,#105) ;
#137=AXIS2_PLACEMENT_3D('Plane Axis2P3D',#134,#135,#136) ;
#159=AXIS2_PLACEMENT_3D('Cylinder Axis2P3D',#156,#157,#158) ;
#163=AXIS2_PLACEMENT_3D('Circle Axis2P3D',#161,#162,$) ;
#179=AXIS2_PLACEMENT_3D('Circle Axis2P3D',#177,#178,$) ;
#198=AXIS2_PLACEMENT_3D('Circle Axis2P3D',#196,#197,$) ;
#203=AXIS2_PLACEMENT_3D('Circle Axis2P3D',#201,#202,$) ;
#216=AXIS2_PLACEMENT_3D('Cylinder Axis2P3D',#213,#214,#215) ;
#220=AXIS2_PLACEMENT_3D('Circle Axis2P3D',#218,#219,$) ;
#236=AXIS2_PLACEMENT_3D('Circle Axis2P3D',#234,#235,$) ;
#255=AXIS2_PLACEMENT_3D('Circle Axis2P3D',#253,#254,$) ;
#260=AXIS2_PLACEMENT_3D('Circle Axis2P3D',#258,#259,$) ;
#273=AXIS2_PLACEMENT_3D('Plane Axis2P3D',#270,#271,#272) ;
#293=AXIS2_PLACEMENT_3D('Plane Axis2P3D',#290,#291,#292) ;
#17=CARTESIAN_POINT(' ',(0.,0.,0.)) ;
#32=CARTESIAN_POINT('Axis2P3D Location',(0.,25.,0.)) ;
#37=CARTESIAN_POINT('Line Origine',(0.,25.,2.)) ;
#41=CARTESIAN_POINT('Vertex',(0.,25.,0.)) ;
#43=CARTESIAN_POINT('Vertex',(0.,25.,4.)) ;
#46=CARTESIAN_POINT('Line Origine',(0.,12.5,0.)) ;
#50=CARTESIAN_POINT('Vertex',(0.,-5.3290705182E-015,0.)) ;
#53=CARTESIAN_POINT('Line Origine',(0.,-7.1054273576E-015,2.)) ;
#57=CARTESIAN_POINT('Vertex',(0.,-5.3290705182E-015,4.)) ;
#60=CARTESIAN_POINT('Line Origine',(0.,12.5,4.)) ;
#72=CARTESIAN_POINT('Axis2P3D Location',(61.8,0.,0.)) ;
#77=CARTESIAN_POINT('Line Origine',(30.9,0.,0.)) ;
#81=CARTESIAN_POINT('Vertex',(61.8,0.,0.)) ;
#84=CARTESIAN_POINT('Line Origine',(61.8,0.,2.)) ;
#88=CARTESIAN_POINT('Vertex',(61.8,0.,4.)) ;
#91=CARTESIAN_POINT('Line Origine',(30.9,0.,4.)) ;
#103=CARTESIAN_POINT('Axis2P3D Location',(61.8,-5.3290705182E-015,0.)) ;
#108=CARTESIAN_POINT('Line Origine',(61.8,12.5,0.)) ;
#112=CARTESIAN_POINT('Vertex',(61.8,25.,0.)) ;
#115=CARTESIAN_POINT('Line Origine',(61.8,25.,2.)) ;
#119=CARTESIAN_POINT('Vertex',(61.8,25.,4.)) ;
#122=CARTESIAN_POINT('Line Origine',(61.8,12.5,4.)) ;
#134=CARTESIAN_POINT('Axis2P3D Location',(0.,25.,0.)) ;
#139=CARTESIAN_POINT('Line Origine',(30.9,25.,0.)) ;
#144=CARTESIAN_POINT('Line Origine',(30.9,25.,4.)) ;
#156=CARTESIAN_POINT('Axis2P3D Location',(47.8,12.5,2.)) ;
#161=CARTESIAN_POINT('Axis2P3D Location',(47.8,12.5,4.)) ;
#165=CARTESIAN_POINT('Vertex',(41.5,12.5,4.)) ;
#167=CARTESIAN_POINT('Vertex',(54.1,12.5,4.)) ;
#170=CARTESIAN_POINT('Line Origine',(54.1,12.5,2.)) ;
#174=CARTESIAN_POINT('Vertex',(54.1,12.5,0.)) ;
#177=CARTESIAN_POINT('Axis2P3D Location',(47.8,12.5,0.)) ;
#181=CARTESIAN_POINT('Vertex',(41.5,12.5,0.)) ;
#184=CARTESIAN_POINT('Line Origine',(41.5,12.5,2.)) ;
#196=CARTESIAN_POINT('Axis2P3D Location',(47.8,12.5,4.)) ;
#201=CARTESIAN_POINT('Axis2P3D Location',(47.8,12.5,0.)) ;
#213=CARTESIAN_POINT('Axis2P3D Location',(14.,12.5,2.)) ;
#218=CARTESIAN_POINT('Axis2P3D Location',(14.,12.5,4.)) ;
#222=CARTESIAN_POINT('Vertex',(7.7,12.5,4.)) ;
#224=CARTESIAN_POINT('Vertex',(20.3,12.5,4.)) ;
#227=CARTESIAN_POINT('Line Origine',(20.3,12.5,2.)) ;
#231=CARTESIAN_POINT('Vertex',(20.3,12.5,0.)) ;
#234=CARTESIAN_POINT('Axis2P3D Location',(14.,12.5,0.)) ;
#238=CARTESIAN_POINT('Vertex',(7.7,12.5,0.)) ;
#241=CARTESIAN_POINT('Line Origine',(7.7,12.5,2.)) ;
#253=CARTESIAN_POINT('Axis2P3D Location',(14.,12.5,4.)) ;
#258=CARTESIAN_POINT('Axis2P3D Location',(14.,12.5,0.)) ;
#270=CARTESIAN_POINT('Axis2P3D Location',(30.9,12.5,0.)) ;
#290=CARTESIAN_POINT('Axis2P3D Location',(30.9,12.5,4.)) ;
#33=DIRECTION('Axis2P3D Direction',(-1.,0.,0.)) ;
#34=DIRECTION('Axis2P3D XDirection',(0.,-1.,0.)) ;
#38=DIRECTION('Vector Direction',(0.,0.,1.)) ;
#47=DIRECTION('Vector Direction',(0.,-1.,0.)) ;
#54=DIRECTION('Vector Direction',(0.,0.,1.)) ;
#61=DIRECTION('Vector Direction',(0.,-1.,0.)) ;
#73=DIRECTION('Axis2P3D Direction',(0.,1.,-0.)) ;
#74=DIRECTION('Axis2P3D XDirection',(-1.,0.,0.)) ;
#78=DIRECTION('Vector Direction',(-1.,0.,0.)) ;
#85=DIRECTION('Vector Direction',(0.,0.,1.)) ;
#92=DIRECTION('Vector Direction',(-1.,0.,0.)) ;
#104=DIRECTION('Axis2P3D Direction',(1.,0.,0.)) ;
#105=DIRECTION('Axis2P3D XDirection',(0.,1.,0.)) ;
#109=DIRECTION('Vector Direction',(0.,1.,0.)) ;
#116=DIRECTION('Vector Direction',(0.,0.,1.)) ;
#123=DIRECTION('Vector Direction',(0.,1.,0.)) ;
#135=DIRECTION('Axis2P3D Direction',(0.,-1.,0.)) ;
#136=DIRECTION('Axis2P3D XDirection',(1.,0.,0.)) ;
#140=DIRECTION('Vector Direction',(1.,0.,0.)) ;
#145=DIRECTION('Vector Direction',(1.,0.,0.)) ;
#157=DIRECTION('Axis2P3D Direction',(0.,0.,1.)) ;
#158=DIRECTION('Axis2P3D XDirection',(1.,0.,0.)) ;
#162=DIRECTION('Axis2P3D Direction',(0.,0.,1.)) ;
#171=DIRECTION('Vector Direction',(0.,0.,1.)) ;
#178=DIRECTION('Axis2P3D Direction',(0.,0.,1.)) ;
#185=DIRECTION('Vector Direction',(0.,0.,1.)) ;
#197=DIRECTION('Axis2P3D Direction',(0.,0.,1.)) ;
#202=DIRECTION('Axis2P3D Direction',(0.,0.,1.)) ;
#214=DIRECTION('Axis2P3D Direction',(0.,0.,1.)) ;
#215=DIRECTION('Axis2P3D XDirection',(1.,0.,0.)) ;
#219=DIRECTION('Axis2P3D Direction',(0.,0.,1.)) ;
#228=DIRECTION('Vector Direction',(0.,0.,1.)) ;
#235=DIRECTION('Axis2P3D Direction',(0.,0.,1.)) ;
#242=DIRECTION('Vector Direction',(0.,0.,1.)) ;
#254=DIRECTION('Axis2P3D Direction',(0.,0.,1.)) ;
#259=DIRECTION('Axis2P3D Direction',(0.,0.,1.)) ;
#271=DIRECTION('Axis2P3D Direction',(0.,0.,1.)) ;
#272=DIRECTION('Axis2P3D XDirection',(1.,0.,0.)) ;
#291=DIRECTION('Axis2P3D Direction',(0.,0.,1.)) ;
#292=DIRECTION('Axis2P3D XDirection',(1.,0.,0.)) ;
#30=PRESENTATION_LAYER_ASSIGNMENT('1',' ',(#21)) ;
#8=PRODUCT_RELATED_PRODUCT_CATEGORY('part',$,(#5)) ;
#7=PRODUCT_CATEGORY('part','specification') ;
#29=STYLED_ITEM(' ',(#28),#21) ;
#28=PRESENTATION_STYLE_ASSIGNMENT((#27)) ;
#27=SURFACE_STYLE_USAGE(.BOTH.,#26) ;
#26=SURFACE_SIDE_STYLE(' ',(#25)) ;
#25=SURFACE_STYLE_FILL_AREA(#24) ;
#24=FILL_AREA_STYLE(' ',(#23)) ;
#23=FILL_AREA_STYLE_COLOUR(' ',#22) ;
#39=VECTOR('Line Direction',#38,1.) ;
#48=VECTOR('Line Direction',#47,1.) ;
#55=VECTOR('Line Direction',#54,1.) ;
#62=VECTOR('Line Direction',#61,1.) ;
#79=VECTOR('Line Direction',#78,1.) ;
#86=VECTOR('Line Direction',#85,1.) ;
#93=VECTOR('Line Direction',#92,1.) ;
#110=VECTOR('Line Direction',#109,1.) ;
#117=VECTOR('Line Direction',#116,1.) ;
#124=VECTOR('Line Direction',#123,1.) ;
#141=VECTOR('Line Direction',#140,1.) ;
#146=VECTOR('Line Direction',#145,1.) ;
#172=VECTOR('Line Direction',#171,1.) ;
#186=VECTOR('Line Direction',#185,1.) ;
#229=VECTOR('Line Direction',#228,1.) ;
#243=VECTOR('Line Direction',#242,1.) ;
#15=UNCERTAINTY_MEASURE_WITH_UNIT(LENGTH_MEASURE(0.005),#12,'distance_accuracy_value','CONFUSED CURVE UNCERTAINTY') ;
#311=SHAPE_REPRESENTATION_RELATIONSHIP(' ',' ',#19,#310) ;
#66=ORIENTED_EDGE('',*,*,#45,.F.) ;
#67=ORIENTED_EDGE('',*,*,#52,.T.) ;
#68=ORIENTED_EDGE('',*,*,#59,.T.) ;
#69=ORIENTED_EDGE('',*,*,#64,.F.) ;
#97=ORIENTED_EDGE('',*,*,#59,.F.) ;
#98=ORIENTED_EDGE('',*,*,#83,.T.) ;
#99=ORIENTED_EDGE('',*,*,#90,.T.) ;
#100=ORIENTED_EDGE('',*,*,#95,.F.) ;
#128=ORIENTED_EDGE('',*,*,#90,.F.) ;
#129=ORIENTED_EDGE('',*,*,#114,.T.) ;
#130=ORIENTED_EDGE('',*,*,#121,.T.) ;
#131=ORIENTED_EDGE('',*,*,#126,.F.) ;
#150=ORIENTED_EDGE('',*,*,#121,.F.) ;
#151=ORIENTED_EDGE('',*,*,#143,.T.) ;
#152=ORIENTED_EDGE('',*,*,#45,.T.) ;
#153=ORIENTED_EDGE('',*,*,#148,.F.) ;
#190=ORIENTED_EDGE('',*,*,#169,.T.) ;
#191=ORIENTED_EDGE('',*,*,#176,.F.) ;
#192=ORIENTED_EDGE('',*,*,#183,.F.) ;
#193=ORIENTED_EDGE('',*,*,#188,.T.) ;
#207=ORIENTED_EDGE('',*,*,#200,.T.) ;
#208=ORIENTED_EDGE('',*,*,#188,.F.) ;
#209=ORIENTED_EDGE('',*,*,#205,.F.) ;
#210=ORIENTED_EDGE('',*,*,#176,.T.) ;
#247=ORIENTED_EDGE('',*,*,#226,.T.) ;
#248=ORIENTED_EDGE('',*,*,#233,.F.) ;
#249=ORIENTED_EDGE('',*,*,#240,.F.) ;
#250=ORIENTED_EDGE('',*,*,#245,.T.) ;
#264=ORIENTED_EDGE('',*,*,#257,.T.) ;
#265=ORIENTED_EDGE('',*,*,#245,.F.) ;
#266=ORIENTED_EDGE('',*,*,#262,.F.) ;
#267=ORIENTED_EDGE('',*,*,#233,.T.) ;
#276=ORIENTED_EDGE('',*,*,#143,.F.) ;
#277=ORIENTED_EDGE('',*,*,#114,.F.) ;
#278=ORIENTED_EDGE('',*,*,#83,.F.) ;
#279=ORIENTED_EDGE('',*,*,#52,.F.) ;
#282=ORIENTED_EDGE('',*,*,#205,.T.) ;
#283=ORIENTED_EDGE('',*,*,#183,.T.) ;
#286=ORIENTED_EDGE('',*,*,#262,.T.) ;
#287=ORIENTED_EDGE('',*,*,#240,.T.) ;
#296=ORIENTED_EDGE('',*,*,#64,.T.) ;
#297=ORIENTED_EDGE('',*,*,#95,.T.) ;
#298=ORIENTED_EDGE('',*,*,#126,.T.) ;
#299=ORIENTED_EDGE('',*,*,#148,.T.) ;
#302=ORIENTED_EDGE('',*,*,#169,.F.) ;
#303=ORIENTED_EDGE('',*,*,#200,.F.) ;
#306=ORIENTED_EDGE('',*,*,#226,.F.) ;
#307=ORIENTED_EDGE('',*,*,#257,.F.) ;
#284=FACE_BOUND('',#281,.T.) ;
#288=FACE_BOUND('',#285,.T.) ;
#304=FACE_BOUND('',#301,.T.) ;
#308=FACE_BOUND('',#305,.T.) ;
#31=CLOSED_SHELL('Closed Shell',(#71,#102,#133,#155,#195,#212,#252,#269,#289,#309)) ;
#310=ADVANCED_BREP_SHAPE_REPRESENTATION('NONE',(#21),#16) ;
#71=ADVANCED_FACE('Hauptk\X2\00F6\X0\rper',(#70),#36,.T.) ;
#102=ADVANCED_FACE('Hauptk\X2\00F6\X0\rper',(#101),#76,.F.) ;
#133=ADVANCED_FACE('Hauptk\X2\00F6\X0\rper',(#132),#107,.T.) ;
#155=ADVANCED_FACE('Hauptk\X2\00F6\X0\rper',(#154),#138,.F.) ;
#195=ADVANCED_FACE('Hauptk\X2\00F6\X0\rper',(#194),#160,.F.) ;
#212=ADVANCED_FACE('Hauptk\X2\00F6\X0\rper',(#211),#160,.F.) ;
#252=ADVANCED_FACE('Hauptk\X2\00F6\X0\rper',(#251),#217,.F.) ;
#269=ADVANCED_FACE('Hauptk\X2\00F6\X0\rper',(#268),#217,.F.) ;
#289=ADVANCED_FACE('Hauptk\X2\00F6\X0\rper',(#280,#284,#288),#274,.F.) ;
#309=ADVANCED_FACE('Hauptk\X2\00F6\X0\rper',(#300,#304,#308),#294,.T.) ;
#4=APPLICATION_PROTOCOL_DEFINITION('international standard','automotive_design',2001,#1) ;
#21=MANIFOLD_SOLID_BREP('Hauptk\X2\00F6\X0\rper',#31) ;
#164=CIRCLE('generated circle',#163,6.3) ;
#180=CIRCLE('generated circle',#179,6.3) ;
#199=CIRCLE('generated circle',#198,6.3) ;
#204=CIRCLE('generated circle',#203,6.3) ;
#221=CIRCLE('generated circle',#220,6.3) ;
#237=CIRCLE('generated circle',#236,6.3) ;
#256=CIRCLE('generated circle',#255,6.3) ;
#261=CIRCLE('generated circle',#260,6.3) ;
#22=COLOUR_RGB('Colour',0.690196078431,0.690196078431,0.690196078431) ;
#160=CYLINDRICAL_SURFACE('generated cylinder',#159,6.3) ;
#217=CYLINDRICAL_SURFACE('generated cylinder',#216,6.3) ;
#45=EDGE_CURVE('',#42,#44,#40,.T.) ;
#52=EDGE_CURVE('',#42,#51,#49,.T.) ;
#59=EDGE_CURVE('',#51,#58,#56,.T.) ;
#64=EDGE_CURVE('',#44,#58,#63,.T.) ;
#83=EDGE_CURVE('',#51,#82,#80,.F.) ;
#90=EDGE_CURVE('',#82,#89,#87,.T.) ;
#95=EDGE_CURVE('',#58,#89,#94,.F.) ;
#114=EDGE_CURVE('',#82,#113,#111,.T.) ;
#121=EDGE_CURVE('',#113,#120,#118,.T.) ;
#126=EDGE_CURVE('',#89,#120,#125,.T.) ;
#143=EDGE_CURVE('',#113,#42,#142,.F.) ;
#148=EDGE_CURVE('',#120,#44,#147,.F.) ;
#169=EDGE_CURVE('',#166,#168,#164,.T.) ;
#176=EDGE_CURVE('',#175,#168,#173,.T.) ;
#183=EDGE_CURVE('',#182,#175,#180,.T.) ;
#188=EDGE_CURVE('',#182,#166,#187,.T.) ;
#200=EDGE_CURVE('',#168,#166,#199,.T.) ;
#205=EDGE_CURVE('',#175,#182,#204,.T.) ;
#226=EDGE_CURVE('',#223,#225,#221,.T.) ;
#233=EDGE_CURVE('',#232,#225,#230,.T.) ;
#240=EDGE_CURVE('',#239,#232,#237,.T.) ;
#245=EDGE_CURVE('',#239,#223,#244,.T.) ;
#257=EDGE_CURVE('',#225,#223,#256,.T.) ;
#262=EDGE_CURVE('',#232,#239,#261,.T.) ;
#65=EDGE_LOOP('',(#66,#67,#68,#69)) ;
#96=EDGE_LOOP('',(#97,#98,#99,#100)) ;
#127=EDGE_LOOP('',(#128,#129,#130,#131)) ;
#149=EDGE_LOOP('',(#150,#151,#152,#153)) ;
#189=EDGE_LOOP('',(#190,#191,#192,#193)) ;
#206=EDGE_LOOP('',(#207,#208,#209,#210)) ;
#246=EDGE_LOOP('',(#247,#248,#249,#250)) ;
#263=EDGE_LOOP('',(#264,#265,#266,#267)) ;
#275=EDGE_LOOP('',(#276,#277,#278,#279)) ;
#281=EDGE_LOOP('',(#282,#283)) ;
#285=EDGE_LOOP('',(#286,#287)) ;
#295=EDGE_LOOP('',(#296,#297,#298,#299)) ;
#301=EDGE_LOOP('',(#302,#303)) ;
#305=EDGE_LOOP('',(#306,#307)) ;
#70=FACE_OUTER_BOUND('',#65,.T.) ;
#101=FACE_OUTER_BOUND('',#96,.T.) ;
#132=FACE_OUTER_BOUND('',#127,.T.) ;
#154=FACE_OUTER_BOUND('',#149,.T.) ;
#194=FACE_OUTER_BOUND('',#189,.T.) ;
#211=FACE_OUTER_BOUND('',#206,.T.) ;
#251=FACE_OUTER_BOUND('',#246,.T.) ;
#268=FACE_OUTER_BOUND('',#263,.T.) ;
#280=FACE_OUTER_BOUND('',#275,.T.) ;
#300=FACE_OUTER_BOUND('',#295,.T.) ;
#40=LINE('Line',#37,#39) ;
#49=LINE('Line',#46,#48) ;
#56=LINE('Line',#53,#55) ;
#63=LINE('Line',#60,#62) ;
#80=LINE('Line',#77,#79) ;
#87=LINE('Line',#84,#86) ;
#94=LINE('Line',#91,#93) ;
#111=LINE('Line',#108,#110) ;
#118=LINE('Line',#115,#117) ;
#125=LINE('Line',#122,#124) ;
#142=LINE('Line',#139,#141) ;
#147=LINE('Line',#144,#146) ;
#173=LINE('Line',#170,#172) ;
#187=LINE('Line',#184,#186) ;
#230=LINE('Line',#227,#229) ;
#244=LINE('Line',#241,#243) ;
#36=PLANE('',#35) ;
#76=PLANE('',#75) ;
#107=PLANE('',#106) ;
#138=PLANE('',#137) ;
#274=PLANE('',#273) ;
#294=PLANE('',#293) ;
#9=PRODUCT_CATEGORY_RELATIONSHIP(' ',' ',#7,#8) ;
#6=PRODUCT_DEFINITION_FORMATION_WITH_SPECIFIED_SOURCE('',' ',#5,.NOT_KNOWN.) ;
#20=SHAPE_DEFINITION_REPRESENTATION(#11,#19) ;
#42=VERTEX_POINT('',#41) ;
#44=VERTEX_POINT('',#43) ;
#51=VERTEX_POINT('',#50) ;
#58=VERTEX_POINT('',#57) ;
#82=VERTEX_POINT('',#81) ;
#89=VERTEX_POINT('',#88) ;
#113=VERTEX_POINT('',#112) ;
#120=VERTEX_POINT('',#119) ;
#166=VERTEX_POINT('',#165) ;
#168=VERTEX_POINT('',#167) ;
#175=VERTEX_POINT('',#174) ;
#182=VERTEX_POINT('',#181) ;
#223=VERTEX_POINT('',#222) ;
#225=VERTEX_POINT('',#224) ;
#232=VERTEX_POINT('',#231) ;
#239=VERTEX_POINT('',#238) ;
#12=(LENGTH_UNIT()NAMED_UNIT(*)SI_UNIT(.MILLI.,.METRE.)) ;
#13=(NAMED_UNIT(*)PLANE_ANGLE_UNIT()SI_UNIT($,.RADIAN.)) ;
#14=(NAMED_UNIT(*)SI_UNIT($,.STERADIAN.)SOLID_ANGLE_UNIT()) ;
#16=(GEOMETRIC_REPRESENTATION_CONTEXT(3)GLOBAL_UNCERTAINTY_ASSIGNED_CONTEXT((#15))GLOBAL_UNIT_ASSIGNED_CONTEXT((#12,#13,#14))REPRESENTATION_CONTEXT(' ',' ')) ;
ENDSEC;
END-ISO-10303-21;
