ISO-10303-21;
HEADER;
FILE_DESCRIPTION(('CATIA V5R24 STEP','CAx-IF Rec.Pracs.--- Model Styling and Organization---1.2---2011-12-15'),'2;1');

FILE_NAME ('D1454865_0_1719560000_1719560000.stp','2018-01-19T07:44:38+00:00',('none'),('Weidmueller'),'CATIA Version 5-6 Release 2014 SP4 HF52','CATIA V5 STEP AP214','none');

FILE_SCHEMA(('AUTOMOTIVE_DESIGN { 1 0 10303 214 1 1 1 1 }'));

ENDSEC;
DATA;
#5=PRODUCT('1719560000_GWDR_PG11-NP','','',(#2)) ;
#2=PRODUCT_CONTEXT(' ',#1,'mechanical') ;
#1=APPLICATION_CONTEXT('automotive design') ;
#10=PRODUCT_DEFINITION('',' ',#6,#3) ;
#3=PRODUCT_DEFINITION_CONTEXT('part definition',#1,' ') ;
#11=PRODUCT_DEFINITION_SHAPE(' ',' ',#10) ;
#198=MECHANICAL_DESIGN_GEOMETRIC_PRESENTATION_REPRESENTATION(' ',(#78,#112,#130,#159,#182,#195,#29),#16) ;
#19=SHAPE_REPRESENTATION(' ',(#18),#16) ;
#18=AXIS2_PLACEMENT_3D(' ',#17,$,$) ;
#34=AXIS2_PLACEMENT_3D('Cylinder Axis2P3D',#31,#32,#33) ;
#38=AXIS2_PLACEMENT_3D('Circle Axis2P3D',#36,#37,$) ;
#54=AXIS2_PLACEMENT_3D('Circle Axis2P3D',#52,#53,$) ;
#82=AXIS2_PLACEMENT_3D('Plane Axis2P3D',#79,#80,#81) ;
#86=AXIS2_PLACEMENT_3D('Circle Axis2P3D',#84,#85,$) ;
#95=AXIS2_PLACEMENT_3D('Circle Axis2P3D',#93,#94,$) ;
#104=AXIS2_PLACEMENT_3D('Circle Axis2P3D',#102,#103,$) ;
#116=AXIS2_PLACEMENT_3D('Cylinder Axis2P3D',#113,#114,#115) ;
#120=AXIS2_PLACEMENT_3D('Circle Axis2P3D',#118,#119,$) ;
#134=AXIS2_PLACEMENT_3D('Plane Axis2P3D',#131,#132,#133) ;
#138=AXIS2_PLACEMENT_3D('Circle Axis2P3D',#136,#137,$) ;
#147=AXIS2_PLACEMENT_3D('Circle Axis2P3D',#145,#146,$) ;
#163=AXIS2_PLACEMENT_3D('Cylinder Axis2P3D',#160,#161,#162) ;
#186=AXIS2_PLACEMENT_3D('Cylinder Axis2P3D',#183,#184,#185) ;
#17=CARTESIAN_POINT(' ',(0.,0.,0.)) ;
#31=CARTESIAN_POINT('Axis2P3D Location',(12.,12.,1.2)) ;
#36=CARTESIAN_POINT('Axis2P3D Location',(12.,12.,1.2)) ;
#40=CARTESIAN_POINT('Vertex',(3.5,12.,1.2)) ;
#42=CARTESIAN_POINT('Vertex',(20.5,12.,1.2)) ;
#45=CARTESIAN_POINT('Line Origine',(20.5,12.,1.19999999925)) ;
#49=CARTESIAN_POINT('Vertex',(20.5,12.,7.45058015283E-010)) ;
#52=CARTESIAN_POINT('Axis2P3D Location',(12.,12.,7.45058015283E-010)) ;
#56=CARTESIAN_POINT('Vertex',(3.5,12.,7.45058015283E-010)) ;
#59=CARTESIAN_POINT('Line Origine',(3.5,12.,1.19999999925)) ;
#79=CARTESIAN_POINT('Axis2P3D Location',(12.,12.,1.2)) ;
#84=CARTESIAN_POINT('Axis2P3D Location',(12.,12.,1.2)) ;
#88=CARTESIAN_POINT('Vertex',(0.,12.,1.2)) ;
#90=CARTESIAN_POINT('Vertex',(24.,12.,1.2)) ;
#93=CARTESIAN_POINT('Axis2P3D Location',(12.,12.,1.2)) ;
#102=CARTESIAN_POINT('Axis2P3D Location',(12.,12.,1.2)) ;
#113=CARTESIAN_POINT('Axis2P3D Location',(12.,12.,1.2)) ;
#118=CARTESIAN_POINT('Axis2P3D Location',(12.,12.,7.45058015283E-010)) ;
#131=CARTESIAN_POINT('Axis2P3D Location',(12.,12.,0.)) ;
#136=CARTESIAN_POINT('Axis2P3D Location',(12.,12.,0.)) ;
#140=CARTESIAN_POINT('Vertex',(0.,12.,0.)) ;
#142=CARTESIAN_POINT('Vertex',(24.,12.,0.)) ;
#145=CARTESIAN_POINT('Axis2P3D Location',(12.,12.,0.)) ;
#160=CARTESIAN_POINT('Axis2P3D Location',(12.,12.,1.2)) ;
#165=CARTESIAN_POINT('Line Origine',(24.,12.,1.19999999925)) ;
#170=CARTESIAN_POINT('Line Origine',(1.7997117392E-031,12.,1.19999999925)) ;
#183=CARTESIAN_POINT('Axis2P3D Location',(12.,12.,1.2)) ;
#32=DIRECTION('Axis2P3D Direction',(-0.,0.,-1.)) ;
#33=DIRECTION('Axis2P3D XDirection',(1.,1.22464679915E-016,-0.)) ;
#37=DIRECTION('Axis2P3D Direction',(-0.,0.,-1.)) ;
#46=DIRECTION('Vector Direction',(0.,0.,-1.)) ;
#53=DIRECTION('Axis2P3D Direction',(-0.,0.,-1.)) ;
#60=DIRECTION('Vector Direction',(0.,0.,-1.)) ;
#80=DIRECTION('Axis2P3D Direction',(0.,0.,1.)) ;
#81=DIRECTION('Axis2P3D XDirection',(1.,0.,0.)) ;
#85=DIRECTION('Axis2P3D Direction',(0.,0.,1.)) ;
#94=DIRECTION('Axis2P3D Direction',(0.,0.,1.)) ;
#103=DIRECTION('Axis2P3D Direction',(0.,0.,1.)) ;
#114=DIRECTION('Axis2P3D Direction',(0.,0.,-1.)) ;
#115=DIRECTION('Axis2P3D XDirection',(-1.,0.,0.)) ;
#119=DIRECTION('Axis2P3D Direction',(0.,0.,-1.)) ;
#132=DIRECTION('Axis2P3D Direction',(0.,0.,1.)) ;
#133=DIRECTION('Axis2P3D XDirection',(1.,0.,0.)) ;
#137=DIRECTION('Axis2P3D Direction',(0.,0.,1.)) ;
#146=DIRECTION('Axis2P3D Direction',(0.,0.,1.)) ;
#161=DIRECTION('Axis2P3D Direction',(-0.,0.,-1.)) ;
#162=DIRECTION('Axis2P3D XDirection',(1.,1.22464679915E-016,-0.)) ;
#166=DIRECTION('Vector Direction',(0.,0.,-1.)) ;
#171=DIRECTION('Vector Direction',(0.,0.,-1.)) ;
#184=DIRECTION('Axis2P3D Direction',(0.,0.,-1.)) ;
#185=DIRECTION('Axis2P3D XDirection',(-1.,0.,0.)) ;
#8=PRODUCT_RELATED_PRODUCT_CATEGORY('part',$,(#5)) ;
#7=PRODUCT_CATEGORY('part','specification') ;
#29=STYLED_ITEM(' ',(#28),#21) ;
#28=PRESENTATION_STYLE_ASSIGNMENT((#27)) ;
#77=PRESENTATION_STYLE_ASSIGNMENT((#76)) ;
#27=SURFACE_STYLE_USAGE(.BOTH.,#26) ;
#76=SURFACE_STYLE_USAGE(.BOTH.,#75) ;
#26=SURFACE_SIDE_STYLE(' ',(#25)) ;
#75=SURFACE_SIDE_STYLE(' ',(#74)) ;
#25=SURFACE_STYLE_FILL_AREA(#24) ;
#74=SURFACE_STYLE_FILL_AREA(#73) ;
#24=FILL_AREA_STYLE(' ',(#23)) ;
#73=FILL_AREA_STYLE(' ',(#72)) ;
#23=FILL_AREA_STYLE_COLOUR(' ',#22) ;
#72=FILL_AREA_STYLE_COLOUR(' ',#71) ;
#47=VECTOR('Line Direction',#46,1.) ;
#61=VECTOR('Line Direction',#60,1.) ;
#167=VECTOR('Line Direction',#166,1.) ;
#172=VECTOR('Line Direction',#171,1.) ;
#15=UNCERTAINTY_MEASURE_WITH_UNIT(LENGTH_MEASURE(0.005),#12,'distance_accuracy_value','CONFUSED CURVE UNCERTAINTY') ;
#197=SHAPE_REPRESENTATION_RELATIONSHIP(' ',' ',#19,#196) ;
#65=ORIENTED_EDGE('',*,*,#44,.T.) ;
#66=ORIENTED_EDGE('',*,*,#51,.T.) ;
#67=ORIENTED_EDGE('',*,*,#58,.F.) ;
#68=ORIENTED_EDGE('',*,*,#63,.F.) ;
#99=ORIENTED_EDGE('',*,*,#92,.T.) ;
#100=ORIENTED_EDGE('',*,*,#97,.T.) ;
#108=ORIENTED_EDGE('',*,*,#44,.F.) ;
#109=ORIENTED_EDGE('',*,*,#106,.F.) ;
#124=ORIENTED_EDGE('',*,*,#51,.F.) ;
#125=ORIENTED_EDGE('',*,*,#106,.T.) ;
#126=ORIENTED_EDGE('',*,*,#63,.T.) ;
#127=ORIENTED_EDGE('',*,*,#122,.F.) ;
#151=ORIENTED_EDGE('',*,*,#144,.F.) ;
#152=ORIENTED_EDGE('',*,*,#149,.F.) ;
#155=ORIENTED_EDGE('',*,*,#58,.T.) ;
#156=ORIENTED_EDGE('',*,*,#122,.T.) ;
#176=ORIENTED_EDGE('',*,*,#169,.F.) ;
#177=ORIENTED_EDGE('',*,*,#92,.F.) ;
#178=ORIENTED_EDGE('',*,*,#174,.T.) ;
#179=ORIENTED_EDGE('',*,*,#144,.T.) ;
#189=ORIENTED_EDGE('',*,*,#97,.F.) ;
#190=ORIENTED_EDGE('',*,*,#169,.T.) ;
#191=ORIENTED_EDGE('',*,*,#149,.T.) ;
#192=ORIENTED_EDGE('',*,*,#174,.F.) ;
#110=FACE_BOUND('',#107,.T.) ;
#157=FACE_BOUND('',#154,.T.) ;
#30=CLOSED_SHELL('Closed Shell',(#70,#111,#129,#158,#181,#194)) ;
#196=ADVANCED_BREP_SHAPE_REPRESENTATION('NONE',(#21),#16) ;
#70=ADVANCED_FACE('Aufsatz-Linear austragen1',(#69),#35,.F.) ;
#111=ADVANCED_FACE('Aufsatz-Linear austragen1',(#101,#110),#83,.T.) ;
#129=ADVANCED_FACE('Aufsatz-Linear austragen1',(#128),#117,.F.) ;
#158=ADVANCED_FACE('Aufsatz-Linear austragen1',(#153,#157),#135,.F.) ;
#181=ADVANCED_FACE('Aufsatz-Linear austragen1',(#180),#164,.T.) ;
#194=ADVANCED_FACE('Aufsatz-Linear austragen1',(#193),#187,.T.) ;
#4=APPLICATION_PROTOCOL_DEFINITION('international standard','automotive_design',2001,#1) ;
#21=MANIFOLD_SOLID_BREP('Aufsatz-Linear austragen1',#30) ;
#39=CIRCLE('generated circle',#38,8.5) ;
#55=CIRCLE('generated circle',#54,8.5) ;
#87=CIRCLE('generated circle',#86,12.) ;
#96=CIRCLE('generated circle',#95,12.) ;
#105=CIRCLE('generated circle',#104,8.5) ;
#121=CIRCLE('generated circle',#120,8.5) ;
#139=CIRCLE('generated circle',#138,12.) ;
#148=CIRCLE('generated circle',#147,12.) ;
#22=COLOUR_RGB('Colour',0.823529411765,0.823529411765,1.) ;
#71=COLOUR_RGB('Colour',0.262745098039,0.235294117647,0.258823529412) ;
#78=OVER_RIDING_STYLED_ITEM(' ',(#77),#70,#29) ;
#112=OVER_RIDING_STYLED_ITEM(' ',(#77),#111,#29) ;
#130=OVER_RIDING_STYLED_ITEM(' ',(#77),#129,#29) ;
#159=OVER_RIDING_STYLED_ITEM(' ',(#77),#158,#29) ;
#182=OVER_RIDING_STYLED_ITEM(' ',(#77),#181,#29) ;
#195=OVER_RIDING_STYLED_ITEM(' ',(#77),#194,#29) ;
#35=CYLINDRICAL_SURFACE('generated cylinder',#34,8.5) ;
#117=CYLINDRICAL_SURFACE('generated cylinder',#116,8.5) ;
#164=CYLINDRICAL_SURFACE('generated cylinder',#163,12.) ;
#187=CYLINDRICAL_SURFACE('generated cylinder',#186,12.) ;
#44=EDGE_CURVE('',#41,#43,#39,.F.) ;
#51=EDGE_CURVE('',#43,#50,#48,.T.) ;
#58=EDGE_CURVE('',#57,#50,#55,.F.) ;
#63=EDGE_CURVE('',#41,#57,#62,.T.) ;
#92=EDGE_CURVE('',#89,#91,#87,.T.) ;
#97=EDGE_CURVE('',#91,#89,#96,.T.) ;
#106=EDGE_CURVE('',#43,#41,#105,.T.) ;
#122=EDGE_CURVE('',#50,#57,#121,.F.) ;
#144=EDGE_CURVE('',#141,#143,#139,.T.) ;
#149=EDGE_CURVE('',#143,#141,#148,.T.) ;
#169=EDGE_CURVE('',#91,#143,#168,.T.) ;
#174=EDGE_CURVE('',#89,#141,#173,.T.) ;
#64=EDGE_LOOP('',(#65,#66,#67,#68)) ;
#98=EDGE_LOOP('',(#99,#100)) ;
#107=EDGE_LOOP('',(#108,#109)) ;
#123=EDGE_LOOP('',(#124,#125,#126,#127)) ;
#150=EDGE_LOOP('',(#151,#152)) ;
#154=EDGE_LOOP('',(#155,#156)) ;
#175=EDGE_LOOP('',(#176,#177,#178,#179)) ;
#188=EDGE_LOOP('',(#189,#190,#191,#192)) ;
#69=FACE_OUTER_BOUND('',#64,.T.) ;
#101=FACE_OUTER_BOUND('',#98,.T.) ;
#128=FACE_OUTER_BOUND('',#123,.T.) ;
#153=FACE_OUTER_BOUND('',#150,.T.) ;
#180=FACE_OUTER_BOUND('',#175,.T.) ;
#193=FACE_OUTER_BOUND('',#188,.T.) ;
#48=LINE('Line',#45,#47) ;
#62=LINE('Line',#59,#61) ;
#168=LINE('Line',#165,#167) ;
#173=LINE('Line',#170,#172) ;
#83=PLANE('',#82) ;
#135=PLANE('',#134) ;
#9=PRODUCT_CATEGORY_RELATIONSHIP(' ',' ',#7,#8) ;
#6=PRODUCT_DEFINITION_FORMATION_WITH_SPECIFIED_SOURCE('',' ',#5,.NOT_KNOWN.) ;
#20=SHAPE_DEFINITION_REPRESENTATION(#11,#19) ;
#41=VERTEX_POINT('',#40) ;
#43=VERTEX_POINT('',#42) ;
#50=VERTEX_POINT('',#49) ;
#57=VERTEX_POINT('',#56) ;
#89=VERTEX_POINT('',#88) ;
#91=VERTEX_POINT('',#90) ;
#141=VERTEX_POINT('',#140) ;
#143=VERTEX_POINT('',#142) ;
#12=(LENGTH_UNIT()NAMED_UNIT(*)SI_UNIT(.MILLI.,.METRE.)) ;
#13=(NAMED_UNIT(*)PLANE_ANGLE_UNIT()SI_UNIT($,.RADIAN.)) ;
#14=(NAMED_UNIT(*)SI_UNIT($,.STERADIAN.)SOLID_ANGLE_UNIT()) ;
#16=(GEOMETRIC_REPRESENTATION_CONTEXT(3)GLOBAL_UNCERTAINTY_ASSIGNED_CONTEXT((#15))GLOBAL_UNIT_ASSIGNED_CONTEXT((#12,#13,#14))REPRESENTATION_CONTEXT(' ',' ')) ;
ENDSEC;
END-ISO-10303-21;
