ISO-10303-21;
HEADER;
FILE_DESCRIPTION(('CATIA V5 STEP Exchange','CAx-IF Rec.Pracs.--- Model Styling and Organization---1.4--- 2014-01-23'),'2;1');

FILE_NAME ('005988-2_0_1083900000_1083900000_S.stp','2021-06-08T09:45:20+00:00',('none'),('Weidmueller'),'CATIA Version 5-6 Release 2016 SP3 HF44','CATIA V5 STEP AP214','none');

FILE_SCHEMA(('AUTOMOTIVE_DESIGN { 1 0 10303 214 1 1 1 1 }'));

ENDSEC;
DATA;
#5=PRODUCT('1083900000','','',(#2)) ;
#2=PRODUCT_CONTEXT(' ',#1,'mechanical') ;
#1=APPLICATION_CONTEXT('automotive design') ;
#10=PRODUCT_DEFINITION('',' ',#6,#3) ;
#3=PRODUCT_DEFINITION_CONTEXT('part definition',#1,' ') ;
#11=PRODUCT_DEFINITION_SHAPE(' ',' ',#10) ;
#325=MECHANICAL_DESIGN_GEOMETRIC_PRESENTATION_REPRESENTATION(' ',(#29),#16) ;
#326=MECHANICAL_DESIGN_GEOMETRIC_PRESENTATION_REPRESENTATION(' ',(#322),#16) ;
#19=SHAPE_REPRESENTATION(' ',(#18),#16) ;
#18=AXIS2_PLACEMENT_3D(' ',#17,$,$) ;
#35=AXIS2_PLACEMENT_3D('Plane Axis2P3D',#32,#33,#34) ;
#75=AXIS2_PLACEMENT_3D('Cylinder Axis2P3D',#72,#73,#74) ;
#79=AXIS2_PLACEMENT_3D('Circle Axis2P3D',#77,#78,$) ;
#93=AXIS2_PLACEMENT_3D('Circle Axis2P3D',#91,#92,$) ;
#106=AXIS2_PLACEMENT_3D('Plane Axis2P3D',#103,#104,#105) ;
#137=AXIS2_PLACEMENT_3D('Plane Axis2P3D',#134,#135,#136) ;
#168=AXIS2_PLACEMENT_3D('Plane Axis2P3D',#165,#166,#167) ;
#199=AXIS2_PLACEMENT_3D('Cylinder Axis2P3D',#196,#197,#198) ;
#203=AXIS2_PLACEMENT_3D('Circle Axis2P3D',#201,#202,$) ;
#217=AXIS2_PLACEMENT_3D('Circle Axis2P3D',#215,#216,$) ;
#230=AXIS2_PLACEMENT_3D('Plane Axis2P3D',#227,#228,#229) ;
#261=AXIS2_PLACEMENT_3D('Plane Axis2P3D',#258,#259,#260) ;
#283=AXIS2_PLACEMENT_3D('Plane Axis2P3D',#280,#281,#282) ;
#299=AXIS2_PLACEMENT_3D('Plane Axis2P3D',#296,#297,#298) ;
#317=AXIS2_PLACEMENT_3D('Axis System.1',#314,#315,#316) ;
#17=CARTESIAN_POINT(' ',(0.,0.,0.)) ;
#32=CARTESIAN_POINT('Axis2P3D Location',(1.6968347669E-010,-2.01180228032E-009,133.999999998)) ;
#37=CARTESIAN_POINT('Line Origine',(1.69686783237E-010,9.99999999799,69.9999999982)) ;
#41=CARTESIAN_POINT('Vertex',(1.69675271557E-010,9.99999999799,133.999999998)) ;
#43=CARTESIAN_POINT('Vertex',(1.69683109296E-010,9.99999999799,5.99999999816)) ;
#46=CARTESIAN_POINT('Line Origine',(1.69691008268E-010,4.99999999799,5.99999999816)) ;
#50=CARTESIAN_POINT('Vertex',(1.69683109296E-010,-2.01180228032E-009,5.99999999816)) ;
#53=CARTESIAN_POINT('Line Origine',(1.6968739556E-010,-2.01180228032E-009,69.9999999982)) ;
#57=CARTESIAN_POINT('Vertex',(1.69675271557E-010,-2.01180228032E-009,133.999999998)) ;
#60=CARTESIAN_POINT('Line Origine',(1.69683170529E-010,4.99999999799,133.999999998)) ;
#72=CARTESIAN_POINT('Axis2P3D Location',(6.00000000017,4.99999999799,5.99999999816)) ;
#77=CARTESIAN_POINT('Axis2P3D Location',(6.00000000017,9.99999999799,5.99999999816)) ;
#81=CARTESIAN_POINT('Vertex',(6.00000000017,9.99999999799,-1.84203815432E-009)) ;
#84=CARTESIAN_POINT('Line Origine',(6.00000000017,4.99999999799,-1.84204029807E-009)) ;
#88=CARTESIAN_POINT('Vertex',(6.00000000017,-2.01180191293E-009,-1.8420390425E-009)) ;
#91=CARTESIAN_POINT('Axis2P3D Location',(6.00000000017,-2.01180228032E-009,5.99999999816)) ;
#103=CARTESIAN_POINT('Axis2P3D Location',(6.00000000017,-2.01180228032E-009,-1.84204118625E-009)) ;
#108=CARTESIAN_POINT('Line Origine',(70.0000000002,9.99999999799,-1.84203726738E-009)) ;
#112=CARTESIAN_POINT('Vertex',(134.,9.99999999799,-1.84203209294E-009)) ;
#115=CARTESIAN_POINT('Line Origine',(134.,4.99999999799,-1.84203334851E-009)) ;
#119=CARTESIAN_POINT('Vertex',(134.,-2.01179407519E-009,-1.84203298112E-009)) ;
#122=CARTESIAN_POINT('Line Origine',(70.0000000002,-2.01179836145E-009,-1.84203726738E-009)) ;
#134=CARTESIAN_POINT('Axis2P3D Location',(134.,-2.01177385861E-009,-1.84204651532E-009)) ;
#139=CARTESIAN_POINT('Line Origine',(134.,9.99999999799,1.49999999816)) ;
#143=CARTESIAN_POINT('Vertex',(134.,9.99999999799,2.99999999816)) ;
#146=CARTESIAN_POINT('Line Origine',(134.,4.99999999799,2.99999999816)) ;
#150=CARTESIAN_POINT('Vertex',(134.,-2.01179407519E-009,2.99999999816)) ;
#153=CARTESIAN_POINT('Line Origine',(134.,-2.01177385861E-009,1.49999999816)) ;
#165=CARTESIAN_POINT('Axis2P3D Location',(134.,-2.01177385861E-009,2.99999999816)) ;
#170=CARTESIAN_POINT('Line Origine',(70.0000000002,9.99999999799,2.99999999816)) ;
#174=CARTESIAN_POINT('Vertex',(6.00000000017,9.99999999799,2.99999999816)) ;
#177=CARTESIAN_POINT('Line Origine',(6.00000000017,4.99999999799,2.99999999816)) ;
#181=CARTESIAN_POINT('Vertex',(6.00000000017,-2.01180191293E-009,2.99999999816)) ;
#184=CARTESIAN_POINT('Line Origine',(70.0000000002,-2.01177777748E-009,2.99999999816)) ;
#196=CARTESIAN_POINT('Axis2P3D Location',(6.00000000017,4.99999999799,5.99999999816)) ;
#201=CARTESIAN_POINT('Axis2P3D Location',(6.00000000017,9.99999999799,5.99999999816)) ;
#205=CARTESIAN_POINT('Vertex',(3.00000000017,9.99999999799,5.99999999816)) ;
#208=CARTESIAN_POINT('Line Origine',(3.00000000017,4.99999999799,5.99999999816)) ;
#212=CARTESIAN_POINT('Vertex',(3.00000000017,-2.01180209662E-009,5.99999999816)) ;
#215=CARTESIAN_POINT('Axis2P3D Location',(6.00000000017,-2.01180228032E-009,5.99999999816)) ;
#227=CARTESIAN_POINT('Axis2P3D Location',(3.00000000017,-2.01180228032E-009,5.99999999816)) ;
#232=CARTESIAN_POINT('Line Origine',(3.00000000017,9.99999999799,69.9999999982)) ;
#236=CARTESIAN_POINT('Vertex',(3.00000000017,9.99999999799,133.999999998)) ;
#239=CARTESIAN_POINT('Line Origine',(3.00000000017,4.99999999799,133.999999998)) ;
#243=CARTESIAN_POINT('Vertex',(3.00000000017,-2.01180209662E-009,133.999999998)) ;
#246=CARTESIAN_POINT('Line Origine',(3.00000000017,-2.01180228032E-009,69.9999999982)) ;
#258=CARTESIAN_POINT('Axis2P3D Location',(3.00000000017,-2.01180228032E-009,133.999999998)) ;
#263=CARTESIAN_POINT('Line Origine',(1.50000000017,9.99999999799,133.999999998)) ;
#268=CARTESIAN_POINT('Line Origine',(1.50000000017,-2.01180237217E-009,133.999999998)) ;
#280=CARTESIAN_POINT('Axis2P3D Location',(1.6968347669E-010,-2.01180228032E-009,-1.84204118625E-009)) ;
#296=CARTESIAN_POINT('Axis2P3D Location',(1.6968347669E-010,9.99999999799,-1.84204029807E-009)) ;
#314=CARTESIAN_POINT('Axis2P3D Location',(0.,0.,0.)) ;
#33=DIRECTION('Axis2P3D Direction',(1.,6.12323399574E-017,6.12323399574E-017)) ;
#34=DIRECTION('Axis2P3D XDirection',(6.12323399574E-017,0.,-1.)) ;
#38=DIRECTION('Vector Direction',(6.12323399573E-017,0.,-1.)) ;
#47=DIRECTION('Vector Direction',(-6.12323399564E-017,1.,0.)) ;
#54=DIRECTION('Vector Direction',(6.12323399573E-017,0.,-1.)) ;
#61=DIRECTION('Vector Direction',(-6.12323399564E-017,1.,0.)) ;
#73=DIRECTION('Axis2P3D Direction',(6.12323399574E-017,-1.,3.74939945665E-033)) ;
#74=DIRECTION('Axis2P3D XDirection',(-1.,-6.12323399574E-017,1.22464679915E-016)) ;
#78=DIRECTION('Axis2P3D Direction',(6.12323399574E-017,-1.,3.74939945665E-033)) ;
#85=DIRECTION('Vector Direction',(0.,-1.,0.)) ;
#92=DIRECTION('Axis2P3D Direction',(6.12323399574E-017,-1.,3.74939945665E-033)) ;
#104=DIRECTION('Axis2P3D Direction',(-6.12323399574E-017,-3.74939945665E-033,1.)) ;
#105=DIRECTION('Axis2P3D XDirection',(1.,6.12323399574E-017,6.12323399574E-017)) ;
#109=DIRECTION('Vector Direction',(1.,5.55111512313E-017,6.12323399571E-017)) ;
#116=DIRECTION('Vector Direction',(0.,1.,0.)) ;
#123=DIRECTION('Vector Direction',(1.,6.12323399571E-017,6.12323399571E-017)) ;
#135=DIRECTION('Axis2P3D Direction',(-1.,-6.12323399574E-017,-6.12323399574E-017)) ;
#136=DIRECTION('Axis2P3D XDirection',(-6.12323399574E-017,0.,1.)) ;
#140=DIRECTION('Vector Direction',(0.,0.,1.)) ;
#147=DIRECTION('Vector Direction',(0.,1.,0.)) ;
#154=DIRECTION('Vector Direction',(0.,0.,1.)) ;
#166=DIRECTION('Axis2P3D Direction',(6.12323399574E-017,3.74939945665E-033,-1.)) ;
#167=DIRECTION('Axis2P3D XDirection',(-1.,-6.12323399574E-017,-6.12323399574E-017)) ;
#171=DIRECTION('Vector Direction',(-1.,-5.55111512313E-017,-6.24500451352E-017)) ;
#178=DIRECTION('Vector Direction',(-8.881784197E-017,1.,0.)) ;
#185=DIRECTION('Vector Direction',(-1.,-6.12323399571E-017,-6.24500451352E-017)) ;
#197=DIRECTION('Axis2P3D Direction',(6.12323399574E-017,-1.,3.74939945665E-033)) ;
#198=DIRECTION('Axis2P3D XDirection',(-1.,-6.12323399574E-017,1.22464679915E-016)) ;
#202=DIRECTION('Axis2P3D Direction',(6.12323399574E-017,-1.,3.74939945665E-033)) ;
#209=DIRECTION('Vector Direction',(0.,-1.,0.)) ;
#216=DIRECTION('Axis2P3D Direction',(6.12323399574E-017,-1.,3.74939945665E-033)) ;
#228=DIRECTION('Axis2P3D Direction',(-1.,-6.12323399574E-017,-6.12323399574E-017)) ;
#229=DIRECTION('Axis2P3D XDirection',(-6.12323399574E-017,0.,1.)) ;
#233=DIRECTION('Vector Direction',(-6.24500451352E-017,0.,1.)) ;
#240=DIRECTION('Vector Direction',(-4.4408920985E-017,1.,0.)) ;
#247=DIRECTION('Vector Direction',(-6.24500451352E-017,0.,1.)) ;
#259=DIRECTION('Axis2P3D Direction',(6.12323399574E-017,3.74939945665E-033,-1.)) ;
#260=DIRECTION('Axis2P3D XDirection',(-1.,-6.12323399574E-017,-6.12323399574E-017)) ;
#264=DIRECTION('Vector Direction',(-1.,0.,0.)) ;
#269=DIRECTION('Vector Direction',(-1.,-6.12323400099E-017,0.)) ;
#281=DIRECTION('Axis2P3D Direction',(6.12323399574E-017,-1.,3.74939945665E-033)) ;
#282=DIRECTION('Axis2P3D XDirection',(6.12323399574E-017,0.,-1.)) ;
#297=DIRECTION('Axis2P3D Direction',(6.12323399574E-017,-1.,3.74939945665E-033)) ;
#298=DIRECTION('Axis2P3D XDirection',(6.12323399574E-017,0.,-1.)) ;
#315=DIRECTION('Axis2P3D Direction',(0.,0.,1.)) ;
#316=DIRECTION('Axis2P3D XDirection',(1.,0.,0.)) ;
#30=PRESENTATION_LAYER_ASSIGNMENT('1',' ',(#21)) ;
#8=PRODUCT_RELATED_PRODUCT_CATEGORY('part',$,(#5)) ;
#7=PRODUCT_CATEGORY('part','specification') ;
#29=STYLED_ITEM(' ',(#28),#21) ;
#322=STYLED_ITEM(' ',(#321),#317) ;
#28=PRESENTATION_STYLE_ASSIGNMENT((#27)) ;
#321=PRESENTATION_STYLE_ASSIGNMENT((#320)) ;
#320=CURVE_STYLE(' ',#318,POSITIVE_LENGTH_MEASURE(0.129999995232),#319) ;
#27=SURFACE_STYLE_USAGE(.BOTH.,#26) ;
#26=SURFACE_SIDE_STYLE(' ',(#25)) ;
#25=SURFACE_STYLE_FILL_AREA(#24) ;
#24=FILL_AREA_STYLE(' ',(#23)) ;
#23=FILL_AREA_STYLE_COLOUR(' ',#22) ;
#39=VECTOR('Line Direction',#38,1.) ;
#48=VECTOR('Line Direction',#47,1.) ;
#55=VECTOR('Line Direction',#54,1.) ;
#62=VECTOR('Line Direction',#61,1.) ;
#86=VECTOR('Line Direction',#85,1.) ;
#110=VECTOR('Line Direction',#109,1.) ;
#117=VECTOR('Line Direction',#116,1.) ;
#124=VECTOR('Line Direction',#123,1.) ;
#141=VECTOR('Line Direction',#140,1.) ;
#148=VECTOR('Line Direction',#147,1.) ;
#155=VECTOR('Line Direction',#154,1.) ;
#172=VECTOR('Line Direction',#171,1.) ;
#179=VECTOR('Line Direction',#178,1.) ;
#186=VECTOR('Line Direction',#185,1.) ;
#210=VECTOR('Line Direction',#209,1.) ;
#234=VECTOR('Line Direction',#233,1.) ;
#241=VECTOR('Line Direction',#240,1.) ;
#248=VECTOR('Line Direction',#247,1.) ;
#265=VECTOR('Line Direction',#264,1.) ;
#270=VECTOR('Line Direction',#269,1.) ;
#15=UNCERTAINTY_MEASURE_WITH_UNIT(LENGTH_MEASURE(0.005),#12,'distance_accuracy_value','CONFUSED CURVE UNCERTAINTY') ;
#313=SHAPE_REPRESENTATION_RELATIONSHIP(' ',' ',#19,#312) ;
#66=ORIENTED_EDGE('',*,*,#45,.T.) ;
#67=ORIENTED_EDGE('',*,*,#52,.F.) ;
#68=ORIENTED_EDGE('',*,*,#59,.F.) ;
#69=ORIENTED_EDGE('',*,*,#64,.T.) ;
#97=ORIENTED_EDGE('',*,*,#83,.T.) ;
#98=ORIENTED_EDGE('',*,*,#90,.F.) ;
#99=ORIENTED_EDGE('',*,*,#95,.F.) ;
#100=ORIENTED_EDGE('',*,*,#52,.T.) ;
#128=ORIENTED_EDGE('',*,*,#114,.T.) ;
#129=ORIENTED_EDGE('',*,*,#121,.F.) ;
#130=ORIENTED_EDGE('',*,*,#126,.F.) ;
#131=ORIENTED_EDGE('',*,*,#90,.T.) ;
#159=ORIENTED_EDGE('',*,*,#145,.T.) ;
#160=ORIENTED_EDGE('',*,*,#152,.F.) ;
#161=ORIENTED_EDGE('',*,*,#157,.F.) ;
#162=ORIENTED_EDGE('',*,*,#121,.T.) ;
#190=ORIENTED_EDGE('',*,*,#176,.T.) ;
#191=ORIENTED_EDGE('',*,*,#183,.F.) ;
#192=ORIENTED_EDGE('',*,*,#188,.F.) ;
#193=ORIENTED_EDGE('',*,*,#152,.T.) ;
#221=ORIENTED_EDGE('',*,*,#207,.T.) ;
#222=ORIENTED_EDGE('',*,*,#214,.F.) ;
#223=ORIENTED_EDGE('',*,*,#219,.F.) ;
#224=ORIENTED_EDGE('',*,*,#183,.T.) ;
#252=ORIENTED_EDGE('',*,*,#238,.T.) ;
#253=ORIENTED_EDGE('',*,*,#245,.F.) ;
#254=ORIENTED_EDGE('',*,*,#250,.F.) ;
#255=ORIENTED_EDGE('',*,*,#214,.T.) ;
#274=ORIENTED_EDGE('',*,*,#267,.T.) ;
#275=ORIENTED_EDGE('',*,*,#64,.F.) ;
#276=ORIENTED_EDGE('',*,*,#272,.F.) ;
#277=ORIENTED_EDGE('',*,*,#245,.T.) ;
#286=ORIENTED_EDGE('',*,*,#59,.T.) ;
#287=ORIENTED_EDGE('',*,*,#95,.T.) ;
#288=ORIENTED_EDGE('',*,*,#126,.T.) ;
#289=ORIENTED_EDGE('',*,*,#157,.T.) ;
#290=ORIENTED_EDGE('',*,*,#188,.T.) ;
#291=ORIENTED_EDGE('',*,*,#219,.T.) ;
#292=ORIENTED_EDGE('',*,*,#250,.T.) ;
#293=ORIENTED_EDGE('',*,*,#272,.T.) ;
#302=ORIENTED_EDGE('',*,*,#267,.F.) ;
#303=ORIENTED_EDGE('',*,*,#238,.F.) ;
#304=ORIENTED_EDGE('',*,*,#207,.F.) ;
#305=ORIENTED_EDGE('',*,*,#176,.F.) ;
#306=ORIENTED_EDGE('',*,*,#145,.F.) ;
#307=ORIENTED_EDGE('',*,*,#114,.F.) ;
#308=ORIENTED_EDGE('',*,*,#83,.F.) ;
#309=ORIENTED_EDGE('',*,*,#45,.F.) ;
#31=CLOSED_SHELL('Closed Shell',(#71,#102,#133,#164,#195,#226,#257,#279,#295,#311)) ;
#312=ADVANCED_BREP_SHAPE_REPRESENTATION('NONE',(#21),#16) ;
#71=ADVANCED_FACE('Body.3',(#70),#36,.F.) ;
#102=ADVANCED_FACE('Body.3',(#101),#76,.T.) ;
#133=ADVANCED_FACE('Body.3',(#132),#107,.F.) ;
#164=ADVANCED_FACE('Body.3',(#163),#138,.F.) ;
#195=ADVANCED_FACE('Body.3',(#194),#169,.F.) ;
#226=ADVANCED_FACE('Body.3',(#225),#200,.F.) ;
#257=ADVANCED_FACE('Body.3',(#256),#231,.F.) ;
#279=ADVANCED_FACE('Body.3',(#278),#262,.F.) ;
#295=ADVANCED_FACE('Body.3',(#294),#284,.T.) ;
#311=ADVANCED_FACE('Body.3',(#310),#300,.F.) ;
#4=APPLICATION_PROTOCOL_DEFINITION('international standard','automotive_design',2001,#1) ;
#21=MANIFOLD_SOLID_BREP('Body.3',#31) ;
#80=CIRCLE('generated circle',#79,6.) ;
#94=CIRCLE('generated circle',#93,6.) ;
#204=CIRCLE('generated circle',#203,3.) ;
#218=CIRCLE('generated circle',#217,3.) ;
#22=COLOUR_RGB('Colour',0.823529411765,0.823529411765,1.) ;
#323=CONSTRUCTIVE_GEOMETRY_REPRESENTATION('supplemental geometry',(#317),#16) ;
#324=CONSTRUCTIVE_GEOMETRY_REPRESENTATION_RELATIONSHIP('supplemental geometry','',#19,#323) ;
#76=CYLINDRICAL_SURFACE('generated cylinder',#75,6.) ;
#200=CYLINDRICAL_SURFACE('generated cylinder',#199,3.) ;
#319=DRAUGHTING_PRE_DEFINED_COLOUR('white') ;
#318=DRAUGHTING_PRE_DEFINED_CURVE_FONT('continuous') ;
#45=EDGE_CURVE('',#42,#44,#40,.T.) ;
#52=EDGE_CURVE('',#51,#44,#49,.T.) ;
#59=EDGE_CURVE('',#58,#51,#56,.T.) ;
#64=EDGE_CURVE('',#58,#42,#63,.T.) ;
#83=EDGE_CURVE('',#44,#82,#80,.T.) ;
#90=EDGE_CURVE('',#89,#82,#87,.F.) ;
#95=EDGE_CURVE('',#51,#89,#94,.T.) ;
#114=EDGE_CURVE('',#82,#113,#111,.T.) ;
#121=EDGE_CURVE('',#120,#113,#118,.T.) ;
#126=EDGE_CURVE('',#89,#120,#125,.T.) ;
#145=EDGE_CURVE('',#113,#144,#142,.T.) ;
#152=EDGE_CURVE('',#151,#144,#149,.T.) ;
#157=EDGE_CURVE('',#120,#151,#156,.T.) ;
#176=EDGE_CURVE('',#144,#175,#173,.T.) ;
#183=EDGE_CURVE('',#182,#175,#180,.T.) ;
#188=EDGE_CURVE('',#151,#182,#187,.T.) ;
#207=EDGE_CURVE('',#175,#206,#204,.F.) ;
#214=EDGE_CURVE('',#213,#206,#211,.F.) ;
#219=EDGE_CURVE('',#182,#213,#218,.F.) ;
#238=EDGE_CURVE('',#206,#237,#235,.T.) ;
#245=EDGE_CURVE('',#244,#237,#242,.T.) ;
#250=EDGE_CURVE('',#213,#244,#249,.T.) ;
#267=EDGE_CURVE('',#237,#42,#266,.T.) ;
#272=EDGE_CURVE('',#244,#58,#271,.T.) ;
#65=EDGE_LOOP('',(#66,#67,#68,#69)) ;
#96=EDGE_LOOP('',(#97,#98,#99,#100)) ;
#127=EDGE_LOOP('',(#128,#129,#130,#131)) ;
#158=EDGE_LOOP('',(#159,#160,#161,#162)) ;
#189=EDGE_LOOP('',(#190,#191,#192,#193)) ;
#220=EDGE_LOOP('',(#221,#222,#223,#224)) ;
#251=EDGE_LOOP('',(#252,#253,#254,#255)) ;
#273=EDGE_LOOP('',(#274,#275,#276,#277)) ;
#285=EDGE_LOOP('',(#286,#287,#288,#289,#290,#291,#292,#293)) ;
#301=EDGE_LOOP('',(#302,#303,#304,#305,#306,#307,#308,#309)) ;
#70=FACE_OUTER_BOUND('',#65,.T.) ;
#101=FACE_OUTER_BOUND('',#96,.T.) ;
#132=FACE_OUTER_BOUND('',#127,.T.) ;
#163=FACE_OUTER_BOUND('',#158,.T.) ;
#194=FACE_OUTER_BOUND('',#189,.T.) ;
#225=FACE_OUTER_BOUND('',#220,.T.) ;
#256=FACE_OUTER_BOUND('',#251,.T.) ;
#278=FACE_OUTER_BOUND('',#273,.T.) ;
#294=FACE_OUTER_BOUND('',#285,.T.) ;
#310=FACE_OUTER_BOUND('',#301,.T.) ;
#40=LINE('Line',#37,#39) ;
#49=LINE('Line',#46,#48) ;
#56=LINE('Line',#53,#55) ;
#63=LINE('Line',#60,#62) ;
#87=LINE('Line',#84,#86) ;
#111=LINE('Line',#108,#110) ;
#118=LINE('Line',#115,#117) ;
#125=LINE('Line',#122,#124) ;
#142=LINE('Line',#139,#141) ;
#149=LINE('Line',#146,#148) ;
#156=LINE('Line',#153,#155) ;
#173=LINE('Line',#170,#172) ;
#180=LINE('Line',#177,#179) ;
#187=LINE('Line',#184,#186) ;
#211=LINE('Line',#208,#210) ;
#235=LINE('Line',#232,#234) ;
#242=LINE('Line',#239,#241) ;
#249=LINE('Line',#246,#248) ;
#266=LINE('Line',#263,#265) ;
#271=LINE('Line',#268,#270) ;
#36=PLANE('',#35) ;
#107=PLANE('',#106) ;
#138=PLANE('',#137) ;
#169=PLANE('',#168) ;
#231=PLANE('',#230) ;
#262=PLANE('',#261) ;
#284=PLANE('',#283) ;
#300=PLANE('',#299) ;
#9=PRODUCT_CATEGORY_RELATIONSHIP(' ',' ',#7,#8) ;
#6=PRODUCT_DEFINITION_FORMATION_WITH_SPECIFIED_SOURCE('',' ',#5,.NOT_KNOWN.) ;
#20=SHAPE_DEFINITION_REPRESENTATION(#11,#19) ;
#42=VERTEX_POINT('',#41) ;
#44=VERTEX_POINT('',#43) ;
#51=VERTEX_POINT('',#50) ;
#58=VERTEX_POINT('',#57) ;
#82=VERTEX_POINT('',#81) ;
#89=VERTEX_POINT('',#88) ;
#113=VERTEX_POINT('',#112) ;
#120=VERTEX_POINT('',#119) ;
#144=VERTEX_POINT('',#143) ;
#151=VERTEX_POINT('',#150) ;
#175=VERTEX_POINT('',#174) ;
#182=VERTEX_POINT('',#181) ;
#206=VERTEX_POINT('',#205) ;
#213=VERTEX_POINT('',#212) ;
#237=VERTEX_POINT('',#236) ;
#244=VERTEX_POINT('',#243) ;
#12=(LENGTH_UNIT()NAMED_UNIT(*)SI_UNIT(.MILLI.,.METRE.)) ;
#13=(NAMED_UNIT(*)PLANE_ANGLE_UNIT()SI_UNIT($,.RADIAN.)) ;
#14=(NAMED_UNIT(*)SI_UNIT($,.STERADIAN.)SOLID_ANGLE_UNIT()) ;
#16=(GEOMETRIC_REPRESENTATION_CONTEXT(3)GLOBAL_UNCERTAINTY_ASSIGNED_CONTEXT((#15))GLOBAL_UNIT_ASSIGNED_CONTEXT((#12,#13,#14))REPRESENTATION_CONTEXT(' ',' ')) ;
ENDSEC;
END-ISO-10303-21;
