ISO-10303-21;
HEADER;
FILE_DESCRIPTION(('CATIA V5 STEP Exchange','CAx-IF Rec.Pracs.--- Model Styling and Organization---1.4--- 2014-01-23'),'2;1');

FILE_NAME ('1461207-6_0', '2022-10-01T09:14:42+00:00', ('none'), ('Weidmueller'), 'CATIA Version 5-6 Release 2016 SP3 HF44', 'CATIA V5 STEP AP214', 'none');

FILE_SCHEMA(('AUTOMOTIVE_DESIGN { 1 0 10303 214 1 1 1 1 }'));

ENDSEC;
DATA;
#5=PRODUCT('77910_THM_SE-W_25_GE','','GERAETEMARKIERER',(#2)) ;
#2=PRODUCT_CONTEXT(' ',#1,'mechanical') ;
#1=APPLICATION_CONTEXT('automotive design') ;
#10=PRODUCT_DEFINITION('',' ',#6,#3) ;
#3=PRODUCT_DEFINITION_CONTEXT('part definition',#1,' ') ;
#11=PRODUCT_DEFINITION_SHAPE(' ',' ',#10) ;
#410=MECHANICAL_DESIGN_GEOMETRIC_PRESENTATION_REPRESENTATION(' ',(#79,#111,#143,#166,#179,#192,#29,#238,#270,#302,#334,#366,#389,#399,#409,#196),#16) ;
#19=SHAPE_REPRESENTATION(' ',(#18),#16) ;
#18=AXIS2_PLACEMENT_3D(' ',#17,$,$) ;
#35=AXIS2_PLACEMENT_3D('Plane Axis2P3D',#32,#33,#34) ;
#83=AXIS2_PLACEMENT_3D('Plane Axis2P3D',#80,#81,#82) ;
#115=AXIS2_PLACEMENT_3D('Plane Axis2P3D',#112,#113,#114) ;
#147=AXIS2_PLACEMENT_3D('Plane Axis2P3D',#144,#145,#146) ;
#170=AXIS2_PLACEMENT_3D('Plane Axis2P3D',#167,#168,#169) ;
#183=AXIS2_PLACEMENT_3D('Plane Axis2P3D',#180,#181,#182) ;
#201=AXIS2_PLACEMENT_3D('Plane Axis2P3D',#198,#199,#200) ;
#242=AXIS2_PLACEMENT_3D('Cylinder Axis2P3D',#239,#240,#241) ;
#246=AXIS2_PLACEMENT_3D('Circle Axis2P3D',#244,#245,$) ;
#260=AXIS2_PLACEMENT_3D('Circle Axis2P3D',#258,#259,$) ;
#274=AXIS2_PLACEMENT_3D('Plane Axis2P3D',#271,#272,#273) ;
#306=AXIS2_PLACEMENT_3D('Cylinder Axis2P3D',#303,#304,#305) ;
#310=AXIS2_PLACEMENT_3D('Circle Axis2P3D',#308,#309,$) ;
#324=AXIS2_PLACEMENT_3D('Circle Axis2P3D',#322,#323,$) ;
#338=AXIS2_PLACEMENT_3D('Plane Axis2P3D',#335,#336,#337) ;
#370=AXIS2_PLACEMENT_3D('Cylinder Axis2P3D',#367,#368,#369) ;
#374=AXIS2_PLACEMENT_3D('Circle Axis2P3D',#372,#373,$) ;
#379=AXIS2_PLACEMENT_3D('Circle Axis2P3D',#377,#378,$) ;
#17=CARTESIAN_POINT(' ',(0.,0.,0.)) ;
#32=CARTESIAN_POINT('Axis2P3D Location',(0.,15.,0.)) ;
#37=CARTESIAN_POINT('Line Origine',(0.,15.,0.025)) ;
#41=CARTESIAN_POINT('Vertex',(0.,15.,0.)) ;
#43=CARTESIAN_POINT('Vertex',(0.,15.,0.05)) ;
#46=CARTESIAN_POINT('Line Origine',(0.,7.5,0.)) ;
#50=CARTESIAN_POINT('Vertex',(0.,-3.5527136788E-015,0.)) ;
#53=CARTESIAN_POINT('Line Origine',(0.,-3.5527136788E-015,0.025)) ;
#57=CARTESIAN_POINT('Vertex',(0.,-3.5527136788E-015,0.05)) ;
#60=CARTESIAN_POINT('Line Origine',(0.,7.5,0.05)) ;
#80=CARTESIAN_POINT('Axis2P3D Location',(25.,-3.5527136788E-015,0.)) ;
#85=CARTESIAN_POINT('Line Origine',(12.5,-3.5527136788E-015,0.)) ;
#89=CARTESIAN_POINT('Vertex',(25.,-3.5527136788E-015,0.)) ;
#92=CARTESIAN_POINT('Line Origine',(25.,-3.5527136788E-015,0.025)) ;
#96=CARTESIAN_POINT('Vertex',(25.,-3.5527136788E-015,0.05)) ;
#99=CARTESIAN_POINT('Line Origine',(12.5,-3.5527136788E-015,0.05)) ;
#112=CARTESIAN_POINT('Axis2P3D Location',(25.,-3.5527136788E-015,0.)) ;
#117=CARTESIAN_POINT('Line Origine',(25.,7.5,0.)) ;
#121=CARTESIAN_POINT('Vertex',(25.,15.,0.)) ;
#124=CARTESIAN_POINT('Line Origine',(25.,15.,0.025)) ;
#128=CARTESIAN_POINT('Vertex',(25.,15.,0.05)) ;
#131=CARTESIAN_POINT('Line Origine',(25.,7.5,0.05)) ;
#144=CARTESIAN_POINT('Axis2P3D Location',(1.7763568394E-015,15.,0.)) ;
#149=CARTESIAN_POINT('Line Origine',(12.5,15.,0.)) ;
#154=CARTESIAN_POINT('Line Origine',(12.5,15.,0.05)) ;
#167=CARTESIAN_POINT('Axis2P3D Location',(12.5,25.893115857,0.)) ;
#180=CARTESIAN_POINT('Axis2P3D Location',(12.5,25.893115857,0.05)) ;
#198=CARTESIAN_POINT('Axis2P3D Location',(1.6,18.,0.)) ;
#203=CARTESIAN_POINT('Line Origine',(1.6,18.,0.025)) ;
#207=CARTESIAN_POINT('Vertex',(1.6,18.,0.)) ;
#209=CARTESIAN_POINT('Vertex',(1.6,18.,0.05)) ;
#212=CARTESIAN_POINT('Line Origine',(12.5,18.,0.)) ;
#216=CARTESIAN_POINT('Vertex',(23.4,18.,0.)) ;
#219=CARTESIAN_POINT('Line Origine',(23.4,18.,0.025)) ;
#223=CARTESIAN_POINT('Vertex',(23.4,18.,0.05)) ;
#226=CARTESIAN_POINT('Line Origine',(12.5,18.,0.05)) ;
#239=CARTESIAN_POINT('Axis2P3D Location',(23.4,19.6,0.025)) ;
#244=CARTESIAN_POINT('Axis2P3D Location',(23.4,19.6,0.)) ;
#248=CARTESIAN_POINT('Vertex',(24.7856406461,20.4,0.)) ;
#251=CARTESIAN_POINT('Line Origine',(24.7856406461,20.4,0.025)) ;
#255=CARTESIAN_POINT('Vertex',(24.7856406461,20.4,0.05)) ;
#258=CARTESIAN_POINT('Axis2P3D Location',(23.4,19.6,0.05)) ;
#271=CARTESIAN_POINT('Axis2P3D Location',(24.7856406461,20.4,0.)) ;
#276=CARTESIAN_POINT('Line Origine',(19.3356406461,29.8396769013,0.)) ;
#280=CARTESIAN_POINT('Vertex',(13.8856406461,39.2793538025,0.)) ;
#283=CARTESIAN_POINT('Line Origine',(13.8856406461,39.2793538025,0.025)) ;
#287=CARTESIAN_POINT('Vertex',(13.8856406461,39.2793538025,0.05)) ;
#290=CARTESIAN_POINT('Line Origine',(19.3356406461,29.8396769013,0.05)) ;
#303=CARTESIAN_POINT('Axis2P3D Location',(12.5,38.4793538025,0.025)) ;
#308=CARTESIAN_POINT('Axis2P3D Location',(12.5,38.4793538025,0.)) ;
#312=CARTESIAN_POINT('Vertex',(11.1143593539,39.2793538025,0.)) ;
#315=CARTESIAN_POINT('Line Origine',(11.1143593539,39.2793538025,0.025)) ;
#319=CARTESIAN_POINT('Vertex',(11.1143593539,39.2793538025,0.05)) ;
#322=CARTESIAN_POINT('Axis2P3D Location',(12.5,38.4793538025,0.05)) ;
#335=CARTESIAN_POINT('Axis2P3D Location',(11.1143593539,39.2793538025,0.)) ;
#340=CARTESIAN_POINT('Line Origine',(5.66435862222,29.8396756339,0.)) ;
#344=CARTESIAN_POINT('Vertex',(0.214357890487,20.3999974652,0.)) ;
#347=CARTESIAN_POINT('Line Origine',(0.214357890487,20.3999974652,0.025)) ;
#351=CARTESIAN_POINT('Vertex',(0.214357890487,20.3999974652,0.05)) ;
#354=CARTESIAN_POINT('Line Origine',(5.66435862222,29.8396756339,0.05)) ;
#367=CARTESIAN_POINT('Axis2P3D Location',(1.6,19.6,0.025)) ;
#372=CARTESIAN_POINT('Axis2P3D Location',(1.6,19.6,0.)) ;
#377=CARTESIAN_POINT('Axis2P3D Location',(1.6,19.6,0.05)) ;
#33=DIRECTION('Axis2P3D Direction',(-1.,0.,0.)) ;
#34=DIRECTION('Axis2P3D XDirection',(0.,-1.,0.)) ;
#38=DIRECTION('Vector Direction',(0.,0.,1.)) ;
#47=DIRECTION('Vector Direction',(0.,-1.,0.)) ;
#54=DIRECTION('Vector Direction',(0.,0.,1.)) ;
#61=DIRECTION('Vector Direction',(0.,-1.,0.)) ;
#81=DIRECTION('Axis2P3D Direction',(0.,1.,-0.)) ;
#82=DIRECTION('Axis2P3D XDirection',(-1.,0.,0.)) ;
#86=DIRECTION('Vector Direction',(-1.,0.,0.)) ;
#93=DIRECTION('Vector Direction',(0.,0.,1.)) ;
#100=DIRECTION('Vector Direction',(-1.,0.,0.)) ;
#113=DIRECTION('Axis2P3D Direction',(1.,0.,0.)) ;
#114=DIRECTION('Axis2P3D XDirection',(0.,1.,0.)) ;
#118=DIRECTION('Vector Direction',(0.,1.,0.)) ;
#125=DIRECTION('Vector Direction',(0.,0.,1.)) ;
#132=DIRECTION('Vector Direction',(0.,1.,0.)) ;
#145=DIRECTION('Axis2P3D Direction',(0.,-1.,0.)) ;
#146=DIRECTION('Axis2P3D XDirection',(1.,0.,0.)) ;
#150=DIRECTION('Vector Direction',(1.,0.,0.)) ;
#155=DIRECTION('Vector Direction',(1.,0.,0.)) ;
#168=DIRECTION('Axis2P3D Direction',(0.,0.,1.)) ;
#169=DIRECTION('Axis2P3D XDirection',(1.,0.,0.)) ;
#181=DIRECTION('Axis2P3D Direction',(0.,0.,1.)) ;
#182=DIRECTION('Axis2P3D XDirection',(1.,0.,0.)) ;
#199=DIRECTION('Axis2P3D Direction',(0.,-1.,0.)) ;
#200=DIRECTION('Axis2P3D XDirection',(1.,0.,0.)) ;
#204=DIRECTION('Vector Direction',(0.,0.,1.)) ;
#213=DIRECTION('Vector Direction',(1.,0.,0.)) ;
#220=DIRECTION('Vector Direction',(0.,0.,1.)) ;
#227=DIRECTION('Vector Direction',(1.,0.,0.)) ;
#240=DIRECTION('Axis2P3D Direction',(0.,0.,1.)) ;
#241=DIRECTION('Axis2P3D XDirection',(-1.83697019872E-016,-1.,-0.)) ;
#245=DIRECTION('Axis2P3D Direction',(0.,0.,1.)) ;
#252=DIRECTION('Vector Direction',(0.,0.,1.)) ;
#259=DIRECTION('Axis2P3D Direction',(0.,0.,1.)) ;
#272=DIRECTION('Axis2P3D Direction',(0.866025403784,0.5,-0.)) ;
#273=DIRECTION('Axis2P3D XDirection',(-0.5,0.866025403784,0.)) ;
#277=DIRECTION('Vector Direction',(-0.5,0.866025403784,0.)) ;
#284=DIRECTION('Vector Direction',(0.,0.,1.)) ;
#291=DIRECTION('Vector Direction',(-0.5,0.866025403784,0.)) ;
#304=DIRECTION('Axis2P3D Direction',(0.,0.,1.)) ;
#305=DIRECTION('Axis2P3D XDirection',(0.866025403784,0.5,0.)) ;
#309=DIRECTION('Axis2P3D Direction',(0.,0.,1.)) ;
#316=DIRECTION('Vector Direction',(0.,0.,1.)) ;
#323=DIRECTION('Axis2P3D Direction',(0.,0.,1.)) ;
#336=DIRECTION('Axis2P3D Direction',(-0.866025403784,0.5,0.)) ;
#337=DIRECTION('Axis2P3D XDirection',(-0.5,-0.866025403784,-0.)) ;
#341=DIRECTION('Vector Direction',(-0.5,-0.866025403784,0.)) ;
#348=DIRECTION('Vector Direction',(0.,0.,1.)) ;
#355=DIRECTION('Vector Direction',(-0.5,-0.866025403784,0.)) ;
#368=DIRECTION('Axis2P3D Direction',(0.,0.,1.)) ;
#369=DIRECTION('Axis2P3D XDirection',(-0.866026318444,0.499998415759,0.)) ;
#373=DIRECTION('Axis2P3D Direction',(0.,0.,1.)) ;
#378=DIRECTION('Axis2P3D Direction',(0.,0.,1.)) ;
#30=PRESENTATION_LAYER_ASSIGNMENT('1',' ',(#21,#195)) ;
#8=PRODUCT_RELATED_PRODUCT_CATEGORY('part',$,(#5)) ;
#7=PRODUCT_CATEGORY('part','specification') ;
#29=STYLED_ITEM(' ',(#28),#21) ;
#196=STYLED_ITEM(' ',(#28),#195) ;
#28=PRESENTATION_STYLE_ASSIGNMENT((#27)) ;
#78=PRESENTATION_STYLE_ASSIGNMENT((#77)) ;
#27=SURFACE_STYLE_USAGE(.BOTH.,#26) ;
#77=SURFACE_STYLE_USAGE(.BOTH.,#76) ;
#26=SURFACE_SIDE_STYLE(' ',(#25)) ;
#76=SURFACE_SIDE_STYLE(' ',(#75)) ;
#25=SURFACE_STYLE_FILL_AREA(#24) ;
#75=SURFACE_STYLE_FILL_AREA(#74) ;
#24=FILL_AREA_STYLE(' ',(#23)) ;
#74=FILL_AREA_STYLE(' ',(#73)) ;
#23=FILL_AREA_STYLE_COLOUR(' ',#22) ;
#73=FILL_AREA_STYLE_COLOUR(' ',#72) ;
#39=VECTOR('Line Direction',#38,1.) ;
#48=VECTOR('Line Direction',#47,1.) ;
#55=VECTOR('Line Direction',#54,1.) ;
#62=VECTOR('Line Direction',#61,1.) ;
#87=VECTOR('Line Direction',#86,1.) ;
#94=VECTOR('Line Direction',#93,1.) ;
#101=VECTOR('Line Direction',#100,1.) ;
#119=VECTOR('Line Direction',#118,1.) ;
#126=VECTOR('Line Direction',#125,1.) ;
#133=VECTOR('Line Direction',#132,1.) ;
#151=VECTOR('Line Direction',#150,1.) ;
#156=VECTOR('Line Direction',#155,1.) ;
#205=VECTOR('Line Direction',#204,1.) ;
#214=VECTOR('Line Direction',#213,1.) ;
#221=VECTOR('Line Direction',#220,1.) ;
#228=VECTOR('Line Direction',#227,1.) ;
#253=VECTOR('Line Direction',#252,1.) ;
#278=VECTOR('Line Direction',#277,1.) ;
#285=VECTOR('Line Direction',#284,1.) ;
#292=VECTOR('Line Direction',#291,1.) ;
#317=VECTOR('Line Direction',#316,1.) ;
#342=VECTOR('Line Direction',#341,1.) ;
#349=VECTOR('Line Direction',#348,1.) ;
#356=VECTOR('Line Direction',#355,1.) ;
#15=UNCERTAINTY_MEASURE_WITH_UNIT(LENGTH_MEASURE(0.005),#12,'distance_accuracy_value','CONFUSED CURVE UNCERTAINTY') ;
#194=SHAPE_REPRESENTATION_RELATIONSHIP(' ',' ',#19,#193) ;
#66=ORIENTED_EDGE('',*,*,#45,.F.) ;
#67=ORIENTED_EDGE('',*,*,#52,.T.) ;
#68=ORIENTED_EDGE('',*,*,#59,.T.) ;
#69=ORIENTED_EDGE('',*,*,#64,.F.) ;
#105=ORIENTED_EDGE('',*,*,#59,.F.) ;
#106=ORIENTED_EDGE('',*,*,#91,.T.) ;
#107=ORIENTED_EDGE('',*,*,#98,.T.) ;
#108=ORIENTED_EDGE('',*,*,#103,.F.) ;
#137=ORIENTED_EDGE('',*,*,#98,.F.) ;
#138=ORIENTED_EDGE('',*,*,#123,.T.) ;
#139=ORIENTED_EDGE('',*,*,#130,.T.) ;
#140=ORIENTED_EDGE('',*,*,#135,.F.) ;
#160=ORIENTED_EDGE('',*,*,#130,.F.) ;
#161=ORIENTED_EDGE('',*,*,#153,.T.) ;
#162=ORIENTED_EDGE('',*,*,#45,.T.) ;
#163=ORIENTED_EDGE('',*,*,#158,.F.) ;
#173=ORIENTED_EDGE('',*,*,#153,.F.) ;
#174=ORIENTED_EDGE('',*,*,#123,.F.) ;
#175=ORIENTED_EDGE('',*,*,#91,.F.) ;
#176=ORIENTED_EDGE('',*,*,#52,.F.) ;
#186=ORIENTED_EDGE('',*,*,#64,.T.) ;
#187=ORIENTED_EDGE('',*,*,#103,.T.) ;
#188=ORIENTED_EDGE('',*,*,#135,.T.) ;
#189=ORIENTED_EDGE('',*,*,#158,.T.) ;
#232=ORIENTED_EDGE('',*,*,#211,.F.) ;
#233=ORIENTED_EDGE('',*,*,#218,.T.) ;
#234=ORIENTED_EDGE('',*,*,#225,.T.) ;
#235=ORIENTED_EDGE('',*,*,#230,.F.) ;
#264=ORIENTED_EDGE('',*,*,#225,.F.) ;
#265=ORIENTED_EDGE('',*,*,#250,.T.) ;
#266=ORIENTED_EDGE('',*,*,#257,.T.) ;
#267=ORIENTED_EDGE('',*,*,#262,.F.) ;
#296=ORIENTED_EDGE('',*,*,#257,.F.) ;
#297=ORIENTED_EDGE('',*,*,#282,.T.) ;
#298=ORIENTED_EDGE('',*,*,#289,.T.) ;
#299=ORIENTED_EDGE('',*,*,#294,.F.) ;
#328=ORIENTED_EDGE('',*,*,#289,.F.) ;
#329=ORIENTED_EDGE('',*,*,#314,.T.) ;
#330=ORIENTED_EDGE('',*,*,#321,.T.) ;
#331=ORIENTED_EDGE('',*,*,#326,.F.) ;
#360=ORIENTED_EDGE('',*,*,#321,.F.) ;
#361=ORIENTED_EDGE('',*,*,#346,.T.) ;
#362=ORIENTED_EDGE('',*,*,#353,.T.) ;
#363=ORIENTED_EDGE('',*,*,#358,.F.) ;
#383=ORIENTED_EDGE('',*,*,#353,.F.) ;
#384=ORIENTED_EDGE('',*,*,#376,.T.) ;
#385=ORIENTED_EDGE('',*,*,#211,.T.) ;
#386=ORIENTED_EDGE('',*,*,#381,.F.) ;
#391=ORIENTED_EDGE('',*,*,#376,.F.) ;
#392=ORIENTED_EDGE('',*,*,#346,.F.) ;
#393=ORIENTED_EDGE('',*,*,#314,.F.) ;
#394=ORIENTED_EDGE('',*,*,#282,.F.) ;
#395=ORIENTED_EDGE('',*,*,#250,.F.) ;
#396=ORIENTED_EDGE('',*,*,#218,.F.) ;
#401=ORIENTED_EDGE('',*,*,#230,.T.) ;
#402=ORIENTED_EDGE('',*,*,#262,.T.) ;
#403=ORIENTED_EDGE('',*,*,#294,.T.) ;
#404=ORIENTED_EDGE('',*,*,#326,.T.) ;
#405=ORIENTED_EDGE('',*,*,#358,.T.) ;
#406=ORIENTED_EDGE('',*,*,#381,.T.) ;
#31=CLOSED_SHELL('Closed Shell',(#71,#110,#142,#165,#178,#191)) ;
#197=CLOSED_SHELL('Closed Shell',(#237,#269,#301,#333,#365,#388,#398,#408)) ;
#193=ADVANCED_BREP_SHAPE_REPRESENTATION('NONE',(#21,#195),#16) ;
#71=ADVANCED_FACE('S3D positioniert',(#70),#36,.T.) ;
#110=ADVANCED_FACE('S3D positioniert',(#109),#84,.F.) ;
#142=ADVANCED_FACE('S3D positioniert',(#141),#116,.T.) ;
#165=ADVANCED_FACE('S3D positioniert',(#164),#148,.F.) ;
#178=ADVANCED_FACE('S3D positioniert',(#177),#171,.F.) ;
#191=ADVANCED_FACE('S3D positioniert',(#190),#184,.T.) ;
#237=ADVANCED_FACE('S3D positioniert',(#236),#202,.T.) ;
#269=ADVANCED_FACE('S3D positioniert',(#268),#243,.T.) ;
#301=ADVANCED_FACE('S3D positioniert',(#300),#275,.T.) ;
#333=ADVANCED_FACE('S3D positioniert',(#332),#307,.T.) ;
#365=ADVANCED_FACE('S3D positioniert',(#364),#339,.T.) ;
#388=ADVANCED_FACE('S3D positioniert',(#387),#371,.T.) ;
#398=ADVANCED_FACE('S3D positioniert',(#397),#171,.F.) ;
#408=ADVANCED_FACE('S3D positioniert',(#407),#184,.T.) ;
#4=APPLICATION_PROTOCOL_DEFINITION('international standard','automotive_design',2001,#1) ;
#21=MANIFOLD_SOLID_BREP('S3D positioniert.1',#31) ;
#195=MANIFOLD_SOLID_BREP('S3D positioniert.2',#197) ;
#247=CIRCLE('generated circle',#246,1.6) ;
#261=CIRCLE('generated circle',#260,1.6) ;
#311=CIRCLE('generated circle',#310,1.6) ;
#325=CIRCLE('generated circle',#324,1.6) ;
#375=CIRCLE('generated circle',#374,1.6) ;
#380=CIRCLE('generated circle',#379,1.6) ;
#22=COLOUR_RGB('Colour',0.823529411765,0.823529411765,1.) ;
#79=OVER_RIDING_STYLED_ITEM(' ',(#78),#71,#29) ;
#111=OVER_RIDING_STYLED_ITEM(' ',(#78),#110,#29) ;
#143=OVER_RIDING_STYLED_ITEM(' ',(#78),#142,#29) ;
#166=OVER_RIDING_STYLED_ITEM(' ',(#78),#165,#29) ;
#179=OVER_RIDING_STYLED_ITEM(' ',(#78),#178,#29) ;
#192=OVER_RIDING_STYLED_ITEM(' ',(#78),#191,#29) ;
#238=OVER_RIDING_STYLED_ITEM(' ',(#78),#237,#196) ;
#270=OVER_RIDING_STYLED_ITEM(' ',(#78),#269,#196) ;
#302=OVER_RIDING_STYLED_ITEM(' ',(#78),#301,#196) ;
#334=OVER_RIDING_STYLED_ITEM(' ',(#78),#333,#196) ;
#366=OVER_RIDING_STYLED_ITEM(' ',(#78),#365,#196) ;
#389=OVER_RIDING_STYLED_ITEM(' ',(#78),#388,#196) ;
#399=OVER_RIDING_STYLED_ITEM(' ',(#78),#398,#196) ;
#409=OVER_RIDING_STYLED_ITEM(' ',(#78),#408,#196) ;
#243=CYLINDRICAL_SURFACE('generated cylinder',#242,1.6) ;
#307=CYLINDRICAL_SURFACE('generated cylinder',#306,1.6) ;
#371=CYLINDRICAL_SURFACE('generated cylinder',#370,1.6) ;
#72=DRAUGHTING_PRE_DEFINED_COLOUR('yellow') ;
#45=EDGE_CURVE('',#42,#44,#40,.T.) ;
#52=EDGE_CURVE('',#42,#51,#49,.T.) ;
#59=EDGE_CURVE('',#51,#58,#56,.T.) ;
#64=EDGE_CURVE('',#44,#58,#63,.T.) ;
#91=EDGE_CURVE('',#51,#90,#88,.F.) ;
#98=EDGE_CURVE('',#90,#97,#95,.T.) ;
#103=EDGE_CURVE('',#58,#97,#102,.F.) ;
#123=EDGE_CURVE('',#90,#122,#120,.T.) ;
#130=EDGE_CURVE('',#122,#129,#127,.T.) ;
#135=EDGE_CURVE('',#97,#129,#134,.T.) ;
#153=EDGE_CURVE('',#122,#42,#152,.F.) ;
#158=EDGE_CURVE('',#129,#44,#157,.F.) ;
#211=EDGE_CURVE('',#208,#210,#206,.T.) ;
#218=EDGE_CURVE('',#208,#217,#215,.T.) ;
#225=EDGE_CURVE('',#217,#224,#222,.T.) ;
#230=EDGE_CURVE('',#210,#224,#229,.T.) ;
#250=EDGE_CURVE('',#217,#249,#247,.T.) ;
#257=EDGE_CURVE('',#249,#256,#254,.T.) ;
#262=EDGE_CURVE('',#224,#256,#261,.T.) ;
#282=EDGE_CURVE('',#249,#281,#279,.T.) ;
#289=EDGE_CURVE('',#281,#288,#286,.T.) ;
#294=EDGE_CURVE('',#256,#288,#293,.T.) ;
#314=EDGE_CURVE('',#281,#313,#311,.T.) ;
#321=EDGE_CURVE('',#313,#320,#318,.T.) ;
#326=EDGE_CURVE('',#288,#320,#325,.T.) ;
#346=EDGE_CURVE('',#313,#345,#343,.T.) ;
#353=EDGE_CURVE('',#345,#352,#350,.T.) ;
#358=EDGE_CURVE('',#320,#352,#357,.T.) ;
#376=EDGE_CURVE('',#345,#208,#375,.T.) ;
#381=EDGE_CURVE('',#352,#210,#380,.T.) ;
#65=EDGE_LOOP('',(#66,#67,#68,#69)) ;
#104=EDGE_LOOP('',(#105,#106,#107,#108)) ;
#136=EDGE_LOOP('',(#137,#138,#139,#140)) ;
#159=EDGE_LOOP('',(#160,#161,#162,#163)) ;
#172=EDGE_LOOP('',(#173,#174,#175,#176)) ;
#185=EDGE_LOOP('',(#186,#187,#188,#189)) ;
#231=EDGE_LOOP('',(#232,#233,#234,#235)) ;
#263=EDGE_LOOP('',(#264,#265,#266,#267)) ;
#295=EDGE_LOOP('',(#296,#297,#298,#299)) ;
#327=EDGE_LOOP('',(#328,#329,#330,#331)) ;
#359=EDGE_LOOP('',(#360,#361,#362,#363)) ;
#382=EDGE_LOOP('',(#383,#384,#385,#386)) ;
#390=EDGE_LOOP('',(#391,#392,#393,#394,#395,#396)) ;
#400=EDGE_LOOP('',(#401,#402,#403,#404,#405,#406)) ;
#70=FACE_OUTER_BOUND('',#65,.T.) ;
#109=FACE_OUTER_BOUND('',#104,.T.) ;
#141=FACE_OUTER_BOUND('',#136,.T.) ;
#164=FACE_OUTER_BOUND('',#159,.T.) ;
#177=FACE_OUTER_BOUND('',#172,.T.) ;
#190=FACE_OUTER_BOUND('',#185,.T.) ;
#236=FACE_OUTER_BOUND('',#231,.T.) ;
#268=FACE_OUTER_BOUND('',#263,.T.) ;
#300=FACE_OUTER_BOUND('',#295,.T.) ;
#332=FACE_OUTER_BOUND('',#327,.T.) ;
#364=FACE_OUTER_BOUND('',#359,.T.) ;
#387=FACE_OUTER_BOUND('',#382,.T.) ;
#397=FACE_OUTER_BOUND('',#390,.T.) ;
#407=FACE_OUTER_BOUND('',#400,.T.) ;
#40=LINE('Line',#37,#39) ;
#49=LINE('Line',#46,#48) ;
#56=LINE('Line',#53,#55) ;
#63=LINE('Line',#60,#62) ;
#88=LINE('Line',#85,#87) ;
#95=LINE('Line',#92,#94) ;
#102=LINE('Line',#99,#101) ;
#120=LINE('Line',#117,#119) ;
#127=LINE('Line',#124,#126) ;
#134=LINE('Line',#131,#133) ;
#152=LINE('Line',#149,#151) ;
#157=LINE('Line',#154,#156) ;
#206=LINE('Line',#203,#205) ;
#215=LINE('Line',#212,#214) ;
#222=LINE('Line',#219,#221) ;
#229=LINE('Line',#226,#228) ;
#254=LINE('Line',#251,#253) ;
#279=LINE('Line',#276,#278) ;
#286=LINE('Line',#283,#285) ;
#293=LINE('Line',#290,#292) ;
#318=LINE('Line',#315,#317) ;
#343=LINE('Line',#340,#342) ;
#350=LINE('Line',#347,#349) ;
#357=LINE('Line',#354,#356) ;
#36=PLANE('',#35) ;
#84=PLANE('',#83) ;
#116=PLANE('',#115) ;
#148=PLANE('',#147) ;
#171=PLANE('',#170) ;
#184=PLANE('',#183) ;
#202=PLANE('',#201) ;
#275=PLANE('',#274) ;
#339=PLANE('',#338) ;
#9=PRODUCT_CATEGORY_RELATIONSHIP(' ',' ',#7,#8) ;
#6=PRODUCT_DEFINITION_FORMATION_WITH_SPECIFIED_SOURCE('',' ',#5,.BOUGHT.) ;
#20=SHAPE_DEFINITION_REPRESENTATION(#11,#19) ;
#42=VERTEX_POINT('',#41) ;
#44=VERTEX_POINT('',#43) ;
#51=VERTEX_POINT('',#50) ;
#58=VERTEX_POINT('',#57) ;
#90=VERTEX_POINT('',#89) ;
#97=VERTEX_POINT('',#96) ;
#122=VERTEX_POINT('',#121) ;
#129=VERTEX_POINT('',#128) ;
#208=VERTEX_POINT('',#207) ;
#210=VERTEX_POINT('',#209) ;
#217=VERTEX_POINT('',#216) ;
#224=VERTEX_POINT('',#223) ;
#249=VERTEX_POINT('',#248) ;
#256=VERTEX_POINT('',#255) ;
#281=VERTEX_POINT('',#280) ;
#288=VERTEX_POINT('',#287) ;
#313=VERTEX_POINT('',#312) ;
#320=VERTEX_POINT('',#319) ;
#345=VERTEX_POINT('',#344) ;
#352=VERTEX_POINT('',#351) ;
#12=(LENGTH_UNIT()NAMED_UNIT(*)SI_UNIT(.MILLI.,.METRE.)) ;
#13=(NAMED_UNIT(*)PLANE_ANGLE_UNIT()SI_UNIT($,.RADIAN.)) ;
#14=(NAMED_UNIT(*)SI_UNIT($,.STERADIAN.)SOLID_ANGLE_UNIT()) ;
#16=(GEOMETRIC_REPRESENTATION_CONTEXT(3)GLOBAL_UNCERTAINTY_ASSIGNED_CONTEXT((#15))GLOBAL_UNIT_ASSIGNED_CONTEXT((#12,#13,#14))REPRESENTATION_CONTEXT(' ',' ')) ;
ENDSEC;
END-ISO-10303-21;
