ISO-10303-21;
HEADER;
FILE_DESCRIPTION(('CATIA V5R19 STEP'),'2;1');

FILE_NAME ('D1454834_0_1718411688_1718411688.stp','2015-02-17T08:53:46+00:00',('none'),('Weidmueller'),'CATIA Version 5 Release 20 SP 5 (IN-10)','CATIA V5 STEP AP214','none');

FILE_SCHEMA(('AUTOMOTIVE_DESIGN { 1 0 10303 214 1 1 1 1 }'));

ENDSEC;
/* file written by CATIA V5R20 */
DATA;
#5=PRODUCT('TM-I 12','','Leitermarkierer TM-I 12\X2\000D\X0\\X2\000A\X0\<Q-CHECKER_SEAL> Q-Checker Version 2.14.8  \X2\000A\X0\CATIA-Version         : Catia V5 R20 SP5 Build Date 01-06-2014.17.15\X2\000A\X0\Model size (in KByte) : 0\X2\000A\X0\Checking date         : 2014-09-12 12:59:54\X2\000A\X0\Checking profile      : ADMIN / Release_2D-3D [CATPart]\X2\000A\X0\Model assessment      : In Ordnung (IO)\X2\000A\X0\Total weight sum      : 0\X2\000A\X0\<CROSS_CHECK_SUM>\X2\000A\X0\  <CHKSUM_DATE> -1844722479 </CHKSUM_DATE>\X2\000A\X0\  <CHKSUM_ENTITIES> -1777976264 </CHKSUM_ENTITIES>\X2\000A\X0\  <CHKSUM_PROFILE> 1594213346 </CHKSUM_PROFILE>\X2\000A\X0\  <CHKSUM_DIMENSION> -186917087 </CHKSUM_DIMENSION>\X2\000A\X0\  <CHKSUM_PROJINTERSEC> -896974048 </CHKSUM_PROJINTERSEC>\X2\000A\X0\  <CHKSUM_IDENTCRV> -896974048 </CHKSUM_IDENTCRV>\X2\000A\X0\  <CHKSUM_INFINITY> 138018827 </CHKSUM_INFINITY>\X2\000A\X0\</CROSS_CHECK_SUM>\X2\000A\X0\</Q-CHECKER_SEAL> \X2\000A\X0\ \X2\000A\X0\ \X2\000A\X0\ \X2\000A\X0\ \X2\000D\X0\\X2\000A\X0\',(#2)) ;
#2=PRODUCT_CONTEXT(' ',#1,'mechanical') ;
#1=APPLICATION_CONTEXT('automotive design') ;
#10=PRODUCT_DEFINITION('',' ',#6,#3) ;
#3=PRODUCT_DEFINITION_CONTEXT('part definition',#1,' ') ;
#11=PRODUCT_DEFINITION_SHAPE(' ',' ',#10) ;
#457=MECHANICAL_DESIGN_GEOMETRIC_PRESENTATION_REPRESENTATION(' ',(#30),#17) ;
#20=SHAPE_REPRESENTATION(' ',(#19),#17) ;
#19=AXIS2_PLACEMENT_3D(' ',#18,$,$) ;
#36=AXIS2_PLACEMENT_3D('Cylinder Axis2P3D',#33,#34,#35) ;
#49=AXIS2_PLACEMENT_3D('Circle Axis2P3D',#47,#48,$) ;
#63=AXIS2_PLACEMENT_3D('Circle Axis2P3D',#61,#62,$) ;
#76=AXIS2_PLACEMENT_3D('Plane Axis2P3D',#73,#74,#75) ;
#107=AXIS2_PLACEMENT_3D('Plane Axis2P3D',#104,#105,#106) ;
#138=AXIS2_PLACEMENT_3D('Plane Axis2P3D',#135,#136,#137) ;
#142=AXIS2_PLACEMENT_3D('Circle Axis2P3D',#140,#141,$) ;
#155=AXIS2_PLACEMENT_3D('Cylinder Axis2P3D',#152,#153,#154) ;
#159=AXIS2_PLACEMENT_3D('Circle Axis2P3D',#157,#158,$) ;
#172=AXIS2_PLACEMENT_3D('Plane Axis2P3D',#169,#170,#171) ;
#185=AXIS2_PLACEMENT_3D('Circle Axis2P3D',#183,#184,$) ;
#199=AXIS2_PLACEMENT_3D('Circle Axis2P3D',#197,#198,$) ;
#213=AXIS2_PLACEMENT_3D('Circle Axis2P3D',#211,#212,$) ;
#227=AXIS2_PLACEMENT_3D('Circle Axis2P3D',#225,#226,$) ;
#250=AXIS2_PLACEMENT_3D('Plane Axis2P3D',#247,#248,#249) ;
#254=AXIS2_PLACEMENT_3D('Circle Axis2P3D',#252,#253,$) ;
#270=AXIS2_PLACEMENT_3D('Circle Axis2P3D',#268,#269,$) ;
#284=AXIS2_PLACEMENT_3D('Circle Axis2P3D',#282,#283,$) ;
#298=AXIS2_PLACEMENT_3D('Circle Axis2P3D',#296,#297,$) ;
#322=AXIS2_PLACEMENT_3D('Plane Axis2P3D',#319,#320,#321) ;
#344=AXIS2_PLACEMENT_3D('Cylinder Axis2P3D',#341,#342,#343) ;
#361=AXIS2_PLACEMENT_3D('Plane Axis2P3D',#358,#359,#360) ;
#378=AXIS2_PLACEMENT_3D('Cylinder Axis2P3D',#375,#376,#377) ;
#395=AXIS2_PLACEMENT_3D('Plane Axis2P3D',#392,#393,#394) ;
#412=AXIS2_PLACEMENT_3D('Cylinder Axis2P3D',#409,#410,#411) ;
#429=AXIS2_PLACEMENT_3D('Plane Axis2P3D',#426,#427,#428) ;
#446=AXIS2_PLACEMENT_3D('Cylinder Axis2P3D',#443,#444,#445) ;
#18=CARTESIAN_POINT(' ',(0.,0.,0.)) ;
#33=CARTESIAN_POINT('Axis2P3D Location',(2.3,1.725,0.3)) ;
#38=CARTESIAN_POINT('Line Origine',(3.025,1.725,0.3)) ;
#42=CARTESIAN_POINT('Vertex',(3.025,1.725,0.6)) ;
#44=CARTESIAN_POINT('Vertex',(3.025,1.725,-1.77651158456E-016)) ;
#47=CARTESIAN_POINT('Axis2P3D Location',(2.3,1.725,0.6)) ;
#51=CARTESIAN_POINT('Vertex',(1.575,1.725,0.6)) ;
#54=CARTESIAN_POINT('Line Origine',(1.575,1.725,0.3)) ;
#58=CARTESIAN_POINT('Vertex',(1.575,1.725,-2.66438051394E-016)) ;
#61=CARTESIAN_POINT('Axis2P3D Location',(2.3,1.725,-1.66533453694E-016)) ;
#73=CARTESIAN_POINT('Axis2P3D Location',(3.025,1.725,0.6)) ;
#78=CARTESIAN_POINT('Line Origine',(3.025,9.975,0.3)) ;
#82=CARTESIAN_POINT('Vertex',(3.025,9.975,0.6)) ;
#84=CARTESIAN_POINT('Vertex',(3.025,9.975,-1.77651158456E-016)) ;
#87=CARTESIAN_POINT('Line Origine',(3.025,5.85,0.6)) ;
#92=CARTESIAN_POINT('Line Origine',(3.025,5.85,-2.22044604925E-016)) ;
#104=CARTESIAN_POINT('Axis2P3D Location',(1.575,9.975,0.6)) ;
#109=CARTESIAN_POINT('Line Origine',(1.575,5.85,0.6)) ;
#113=CARTESIAN_POINT('Vertex',(1.575,9.975,0.6)) ;
#116=CARTESIAN_POINT('Line Origine',(1.575,9.975,0.3)) ;
#120=CARTESIAN_POINT('Vertex',(1.575,9.975,-2.66438051394E-016)) ;
#123=CARTESIAN_POINT('Line Origine',(1.575,5.85,-2.22044604925E-016)) ;
#135=CARTESIAN_POINT('Axis2P3D Location',(2.3,-6.37397907631E-033,-2.22044604925E-016)) ;
#140=CARTESIAN_POINT('Axis2P3D Location',(2.3,9.975,-2.22044604925E-016)) ;
#152=CARTESIAN_POINT('Axis2P3D Location',(2.3,9.975,0.3)) ;
#157=CARTESIAN_POINT('Axis2P3D Location',(2.3,9.975,0.6)) ;
#169=CARTESIAN_POINT('Axis2P3D Location',(2.3,-4.12433940232E-033,0.6)) ;
#174=CARTESIAN_POINT('Line Origine',(4.3,5.85,0.6)) ;
#178=CARTESIAN_POINT('Vertex',(4.3,0.4,0.6)) ;
#180=CARTESIAN_POINT('Vertex',(4.3,11.3,0.6)) ;
#183=CARTESIAN_POINT('Axis2P3D Location',(3.9,0.4,0.6)) ;
#187=CARTESIAN_POINT('Vertex',(3.9,-9.79717439318E-017,0.6)) ;
#190=CARTESIAN_POINT('Line Origine',(2.3,0.,0.6)) ;
#194=CARTESIAN_POINT('Vertex',(0.7,9.79717439318E-017,0.6)) ;
#197=CARTESIAN_POINT('Axis2P3D Location',(0.7,0.4,0.6)) ;
#201=CARTESIAN_POINT('Vertex',(0.3,0.4,0.6)) ;
#204=CARTESIAN_POINT('Line Origine',(0.3,5.85,0.6)) ;
#208=CARTESIAN_POINT('Vertex',(0.3,11.3,0.6)) ;
#211=CARTESIAN_POINT('Axis2P3D Location',(0.7,11.3,0.6)) ;
#215=CARTESIAN_POINT('Vertex',(0.7,11.7,0.6)) ;
#218=CARTESIAN_POINT('Line Origine',(2.3,11.7,0.6)) ;
#222=CARTESIAN_POINT('Vertex',(3.9,11.7,0.6)) ;
#225=CARTESIAN_POINT('Axis2P3D Location',(3.9,11.3,0.6)) ;
#247=CARTESIAN_POINT('Axis2P3D Location',(2.3,0.,1.7)) ;
#252=CARTESIAN_POINT('Axis2P3D Location',(3.9,11.3,1.7)) ;
#256=CARTESIAN_POINT('Vertex',(4.3,11.3,1.7)) ;
#258=CARTESIAN_POINT('Vertex',(3.9,11.7,1.7)) ;
#261=CARTESIAN_POINT('Line Origine',(2.3,11.7,1.7)) ;
#265=CARTESIAN_POINT('Vertex',(0.7,11.7,1.7)) ;
#268=CARTESIAN_POINT('Axis2P3D Location',(0.7,11.3,1.7)) ;
#272=CARTESIAN_POINT('Vertex',(0.3,11.3,1.7)) ;
#275=CARTESIAN_POINT('Line Origine',(0.3,5.85,1.7)) ;
#279=CARTESIAN_POINT('Vertex',(0.3,0.4,1.7)) ;
#282=CARTESIAN_POINT('Axis2P3D Location',(0.7,0.4,1.7)) ;
#286=CARTESIAN_POINT('Vertex',(0.7,9.79717439318E-017,1.7)) ;
#289=CARTESIAN_POINT('Line Origine',(2.3,0.,1.7)) ;
#293=CARTESIAN_POINT('Vertex',(3.9,-9.79717439318E-017,1.7)) ;
#296=CARTESIAN_POINT('Axis2P3D Location',(3.9,0.4,1.7)) ;
#300=CARTESIAN_POINT('Vertex',(4.3,0.4,1.7)) ;
#303=CARTESIAN_POINT('Line Origine',(4.3,5.85,1.7)) ;
#319=CARTESIAN_POINT('Axis2P3D Location',(4.3,11.3,1.7)) ;
#324=CARTESIAN_POINT('Line Origine',(4.3,11.3,1.15)) ;
#329=CARTESIAN_POINT('Line Origine',(4.3,0.4,1.15)) ;
#341=CARTESIAN_POINT('Axis2P3D Location',(3.9,0.4,1.15)) ;
#346=CARTESIAN_POINT('Line Origine',(3.9,5.55111512313E-015,1.15)) ;
#358=CARTESIAN_POINT('Axis2P3D Location',(0.7,9.79717439318E-017,1.7)) ;
#363=CARTESIAN_POINT('Line Origine',(0.7,9.79717439318E-017,1.15)) ;
#375=CARTESIAN_POINT('Axis2P3D Location',(0.7,0.4,1.15)) ;
#380=CARTESIAN_POINT('Line Origine',(0.3,0.4,1.15)) ;
#392=CARTESIAN_POINT('Axis2P3D Location',(0.3,0.4,1.7)) ;
#397=CARTESIAN_POINT('Line Origine',(0.3,11.3,1.15)) ;
#409=CARTESIAN_POINT('Axis2P3D Location',(0.7,11.3,1.15)) ;
#414=CARTESIAN_POINT('Line Origine',(0.7,11.7,1.15)) ;
#426=CARTESIAN_POINT('Axis2P3D Location',(3.9,11.7,1.7)) ;
#431=CARTESIAN_POINT('Line Origine',(3.9,11.7,1.15)) ;
#443=CARTESIAN_POINT('Axis2P3D Location',(3.9,11.3,1.15)) ;
#34=DIRECTION('Axis2P3D Direction',(6.12323399574E-017,-3.74939945665E-033,-1.)) ;
#35=DIRECTION('Axis2P3D XDirection',(1.,0.,6.12323399574E-017)) ;
#39=DIRECTION('Vector Direction',(0.,0.,-1.)) ;
#48=DIRECTION('Axis2P3D Direction',(6.12323399574E-017,-3.74939945665E-033,-1.)) ;
#55=DIRECTION('Vector Direction',(0.,0.,-1.)) ;
#62=DIRECTION('Axis2P3D Direction',(6.12323399574E-017,-3.74939945665E-033,-1.)) ;
#74=DIRECTION('Axis2P3D Direction',(-1.,6.12323399574E-017,-6.12323399574E-017)) ;
#75=DIRECTION('Axis2P3D XDirection',(6.12323399574E-017,1.,0.)) ;
#79=DIRECTION('Vector Direction',(0.,0.,-1.)) ;
#88=DIRECTION('Vector Direction',(5.38289951333E-017,1.,0.)) ;
#93=DIRECTION('Vector Direction',(5.38289951333E-017,1.,0.)) ;
#105=DIRECTION('Axis2P3D Direction',(1.,-6.12323399574E-017,6.12323399574E-017)) ;
#106=DIRECTION('Axis2P3D XDirection',(-6.12323399574E-017,-1.,0.)) ;
#110=DIRECTION('Vector Direction',(-5.38289951333E-017,-1.,0.)) ;
#117=DIRECTION('Vector Direction',(0.,0.,-1.)) ;
#124=DIRECTION('Vector Direction',(-5.38289951333E-017,-1.,0.)) ;
#136=DIRECTION('Axis2P3D Direction',(6.12323399574E-017,-3.74939945665E-033,-1.)) ;
#137=DIRECTION('Axis2P3D XDirection',(6.12323399574E-017,1.,0.)) ;
#141=DIRECTION('Axis2P3D Direction',(6.12323399574E-017,-3.74939945665E-033,-1.)) ;
#153=DIRECTION('Axis2P3D Direction',(6.12323399574E-017,-3.74939945665E-033,-1.)) ;
#154=DIRECTION('Axis2P3D XDirection',(-1.,-1.22464679915E-016,-6.12323399574E-017)) ;
#158=DIRECTION('Axis2P3D Direction',(6.12323399574E-017,-3.74939945665E-033,-1.)) ;
#170=DIRECTION('Axis2P3D Direction',(-6.12323399574E-017,3.74939945665E-033,1.)) ;
#171=DIRECTION('Axis2P3D XDirection',(-6.12323399574E-017,-1.,0.)) ;
#175=DIRECTION('Vector Direction',(-8.14842586881E-017,-1.,0.)) ;
#184=DIRECTION('Axis2P3D Direction',(-6.12323399574E-017,3.74939945665E-033,1.)) ;
#191=DIRECTION('Vector Direction',(1.,-6.12323399574E-017,6.93889390391E-017)) ;
#198=DIRECTION('Axis2P3D Direction',(-6.12323399574E-017,3.74939945665E-033,1.)) ;
#205=DIRECTION('Vector Direction',(8.14842586881E-017,1.,0.)) ;
#212=DIRECTION('Axis2P3D Direction',(-6.12323399574E-017,3.74939945665E-033,1.)) ;
#219=DIRECTION('Vector Direction',(-1.,0.,-6.93889390391E-017)) ;
#226=DIRECTION('Axis2P3D Direction',(-6.12323399574E-017,3.74939945665E-033,1.)) ;
#248=DIRECTION('Axis2P3D Direction',(-6.12323399574E-017,3.74939945665E-033,1.)) ;
#249=DIRECTION('Axis2P3D XDirection',(-6.12323399574E-017,-1.,0.)) ;
#253=DIRECTION('Axis2P3D Direction',(-6.12323399574E-017,3.74939945665E-033,1.)) ;
#262=DIRECTION('Vector Direction',(-1.,0.,0.)) ;
#269=DIRECTION('Axis2P3D Direction',(-6.12323399574E-017,3.74939945665E-033,1.)) ;
#276=DIRECTION('Vector Direction',(8.14842586881E-017,1.,0.)) ;
#283=DIRECTION('Axis2P3D Direction',(-6.12323399574E-017,3.74939945665E-033,1.)) ;
#290=DIRECTION('Vector Direction',(1.,-6.12323399574E-017,0.)) ;
#297=DIRECTION('Axis2P3D Direction',(-6.12323399574E-017,3.74939945665E-033,1.)) ;
#304=DIRECTION('Vector Direction',(-8.14842586881E-017,-1.,0.)) ;
#320=DIRECTION('Axis2P3D Direction',(1.,-6.12323399574E-017,6.12323399574E-017)) ;
#321=DIRECTION('Axis2P3D XDirection',(-6.12323399574E-017,-1.,0.)) ;
#325=DIRECTION('Vector Direction',(0.,0.,-1.)) ;
#330=DIRECTION('Vector Direction',(0.,0.,-1.)) ;
#342=DIRECTION('Axis2P3D Direction',(-6.12323399574E-017,3.74939945665E-033,1.)) ;
#343=DIRECTION('Axis2P3D XDirection',(1.04899068467E-015,-1.,6.79815536723E-032)) ;
#347=DIRECTION('Vector Direction',(0.,0.,1.)) ;
#359=DIRECTION('Axis2P3D Direction',(6.12323399574E-017,1.,0.)) ;
#360=DIRECTION('Axis2P3D XDirection',(1.,-6.12323399574E-017,6.12323399574E-017)) ;
#364=DIRECTION('Vector Direction',(1.00929365875E-016,0.,-1.)) ;
#376=DIRECTION('Axis2P3D Direction',(-6.12323399574E-017,3.74939945665E-033,1.)) ;
#377=DIRECTION('Axis2P3D XDirection',(-1.,2.44929359829E-016,-6.12323399574E-017)) ;
#381=DIRECTION('Vector Direction',(0.,0.,1.)) ;
#393=DIRECTION('Axis2P3D Direction',(-1.,6.12323399574E-017,-6.12323399574E-017)) ;
#394=DIRECTION('Axis2P3D XDirection',(6.12323399574E-017,1.,0.)) ;
#398=DIRECTION('Vector Direction',(5.04646829375E-017,0.,-1.)) ;
#410=DIRECTION('Axis2P3D Direction',(-6.12323399574E-017,3.74939945665E-033,1.)) ;
#411=DIRECTION('Axis2P3D XDirection',(1.83697019872E-016,1.,7.49879891331E-033)) ;
#415=DIRECTION('Vector Direction',(0.,0.,1.)) ;
#427=DIRECTION('Axis2P3D Direction',(-6.12323399574E-017,-1.,0.)) ;
#428=DIRECTION('Axis2P3D XDirection',(-1.,6.12323399574E-017,-6.12323399574E-017)) ;
#432=DIRECTION('Vector Direction',(0.,0.,-1.)) ;
#444=DIRECTION('Axis2P3D Direction',(-6.12323399574E-017,3.74939945665E-033,1.)) ;
#445=DIRECTION('Axis2P3D XDirection',(1.,-1.22464679915E-016,6.12323399574E-017)) ;
#31=PRESENTATION_LAYER_ASSIGNMENT('1',' ',(#22)) ;
#8=PRODUCT_RELATED_PRODUCT_CATEGORY('part',$,(#5)) ;
#7=PRODUCT_CATEGORY('part','specification') ;
#30=STYLED_ITEM(' ',(#29),#22) ;
#29=PRESENTATION_STYLE_ASSIGNMENT((#28)) ;
#28=SURFACE_STYLE_USAGE(.BOTH.,#27) ;
#27=SURFACE_SIDE_STYLE(' ',(#26)) ;
#26=SURFACE_STYLE_FILL_AREA(#25) ;
#25=FILL_AREA_STYLE(' ',(#24)) ;
#24=FILL_AREA_STYLE_COLOUR(' ',#23) ;
#40=VECTOR('Line Direction',#39,1.) ;
#56=VECTOR('Line Direction',#55,1.) ;
#80=VECTOR('Line Direction',#79,1.) ;
#89=VECTOR('Line Direction',#88,1.) ;
#94=VECTOR('Line Direction',#93,1.) ;
#111=VECTOR('Line Direction',#110,1.) ;
#118=VECTOR('Line Direction',#117,1.) ;
#125=VECTOR('Line Direction',#124,1.) ;
#176=VECTOR('Line Direction',#175,1.) ;
#192=VECTOR('Line Direction',#191,1.) ;
#206=VECTOR('Line Direction',#205,1.) ;
#220=VECTOR('Line Direction',#219,1.) ;
#263=VECTOR('Line Direction',#262,1.) ;
#277=VECTOR('Line Direction',#276,1.) ;
#291=VECTOR('Line Direction',#290,1.) ;
#305=VECTOR('Line Direction',#304,1.) ;
#326=VECTOR('Line Direction',#325,1.) ;
#331=VECTOR('Line Direction',#330,1.) ;
#348=VECTOR('Line Direction',#347,1.) ;
#365=VECTOR('Line Direction',#364,1.) ;
#382=VECTOR('Line Direction',#381,1.) ;
#399=VECTOR('Line Direction',#398,1.) ;
#416=VECTOR('Line Direction',#415,1.) ;
#433=VECTOR('Line Direction',#432,1.) ;
#16=UNCERTAINTY_MEASURE_WITH_UNIT(LENGTH_MEASURE(0.005),#12,'distance_accuracy_value','CONFUSED CURVE UNCERTAINTY') ;
#456=SHAPE_REPRESENTATION_RELATIONSHIP(' ',' ',#20,#455) ;
#67=ORIENTED_EDGE('',*,*,#46,.F.) ;
#68=ORIENTED_EDGE('',*,*,#53,.T.) ;
#69=ORIENTED_EDGE('',*,*,#60,.T.) ;
#70=ORIENTED_EDGE('',*,*,#65,.F.) ;
#98=ORIENTED_EDGE('',*,*,#86,.F.) ;
#99=ORIENTED_EDGE('',*,*,#91,.T.) ;
#100=ORIENTED_EDGE('',*,*,#46,.T.) ;
#101=ORIENTED_EDGE('',*,*,#96,.F.) ;
#129=ORIENTED_EDGE('',*,*,#60,.F.) ;
#130=ORIENTED_EDGE('',*,*,#115,.T.) ;
#131=ORIENTED_EDGE('',*,*,#122,.T.) ;
#132=ORIENTED_EDGE('',*,*,#127,.F.) ;
#146=ORIENTED_EDGE('',*,*,#65,.T.) ;
#147=ORIENTED_EDGE('',*,*,#127,.T.) ;
#148=ORIENTED_EDGE('',*,*,#144,.T.) ;
#149=ORIENTED_EDGE('',*,*,#96,.T.) ;
#163=ORIENTED_EDGE('',*,*,#122,.F.) ;
#164=ORIENTED_EDGE('',*,*,#161,.T.) ;
#165=ORIENTED_EDGE('',*,*,#86,.T.) ;
#166=ORIENTED_EDGE('',*,*,#144,.F.) ;
#231=ORIENTED_EDGE('',*,*,#182,.F.) ;
#232=ORIENTED_EDGE('',*,*,#189,.F.) ;
#233=ORIENTED_EDGE('',*,*,#196,.F.) ;
#234=ORIENTED_EDGE('',*,*,#203,.F.) ;
#235=ORIENTED_EDGE('',*,*,#210,.F.) ;
#236=ORIENTED_EDGE('',*,*,#217,.F.) ;
#237=ORIENTED_EDGE('',*,*,#224,.F.) ;
#238=ORIENTED_EDGE('',*,*,#229,.F.) ;
#241=ORIENTED_EDGE('',*,*,#161,.F.) ;
#242=ORIENTED_EDGE('',*,*,#115,.F.) ;
#243=ORIENTED_EDGE('',*,*,#53,.F.) ;
#244=ORIENTED_EDGE('',*,*,#91,.F.) ;
#309=ORIENTED_EDGE('',*,*,#260,.T.) ;
#310=ORIENTED_EDGE('',*,*,#267,.T.) ;
#311=ORIENTED_EDGE('',*,*,#274,.T.) ;
#312=ORIENTED_EDGE('',*,*,#281,.T.) ;
#313=ORIENTED_EDGE('',*,*,#288,.T.) ;
#314=ORIENTED_EDGE('',*,*,#295,.T.) ;
#315=ORIENTED_EDGE('',*,*,#302,.T.) ;
#316=ORIENTED_EDGE('',*,*,#307,.T.) ;
#335=ORIENTED_EDGE('',*,*,#182,.T.) ;
#336=ORIENTED_EDGE('',*,*,#328,.F.) ;
#337=ORIENTED_EDGE('',*,*,#307,.F.) ;
#338=ORIENTED_EDGE('',*,*,#333,.T.) ;
#352=ORIENTED_EDGE('',*,*,#189,.T.) ;
#353=ORIENTED_EDGE('',*,*,#333,.F.) ;
#354=ORIENTED_EDGE('',*,*,#302,.F.) ;
#355=ORIENTED_EDGE('',*,*,#350,.T.) ;
#369=ORIENTED_EDGE('',*,*,#196,.T.) ;
#370=ORIENTED_EDGE('',*,*,#350,.F.) ;
#371=ORIENTED_EDGE('',*,*,#295,.F.) ;
#372=ORIENTED_EDGE('',*,*,#367,.T.) ;
#386=ORIENTED_EDGE('',*,*,#203,.T.) ;
#387=ORIENTED_EDGE('',*,*,#367,.F.) ;
#388=ORIENTED_EDGE('',*,*,#288,.F.) ;
#389=ORIENTED_EDGE('',*,*,#384,.T.) ;
#403=ORIENTED_EDGE('',*,*,#210,.T.) ;
#404=ORIENTED_EDGE('',*,*,#384,.F.) ;
#405=ORIENTED_EDGE('',*,*,#281,.F.) ;
#406=ORIENTED_EDGE('',*,*,#401,.T.) ;
#420=ORIENTED_EDGE('',*,*,#217,.T.) ;
#421=ORIENTED_EDGE('',*,*,#401,.F.) ;
#422=ORIENTED_EDGE('',*,*,#274,.F.) ;
#423=ORIENTED_EDGE('',*,*,#418,.T.) ;
#437=ORIENTED_EDGE('',*,*,#224,.T.) ;
#438=ORIENTED_EDGE('',*,*,#418,.F.) ;
#439=ORIENTED_EDGE('',*,*,#267,.F.) ;
#440=ORIENTED_EDGE('',*,*,#435,.T.) ;
#449=ORIENTED_EDGE('',*,*,#229,.T.) ;
#450=ORIENTED_EDGE('',*,*,#435,.F.) ;
#451=ORIENTED_EDGE('',*,*,#260,.F.) ;
#452=ORIENTED_EDGE('',*,*,#328,.T.) ;
#245=FACE_BOUND('',#240,.T.) ;
#32=CLOSED_SHELL('Closed Shell',(#72,#103,#134,#151,#168,#246,#318,#340,#357,#374,#391,#408,#425,#442,#454)) ;
#455=ADVANCED_BREP_SHAPE_REPRESENTATION('NONE',(#22),#17) ;
#72=ADVANCED_FACE('S3D-gedreht',(#71),#37,.T.) ;
#103=ADVANCED_FACE('S3D-gedreht',(#102),#77,.F.) ;
#134=ADVANCED_FACE('S3D-gedreht',(#133),#108,.F.) ;
#151=ADVANCED_FACE('S3D-gedreht',(#150),#139,.T.) ;
#168=ADVANCED_FACE('S3D-gedreht',(#167),#156,.T.) ;
#246=ADVANCED_FACE('S3D-gedreht',(#239,#245),#173,.F.) ;
#318=ADVANCED_FACE('S3D-gedreht',(#317),#251,.T.) ;
#340=ADVANCED_FACE('S3D-gedreht',(#339),#323,.T.) ;
#357=ADVANCED_FACE('S3D-gedreht',(#356),#345,.T.) ;
#374=ADVANCED_FACE('S3D-gedreht',(#373),#362,.F.) ;
#391=ADVANCED_FACE('S3D-gedreht',(#390),#379,.T.) ;
#408=ADVANCED_FACE('S3D-gedreht',(#407),#396,.T.) ;
#425=ADVANCED_FACE('S3D-gedreht',(#424),#413,.T.) ;
#442=ADVANCED_FACE('S3D-gedreht',(#441),#430,.F.) ;
#454=ADVANCED_FACE('S3D-gedreht',(#453),#447,.T.) ;
#4=APPLICATION_PROTOCOL_DEFINITION('international standard','automotive_design',2001,#1) ;
#22=MANIFOLD_SOLID_BREP('S3D-gedreht',#32) ;
#50=CIRCLE('generated circle',#49,0.725) ;
#64=CIRCLE('generated circle',#63,0.725) ;
#143=CIRCLE('generated circle',#142,0.725) ;
#160=CIRCLE('generated circle',#159,0.725) ;
#186=CIRCLE('generated circle',#185,0.4) ;
#200=CIRCLE('generated circle',#199,0.4) ;
#214=CIRCLE('generated circle',#213,0.4) ;
#228=CIRCLE('generated circle',#227,0.4) ;
#255=CIRCLE('generated circle',#254,0.4) ;
#271=CIRCLE('generated circle',#270,0.4) ;
#285=CIRCLE('generated circle',#284,0.4) ;
#299=CIRCLE('generated circle',#298,0.4) ;
#37=CYLINDRICAL_SURFACE('generated cylinder',#36,0.725) ;
#156=CYLINDRICAL_SURFACE('generated cylinder',#155,0.725) ;
#345=CYLINDRICAL_SURFACE('generated cylinder',#344,0.4) ;
#379=CYLINDRICAL_SURFACE('generated cylinder',#378,0.4) ;
#413=CYLINDRICAL_SURFACE('generated cylinder',#412,0.4) ;
#447=CYLINDRICAL_SURFACE('generated cylinder',#446,0.4) ;
#23=DRAUGHTING_PRE_DEFINED_COLOUR('green') ;
#46=EDGE_CURVE('',#43,#45,#41,.T.) ;
#53=EDGE_CURVE('',#43,#52,#50,.T.) ;
#60=EDGE_CURVE('',#52,#59,#57,.T.) ;
#65=EDGE_CURVE('',#45,#59,#64,.T.) ;
#86=EDGE_CURVE('',#83,#85,#81,.T.) ;
#91=EDGE_CURVE('',#83,#43,#90,.F.) ;
#96=EDGE_CURVE('',#85,#45,#95,.F.) ;
#115=EDGE_CURVE('',#52,#114,#112,.F.) ;
#122=EDGE_CURVE('',#114,#121,#119,.T.) ;
#127=EDGE_CURVE('',#59,#121,#126,.F.) ;
#144=EDGE_CURVE('',#121,#85,#143,.T.) ;
#161=EDGE_CURVE('',#114,#83,#160,.T.) ;
#182=EDGE_CURVE('',#179,#181,#177,.F.) ;
#189=EDGE_CURVE('',#188,#179,#186,.T.) ;
#196=EDGE_CURVE('',#195,#188,#193,.T.) ;
#203=EDGE_CURVE('',#202,#195,#200,.T.) ;
#210=EDGE_CURVE('',#209,#202,#207,.F.) ;
#217=EDGE_CURVE('',#216,#209,#214,.T.) ;
#224=EDGE_CURVE('',#223,#216,#221,.T.) ;
#229=EDGE_CURVE('',#181,#223,#228,.T.) ;
#260=EDGE_CURVE('',#257,#259,#255,.T.) ;
#267=EDGE_CURVE('',#259,#266,#264,.T.) ;
#274=EDGE_CURVE('',#266,#273,#271,.T.) ;
#281=EDGE_CURVE('',#273,#280,#278,.F.) ;
#288=EDGE_CURVE('',#280,#287,#285,.T.) ;
#295=EDGE_CURVE('',#287,#294,#292,.T.) ;
#302=EDGE_CURVE('',#294,#301,#299,.T.) ;
#307=EDGE_CURVE('',#301,#257,#306,.F.) ;
#328=EDGE_CURVE('',#257,#181,#327,.T.) ;
#333=EDGE_CURVE('',#301,#179,#332,.T.) ;
#350=EDGE_CURVE('',#294,#188,#349,.F.) ;
#367=EDGE_CURVE('',#287,#195,#366,.T.) ;
#384=EDGE_CURVE('',#280,#202,#383,.F.) ;
#401=EDGE_CURVE('',#273,#209,#400,.T.) ;
#418=EDGE_CURVE('',#266,#216,#417,.F.) ;
#435=EDGE_CURVE('',#259,#223,#434,.T.) ;
#66=EDGE_LOOP('',(#67,#68,#69,#70)) ;
#97=EDGE_LOOP('',(#98,#99,#100,#101)) ;
#128=EDGE_LOOP('',(#129,#130,#131,#132)) ;
#145=EDGE_LOOP('',(#146,#147,#148,#149)) ;
#162=EDGE_LOOP('',(#163,#164,#165,#166)) ;
#230=EDGE_LOOP('',(#231,#232,#233,#234,#235,#236,#237,#238)) ;
#240=EDGE_LOOP('',(#241,#242,#243,#244)) ;
#308=EDGE_LOOP('',(#309,#310,#311,#312,#313,#314,#315,#316)) ;
#334=EDGE_LOOP('',(#335,#336,#337,#338)) ;
#351=EDGE_LOOP('',(#352,#353,#354,#355)) ;
#368=EDGE_LOOP('',(#369,#370,#371,#372)) ;
#385=EDGE_LOOP('',(#386,#387,#388,#389)) ;
#402=EDGE_LOOP('',(#403,#404,#405,#406)) ;
#419=EDGE_LOOP('',(#420,#421,#422,#423)) ;
#436=EDGE_LOOP('',(#437,#438,#439,#440)) ;
#448=EDGE_LOOP('',(#449,#450,#451,#452)) ;
#71=FACE_OUTER_BOUND('',#66,.T.) ;
#102=FACE_OUTER_BOUND('',#97,.T.) ;
#133=FACE_OUTER_BOUND('',#128,.T.) ;
#150=FACE_OUTER_BOUND('',#145,.T.) ;
#167=FACE_OUTER_BOUND('',#162,.T.) ;
#239=FACE_OUTER_BOUND('',#230,.T.) ;
#317=FACE_OUTER_BOUND('',#308,.T.) ;
#339=FACE_OUTER_BOUND('',#334,.T.) ;
#356=FACE_OUTER_BOUND('',#351,.T.) ;
#373=FACE_OUTER_BOUND('',#368,.T.) ;
#390=FACE_OUTER_BOUND('',#385,.T.) ;
#407=FACE_OUTER_BOUND('',#402,.T.) ;
#424=FACE_OUTER_BOUND('',#419,.T.) ;
#441=FACE_OUTER_BOUND('',#436,.T.) ;
#453=FACE_OUTER_BOUND('',#448,.T.) ;
#41=LINE('Line',#38,#40) ;
#57=LINE('Line',#54,#56) ;
#81=LINE('Line',#78,#80) ;
#90=LINE('Line',#87,#89) ;
#95=LINE('Line',#92,#94) ;
#112=LINE('Line',#109,#111) ;
#119=LINE('Line',#116,#118) ;
#126=LINE('Line',#123,#125) ;
#177=LINE('Line',#174,#176) ;
#193=LINE('Line',#190,#192) ;
#207=LINE('Line',#204,#206) ;
#221=LINE('Line',#218,#220) ;
#264=LINE('Line',#261,#263) ;
#278=LINE('Line',#275,#277) ;
#292=LINE('Line',#289,#291) ;
#306=LINE('Line',#303,#305) ;
#327=LINE('Line',#324,#326) ;
#332=LINE('Line',#329,#331) ;
#349=LINE('Line',#346,#348) ;
#366=LINE('Line',#363,#365) ;
#383=LINE('Line',#380,#382) ;
#400=LINE('Line',#397,#399) ;
#417=LINE('Line',#414,#416) ;
#434=LINE('Line',#431,#433) ;
#77=PLANE('',#76) ;
#108=PLANE('',#107) ;
#139=PLANE('',#138) ;
#173=PLANE('',#172) ;
#251=PLANE('',#250) ;
#323=PLANE('',#322) ;
#362=PLANE('',#361) ;
#396=PLANE('',#395) ;
#430=PLANE('',#429) ;
#14=PLANE_ANGLE_MEASURE_WITH_UNIT(PLANE_ANGLE_MEASURE(0.0174532925199),#13) ;
#9=PRODUCT_CATEGORY_RELATIONSHIP(' ',' ',#7,#8) ;
#6=PRODUCT_DEFINITION_FORMATION_WITH_SPECIFIED_SOURCE('',' ',#5,.NOT_KNOWN.) ;
#21=SHAPE_DEFINITION_REPRESENTATION(#11,#20) ;
#43=VERTEX_POINT('',#42) ;
#45=VERTEX_POINT('',#44) ;
#52=VERTEX_POINT('',#51) ;
#59=VERTEX_POINT('',#58) ;
#83=VERTEX_POINT('',#82) ;
#85=VERTEX_POINT('',#84) ;
#114=VERTEX_POINT('',#113) ;
#121=VERTEX_POINT('',#120) ;
#179=VERTEX_POINT('',#178) ;
#181=VERTEX_POINT('',#180) ;
#188=VERTEX_POINT('',#187) ;
#195=VERTEX_POINT('',#194) ;
#202=VERTEX_POINT('',#201) ;
#209=VERTEX_POINT('',#208) ;
#216=VERTEX_POINT('',#215) ;
#223=VERTEX_POINT('',#222) ;
#257=VERTEX_POINT('',#256) ;
#259=VERTEX_POINT('',#258) ;
#266=VERTEX_POINT('',#265) ;
#273=VERTEX_POINT('',#272) ;
#280=VERTEX_POINT('',#279) ;
#287=VERTEX_POINT('',#286) ;
#294=VERTEX_POINT('',#293) ;
#301=VERTEX_POINT('',#300) ;
#12=(LENGTH_UNIT()NAMED_UNIT(*)SI_UNIT(.MILLI.,.METRE.)) ;
#13=(NAMED_UNIT(*)PLANE_ANGLE_UNIT()SI_UNIT($,.RADIAN.)) ;
#15=(NAMED_UNIT(*)SI_UNIT($,.STERADIAN.)SOLID_ANGLE_UNIT()) ;
#17=(GEOMETRIC_REPRESENTATION_CONTEXT(3)GLOBAL_UNCERTAINTY_ASSIGNED_CONTEXT((#16))GLOBAL_UNIT_ASSIGNED_CONTEXT((#12,#13,#15))REPRESENTATION_CONTEXT(' ',' ')) ;
ENDSEC;
END-ISO-10303-21;
