ISO-10303-21;
HEADER;
FILE_DESCRIPTION(('CATIA V5R19 STEP'),'2;1');

FILE_NAME ('D1450358_0', '2015-02-18T13:17:42+00:00', ('Weidmueller Interface'), ('Weidmueller'), 'CATIA Version 5 Release 20 SP 5 (IN-10)', 'CATIA V5 STEP AP214', 'none');

FILE_SCHEMA(('AUTOMOTIVE_DESIGN { 1 0 10303 214 1 1 1 1 }'));

ENDSEC;
/* file written by CATIA V5R20 */
DATA;
#5=PRODUCT('CC DIA 30/3.5','','<Q-CHECKER_SEAL> Q-Checker Version 2.14.8  \X2\000A\X0\CATIA-Version         : Catia V5 R20 SP5 Build Date 01-06-2014.17.15\X2\000A\X0\Model size (in KByte) : 0\X2\000A\X0\Checking date         : 2014-11-10 07:13:32\X2\000A\X0\Checking profile      : ADMIN / Release_2D-3D [CATPart]\X2\000A\X0\Model assessment      : In Ordnung (IO)\X2\000A\X0\Total weight sum      : 0\X2\000A\X0\<CROSS_CHECK_SUM>\X2\000A\X0\  <CHKSUM_DATE> -588175358 </CHKSUM_DATE>\X2\000A\X0\  <CHKSUM_ENTITIES> 1088938115 </CHKSUM_ENTITIES>\X2\000A\X0\  <CHKSUM_PROFILE> 1594213346 </CHKSUM_PROFILE>\X2\000A\X0\  <CHKSUM_DIMENSION> -186917087 </CHKSUM_DIMENSION>\X2\000A\X0\  <CHKSUM_PROJINTERSEC> -896974048 </CHKSUM_PROJINTERSEC>\X2\000A\X0\  <CHKSUM_IDENTCRV> -896974048 </CHKSUM_IDENTCRV>\X2\000A\X0\  <CHKSUM_INFINITY> 138018827 </CHKSUM_INFINITY>\X2\000A\X0\</CROSS_CHECK_SUM>\X2\000A\X0\</Q-CHECKER_SEAL> \X2\000A\X0\ \X2\000A\X0\ \X2\000A\X0\ \X2\000A\X0\',(#2)) ;
#2=PRODUCT_CONTEXT(' ',#1,'mechanical') ;
#1=APPLICATION_CONTEXT('automotive design') ;
#10=PRODUCT_DEFINITION('',' ',#6,#3) ;
#3=PRODUCT_DEFINITION_CONTEXT('part definition',#1,' ') ;
#11=PRODUCT_DEFINITION_SHAPE(' ',' ',#10) ;
#177=MECHANICAL_DESIGN_GEOMETRIC_PRESENTATION_REPRESENTATION(' ',(#30),#17) ;
#20=SHAPE_REPRESENTATION(' ',(#19),#17) ;
#19=AXIS2_PLACEMENT_3D(' ',#18,$,$) ;
#36=AXIS2_PLACEMENT_3D('Cylinder Axis2P3D',#33,#34,#35) ;
#40=AXIS2_PLACEMENT_3D('Circle Axis2P3D',#38,#39,$) ;
#56=AXIS2_PLACEMENT_3D('Circle Axis2P3D',#54,#55,$) ;
#75=AXIS2_PLACEMENT_3D('Circle Axis2P3D',#73,#74,$) ;
#80=AXIS2_PLACEMENT_3D('Circle Axis2P3D',#78,#79,$) ;
#93=AXIS2_PLACEMENT_3D('Plane Axis2P3D',#90,#91,#92) ;
#97=AXIS2_PLACEMENT_3D('Circle Axis2P3D',#95,#96,$) ;
#106=AXIS2_PLACEMENT_3D('Circle Axis2P3D',#104,#105,$) ;
#121=AXIS2_PLACEMENT_3D('Cylinder Axis2P3D',#118,#119,#120) ;
#125=AXIS2_PLACEMENT_3D('Circle Axis2P3D',#123,#124,$) ;
#151=AXIS2_PLACEMENT_3D('Circle Axis2P3D',#149,#150,$) ;
#164=AXIS2_PLACEMENT_3D('Plane Axis2P3D',#161,#162,#163) ;
#18=CARTESIAN_POINT(' ',(0.,0.,0.)) ;
#33=CARTESIAN_POINT('Axis2P3D Location',(15.,26.,-0.0599999761681)) ;
#38=CARTESIAN_POINT('Axis2P3D Location',(15.,26.,6.66133814775E-016)) ;
#42=CARTESIAN_POINT('Vertex',(13.25,26.,7.77156117238E-016)) ;
#44=CARTESIAN_POINT('Vertex',(16.75,26.,7.77156117238E-016)) ;
#47=CARTESIAN_POINT('Line Origine',(13.25,26.,-0.0599999761681)) ;
#51=CARTESIAN_POINT('Vertex',(13.25,26.,1.2)) ;
#54=CARTESIAN_POINT('Axis2P3D Location',(15.,26.,1.2)) ;
#58=CARTESIAN_POINT('Vertex',(16.75,26.,1.2)) ;
#61=CARTESIAN_POINT('Line Origine',(16.75,26.,-0.0599999761681)) ;
#73=CARTESIAN_POINT('Axis2P3D Location',(15.,26.,6.66133814775E-016)) ;
#78=CARTESIAN_POINT('Axis2P3D Location',(15.,26.,1.2)) ;
#90=CARTESIAN_POINT('Axis2P3D Location',(15.,15.,1.2)) ;
#95=CARTESIAN_POINT('Axis2P3D Location',(15.,15.,1.2)) ;
#99=CARTESIAN_POINT('Vertex',(30.,15.,1.2)) ;
#101=CARTESIAN_POINT('Vertex',(1.04074261147E-030,15.,1.2)) ;
#104=CARTESIAN_POINT('Axis2P3D Location',(15.,15.,1.2)) ;
#118=CARTESIAN_POINT('Axis2P3D Location',(15.,15.,0.6)) ;
#123=CARTESIAN_POINT('Axis2P3D Location',(15.,15.,0.)) ;
#127=CARTESIAN_POINT('Vertex',(30.,15.,0.)) ;
#129=CARTESIAN_POINT('Vertex',(1.04074261147E-030,15.,5.20371305734E-031)) ;
#132=CARTESIAN_POINT('Line Origine',(1.04074261147E-030,15.,0.6)) ;
#137=CARTESIAN_POINT('Line Origine',(30.,15.,0.6)) ;
#149=CARTESIAN_POINT('Axis2P3D Location',(15.,15.,0.)) ;
#161=CARTESIAN_POINT('Axis2P3D Location',(15.,15.,0.)) ;
#34=DIRECTION('Axis2P3D Direction',(-7.49879891331E-033,-6.12323399574E-017,1.)) ;
#35=DIRECTION('Axis2P3D XDirection',(1.,-1.22464679915E-016,0.)) ;
#39=DIRECTION('Axis2P3D Direction',(-7.49879891331E-033,-6.12323399574E-017,1.)) ;
#48=DIRECTION('Vector Direction',(0.,0.,1.)) ;
#55=DIRECTION('Axis2P3D Direction',(-7.49879891331E-033,-6.12323399574E-017,1.)) ;
#62=DIRECTION('Vector Direction',(0.,0.,1.)) ;
#74=DIRECTION('Axis2P3D Direction',(-7.49879891331E-033,-6.12323399574E-017,1.)) ;
#79=DIRECTION('Axis2P3D Direction',(-7.49879891331E-033,-6.12323399574E-017,1.)) ;
#91=DIRECTION('Axis2P3D Direction',(-7.49879891331E-033,-6.12323399574E-017,1.)) ;
#92=DIRECTION('Axis2P3D XDirection',(1.,-1.22464679915E-016,0.)) ;
#96=DIRECTION('Axis2P3D Direction',(-7.49879891331E-033,-6.12323399574E-017,1.)) ;
#105=DIRECTION('Axis2P3D Direction',(-7.49879891331E-033,-6.12323399574E-017,1.)) ;
#119=DIRECTION('Axis2P3D Direction',(-7.49879891331E-033,-6.12323399574E-017,1.)) ;
#120=DIRECTION('Axis2P3D XDirection',(1.,-1.22464679915E-016,0.)) ;
#124=DIRECTION('Axis2P3D Direction',(-7.49879891331E-033,-6.12323399574E-017,1.)) ;
#133=DIRECTION('Vector Direction',(0.,0.,1.)) ;
#138=DIRECTION('Vector Direction',(0.,0.,1.)) ;
#150=DIRECTION('Axis2P3D Direction',(-7.49879891331E-033,-6.12323399574E-017,1.)) ;
#162=DIRECTION('Axis2P3D Direction',(-7.49879891331E-033,-6.12323399574E-017,1.)) ;
#163=DIRECTION('Axis2P3D XDirection',(1.,-1.22464679915E-016,0.)) ;
#31=PRESENTATION_LAYER_ASSIGNMENT('1',' ',(#22)) ;
#8=PRODUCT_RELATED_PRODUCT_CATEGORY('part',$,(#5)) ;
#7=PRODUCT_CATEGORY('part','specification') ;
#30=STYLED_ITEM(' ',(#29),#22) ;
#29=PRESENTATION_STYLE_ASSIGNMENT((#28)) ;
#28=SURFACE_STYLE_USAGE(.BOTH.,#27) ;
#27=SURFACE_SIDE_STYLE(' ',(#26)) ;
#26=SURFACE_STYLE_FILL_AREA(#25) ;
#25=FILL_AREA_STYLE(' ',(#24)) ;
#24=FILL_AREA_STYLE_COLOUR(' ',#23) ;
#49=VECTOR('Line Direction',#48,1.) ;
#63=VECTOR('Line Direction',#62,1.) ;
#134=VECTOR('Line Direction',#133,1.) ;
#139=VECTOR('Line Direction',#138,1.) ;
#16=UNCERTAINTY_MEASURE_WITH_UNIT(LENGTH_MEASURE(0.005),#12,'distance_accuracy_value','CONFUSED CURVE UNCERTAINTY') ;
#176=SHAPE_REPRESENTATION_RELATIONSHIP(' ',' ',#20,#175) ;
#67=ORIENTED_EDGE('',*,*,#46,.F.) ;
#68=ORIENTED_EDGE('',*,*,#53,.F.) ;
#69=ORIENTED_EDGE('',*,*,#60,.T.) ;
#70=ORIENTED_EDGE('',*,*,#65,.T.) ;
#84=ORIENTED_EDGE('',*,*,#77,.F.) ;
#85=ORIENTED_EDGE('',*,*,#65,.F.) ;
#86=ORIENTED_EDGE('',*,*,#82,.T.) ;
#87=ORIENTED_EDGE('',*,*,#53,.T.) ;
#110=ORIENTED_EDGE('',*,*,#103,.T.) ;
#111=ORIENTED_EDGE('',*,*,#108,.T.) ;
#114=ORIENTED_EDGE('',*,*,#82,.F.) ;
#115=ORIENTED_EDGE('',*,*,#60,.F.) ;
#143=ORIENTED_EDGE('',*,*,#131,.T.) ;
#144=ORIENTED_EDGE('',*,*,#136,.F.) ;
#145=ORIENTED_EDGE('',*,*,#103,.F.) ;
#146=ORIENTED_EDGE('',*,*,#141,.T.) ;
#155=ORIENTED_EDGE('',*,*,#153,.T.) ;
#156=ORIENTED_EDGE('',*,*,#141,.F.) ;
#157=ORIENTED_EDGE('',*,*,#108,.F.) ;
#158=ORIENTED_EDGE('',*,*,#136,.T.) ;
#167=ORIENTED_EDGE('',*,*,#153,.F.) ;
#168=ORIENTED_EDGE('',*,*,#131,.F.) ;
#171=ORIENTED_EDGE('',*,*,#46,.T.) ;
#172=ORIENTED_EDGE('',*,*,#77,.T.) ;
#116=FACE_BOUND('',#113,.T.) ;
#173=FACE_BOUND('',#170,.T.) ;
#32=CLOSED_SHELL('Closed Shell',(#72,#89,#117,#148,#160,#174)) ;
#175=ADVANCED_BREP_SHAPE_REPRESENTATION('NONE',(#22),#17) ;
#72=ADVANCED_FACE('S3D gedreht',(#71),#37,.F.) ;
#89=ADVANCED_FACE('S3D gedreht',(#88),#37,.F.) ;
#117=ADVANCED_FACE('S3D gedreht',(#112,#116),#94,.T.) ;
#148=ADVANCED_FACE('S3D gedreht',(#147),#122,.T.) ;
#160=ADVANCED_FACE('S3D gedreht',(#159),#122,.T.) ;
#174=ADVANCED_FACE('S3D gedreht',(#169,#173),#165,.F.) ;
#4=APPLICATION_PROTOCOL_DEFINITION('international standard','automotive_design',2001,#1) ;
#22=MANIFOLD_SOLID_BREP('S3D gedreht',#32) ;
#41=CIRCLE('generated circle',#40,1.75) ;
#57=CIRCLE('generated circle',#56,1.75) ;
#76=CIRCLE('generated circle',#75,1.75) ;
#81=CIRCLE('generated circle',#80,1.75) ;
#98=CIRCLE('generated circle',#97,15.) ;
#107=CIRCLE('generated circle',#106,15.) ;
#126=CIRCLE('generated circle',#125,15.) ;
#152=CIRCLE('generated circle',#151,15.) ;
#23=COLOUR_RGB('Colour',0.647058823529,0.647058823529,0.647058823529) ;
#37=CYLINDRICAL_SURFACE('generated cylinder',#36,1.75) ;
#122=CYLINDRICAL_SURFACE('generated cylinder',#121,15.) ;
#46=EDGE_CURVE('',#43,#45,#41,.T.) ;
#53=EDGE_CURVE('',#52,#43,#50,.F.) ;
#60=EDGE_CURVE('',#52,#59,#57,.T.) ;
#65=EDGE_CURVE('',#59,#45,#64,.F.) ;
#77=EDGE_CURVE('',#45,#43,#76,.T.) ;
#82=EDGE_CURVE('',#59,#52,#81,.T.) ;
#103=EDGE_CURVE('',#100,#102,#98,.T.) ;
#108=EDGE_CURVE('',#102,#100,#107,.T.) ;
#131=EDGE_CURVE('',#128,#130,#126,.T.) ;
#136=EDGE_CURVE('',#102,#130,#135,.F.) ;
#141=EDGE_CURVE('',#100,#128,#140,.F.) ;
#153=EDGE_CURVE('',#130,#128,#152,.T.) ;
#66=EDGE_LOOP('',(#67,#68,#69,#70)) ;
#83=EDGE_LOOP('',(#84,#85,#86,#87)) ;
#109=EDGE_LOOP('',(#110,#111)) ;
#113=EDGE_LOOP('',(#114,#115)) ;
#142=EDGE_LOOP('',(#143,#144,#145,#146)) ;
#154=EDGE_LOOP('',(#155,#156,#157,#158)) ;
#166=EDGE_LOOP('',(#167,#168)) ;
#170=EDGE_LOOP('',(#171,#172)) ;
#71=FACE_OUTER_BOUND('',#66,.T.) ;
#88=FACE_OUTER_BOUND('',#83,.T.) ;
#112=FACE_OUTER_BOUND('',#109,.T.) ;
#147=FACE_OUTER_BOUND('',#142,.T.) ;
#159=FACE_OUTER_BOUND('',#154,.T.) ;
#169=FACE_OUTER_BOUND('',#166,.T.) ;
#50=LINE('Line',#47,#49) ;
#64=LINE('Line',#61,#63) ;
#135=LINE('Line',#132,#134) ;
#140=LINE('Line',#137,#139) ;
#94=PLANE('',#93) ;
#165=PLANE('',#164) ;
#14=PLANE_ANGLE_MEASURE_WITH_UNIT(PLANE_ANGLE_MEASURE(0.0174532925199),#13) ;
#9=PRODUCT_CATEGORY_RELATIONSHIP(' ',' ',#7,#8) ;
#6=PRODUCT_DEFINITION_FORMATION_WITH_SPECIFIED_SOURCE('',' ',#5,.NOT_KNOWN.) ;
#21=SHAPE_DEFINITION_REPRESENTATION(#11,#20) ;
#43=VERTEX_POINT('',#42) ;
#45=VERTEX_POINT('',#44) ;
#52=VERTEX_POINT('',#51) ;
#59=VERTEX_POINT('',#58) ;
#100=VERTEX_POINT('',#99) ;
#102=VERTEX_POINT('',#101) ;
#128=VERTEX_POINT('',#127) ;
#130=VERTEX_POINT('',#129) ;
#12=(LENGTH_UNIT()NAMED_UNIT(*)SI_UNIT(.MILLI.,.METRE.)) ;
#13=(NAMED_UNIT(*)PLANE_ANGLE_UNIT()SI_UNIT($,.RADIAN.)) ;
#15=(NAMED_UNIT(*)SI_UNIT($,.STERADIAN.)SOLID_ANGLE_UNIT()) ;
#17=(GEOMETRIC_REPRESENTATION_CONTEXT(3)GLOBAL_UNCERTAINTY_ASSIGNED_CONTEXT((#16))GLOBAL_UNIT_ASSIGNED_CONTEXT((#12,#13,#15))REPRESENTATION_CONTEXT(' ',' ')) ;
ENDSEC;
END-ISO-10303-21;
