ISO-10303-21;
HEADER;
FILE_DESCRIPTION(('CATIA V5 STEP Exchange','CAx-IF Rec.Pracs.--- Model Styling and Organization---1.4--- 2014-01-23'),'2;1');

FILE_NAME ('D1456626_0_1808980000_1808980000.stp','2020-01-27T11:57:11+00:00',('none'),('Weidmueller'),'CATIA Version 5-6 Release 2016 SP3 HF44','CATIA V5 STEP AP214','none');

FILE_SCHEMA(('AUTOMOTIVE_DESIGN { 1 0 10303 214 1 1 1 1 }'));

ENDSEC;
DATA;
#5=PRODUCT('1808980000_WQL_2_WF6-8','','',(#2)) ;
#2=PRODUCT_CONTEXT(' ',#1,'mechanical') ;
#1=APPLICATION_CONTEXT('automotive design') ;
#10=PRODUCT_DEFINITION('33756',' ',#6,#3) ;
#3=PRODUCT_DEFINITION_CONTEXT('part definition',#1,' ') ;
#11=PRODUCT_DEFINITION_SHAPE(' ',' ',#10) ;
#444=MECHANICAL_DESIGN_GEOMETRIC_PRESENTATION_REPRESENTATION(' ',(#29),#16) ;
#19=SHAPE_REPRESENTATION(' ',(#18),#16) ;
#18=AXIS2_PLACEMENT_3D(' ',#17,$,$) ;
#35=AXIS2_PLACEMENT_3D('Cylinder Axis2P3D',#32,#33,#34) ;
#48=AXIS2_PLACEMENT_3D('Circle Axis2P3D',#46,#47,$) ;
#62=AXIS2_PLACEMENT_3D('Circle Axis2P3D',#60,#61,$) ;
#75=AXIS2_PLACEMENT_3D('Plane Axis2P3D',#72,#73,#74) ;
#95=AXIS2_PLACEMENT_3D('Circle Axis2P3D',#93,#94,$) ;
#123=AXIS2_PLACEMENT_3D('Circle Axis2P3D',#121,#122,$) ;
#145=AXIS2_PLACEMENT_3D('Circle Axis2P3D',#143,#144,$) ;
#154=AXIS2_PLACEMENT_3D('Circle Axis2P3D',#152,#153,$) ;
#163=AXIS2_PLACEMENT_3D('Circle Axis2P3D',#161,#162,$) ;
#173=AXIS2_PLACEMENT_3D('Circle Axis2P3D',#171,#172,$) ;
#186=AXIS2_PLACEMENT_3D('Plane Axis2P3D',#183,#184,#185) ;
#217=AXIS2_PLACEMENT_3D('Plane Axis2P3D',#214,#215,#216) ;
#241=AXIS2_PLACEMENT_3D('Cylinder Axis2P3D',#238,#239,#240) ;
#245=AXIS2_PLACEMENT_3D('Circle Axis2P3D',#243,#244,$) ;
#265=AXIS2_PLACEMENT_3D('Plane Axis2P3D',#262,#263,#264) ;
#289=AXIS2_PLACEMENT_3D('Plane Axis2P3D',#286,#287,#288) ;
#313=AXIS2_PLACEMENT_3D('Plane Axis2P3D',#310,#311,#312) ;
#337=AXIS2_PLACEMENT_3D('Cylinder Axis2P3D',#334,#335,#336) ;
#341=AXIS2_PLACEMENT_3D('Circle Axis2P3D',#339,#340,$) ;
#361=AXIS2_PLACEMENT_3D('Plane Axis2P3D',#358,#359,#360) ;
#378=AXIS2_PLACEMENT_3D('Cylinder Axis2P3D',#375,#376,#377) ;
#389=AXIS2_PLACEMENT_3D('Circle Axis2P3D',#387,#388,$) ;
#408=AXIS2_PLACEMENT_3D('Circle Axis2P3D',#406,#407,$) ;
#421=AXIS2_PLACEMENT_3D('Plane Axis2P3D',#418,#419,#420) ;
#17=CARTESIAN_POINT(' ',(0.,0.,0.)) ;
#32=CARTESIAN_POINT('Axis2P3D Location',(29.9,10.,0.1)) ;
#37=CARTESIAN_POINT('Line Origine',(32.7960224542,11.5821042774,2.)) ;
#41=CARTESIAN_POINT('Vertex',(32.7960224542,11.5821042774,4.)) ;
#43=CARTESIAN_POINT('Vertex',(32.7960224542,11.5821042774,7.90765337352E-016)) ;
#46=CARTESIAN_POINT('Axis2P3D Location',(29.9,10.,4.)) ;
#50=CARTESIAN_POINT('Vertex',(27.0039775458,8.41789572261,4.)) ;
#53=CARTESIAN_POINT('Line Origine',(27.0039775458,8.41789572261,2.)) ;
#57=CARTESIAN_POINT('Vertex',(27.0039775458,8.41789572261,5.97013443429E-016)) ;
#60=CARTESIAN_POINT('Axis2P3D Location',(29.9,10.,4.71844785466E-016)) ;
#72=CARTESIAN_POINT('Axis2P3D Location',(18.5,10.,9.09881126908E-016)) ;
#77=CARTESIAN_POINT('Line Origine',(0.,10.,9.09881126908E-016)) ;
#81=CARTESIAN_POINT('Vertex',(-1.22464679915E-015,-1.7763568394E-015,2.97557727334E-016)) ;
#83=CARTESIAN_POINT('Vertex',(1.22464679915E-015,20.,1.52220452648E-015)) ;
#86=CARTESIAN_POINT('Line Origine',(9.75,20.,1.52220452648E-015)) ;
#90=CARTESIAN_POINT('Vertex',(19.5,20.,1.52220452648E-015)) ;
#93=CARTESIAN_POINT('Axis2P3D Location',(22.,20.,1.52220452648E-015)) ;
#97=CARTESIAN_POINT('Vertex',(22.,17.5,1.62327598951E-015)) ;
#100=CARTESIAN_POINT('Line Origine',(29.5,17.5,1.36912367659E-015)) ;
#104=CARTESIAN_POINT('Vertex',(37.,17.5,1.36912367659E-015)) ;
#107=CARTESIAN_POINT('Line Origine',(37.,10.,9.09881126908E-016)) ;
#111=CARTESIAN_POINT('Vertex',(37.,2.5,4.50638577227E-016)) ;
#114=CARTESIAN_POINT('Line Origine',(29.5,2.5,4.50638577227E-016)) ;
#118=CARTESIAN_POINT('Vertex',(22.,2.5,4.50638577227E-016)) ;
#121=CARTESIAN_POINT('Axis2P3D Location',(22.,0.,2.97557727334E-016)) ;
#125=CARTESIAN_POINT('Vertex',(19.5,-4.32646832398E-016,-1.87469972833E-032)) ;
#128=CARTESIAN_POINT('Line Origine',(9.75,-8.881784197E-016,2.97557727334E-016)) ;
#143=CARTESIAN_POINT('Axis2P3D Location',(29.9,10.,9.09881126908E-016)) ;
#152=CARTESIAN_POINT('Axis2P3D Location',(9.6,10.,9.09881126908E-016)) ;
#156=CARTESIAN_POINT('Vertex',(13.3736050161,12.061529816,8.20121684916E-016)) ;
#158=CARTESIAN_POINT('Vertex',(5.82639498387,7.938470184,5.67657095865E-016)) ;
#161=CARTESIAN_POINT('Axis2P3D Location',(9.6,10.,9.09881126908E-016)) ;
#171=CARTESIAN_POINT('Axis2P3D Location',(29.9,10.,4.)) ;
#183=CARTESIAN_POINT('Axis2P3D Location',(4.3405414415E-017,-1.88737914186E-015,2.)) ;
#188=CARTESIAN_POINT('Line Origine',(4.3405414415E-017,-1.88737914186E-015,2.)) ;
#192=CARTESIAN_POINT('Vertex',(-1.22464679915E-015,-1.7763568394E-015,4.)) ;
#195=CARTESIAN_POINT('Line Origine',(1.26805221356E-015,10.,4.)) ;
#199=CARTESIAN_POINT('Vertex',(1.22464679915E-015,20.,4.)) ;
#202=CARTESIAN_POINT('Line Origine',(2.49269901271E-015,20.,2.)) ;
#214=CARTESIAN_POINT('Axis2P3D Location',(19.5,20.,2.)) ;
#219=CARTESIAN_POINT('Line Origine',(9.75,20.,4.)) ;
#223=CARTESIAN_POINT('Vertex',(19.5,20.,4.)) ;
#226=CARTESIAN_POINT('Line Origine',(19.5,20.,2.)) ;
#238=CARTESIAN_POINT('Axis2P3D Location',(22.,20.,2.)) ;
#243=CARTESIAN_POINT('Axis2P3D Location',(22.,20.,4.)) ;
#247=CARTESIAN_POINT('Vertex',(22.,17.5,4.)) ;
#250=CARTESIAN_POINT('Line Origine',(22.,17.5,2.)) ;
#262=CARTESIAN_POINT('Axis2P3D Location',(22.,17.5,2.)) ;
#267=CARTESIAN_POINT('Line Origine',(29.5,17.5,4.)) ;
#271=CARTESIAN_POINT('Vertex',(37.,17.5,4.)) ;
#274=CARTESIAN_POINT('Line Origine',(37.,17.5,2.)) ;
#286=CARTESIAN_POINT('Axis2P3D Location',(37.,17.5,2.)) ;
#291=CARTESIAN_POINT('Line Origine',(37.,10.,4.)) ;
#295=CARTESIAN_POINT('Vertex',(37.,2.5,4.)) ;
#298=CARTESIAN_POINT('Line Origine',(37.,2.5,2.)) ;
#310=CARTESIAN_POINT('Axis2P3D Location',(22.,2.5,2.)) ;
#315=CARTESIAN_POINT('Line Origine',(29.5,2.5,4.)) ;
#319=CARTESIAN_POINT('Vertex',(22.,2.5,4.)) ;
#322=CARTESIAN_POINT('Line Origine',(22.,2.5,2.)) ;
#334=CARTESIAN_POINT('Axis2P3D Location',(22.,-5.55111512313E-016,2.)) ;
#339=CARTESIAN_POINT('Axis2P3D Location',(22.,-6.77576192227E-016,4.)) ;
#343=CARTESIAN_POINT('Vertex',(19.5,-6.77576192227E-016,4.)) ;
#346=CARTESIAN_POINT('Line Origine',(19.5,-5.55111512313E-016,2.)) ;
#358=CARTESIAN_POINT('Axis2P3D Location',(4.3405414415E-017,-1.11022302463E-016,2.)) ;
#363=CARTESIAN_POINT('Line Origine',(9.75,-1.42751761155E-015,4.)) ;
#375=CARTESIAN_POINT('Axis2P3D Location',(9.6,10.,0.1)) ;
#380=CARTESIAN_POINT('Line Origine',(13.3736050161,12.061529816,2.)) ;
#384=CARTESIAN_POINT('Vertex',(13.3736050161,12.061529816,4.)) ;
#387=CARTESIAN_POINT('Axis2P3D Location',(9.6,10.,4.)) ;
#391=CARTESIAN_POINT('Vertex',(5.82639498387,7.938470184,4.)) ;
#394=CARTESIAN_POINT('Line Origine',(5.82639498387,7.938470184,2.)) ;
#406=CARTESIAN_POINT('Axis2P3D Location',(9.6,10.,4.)) ;
#418=CARTESIAN_POINT('Axis2P3D Location',(18.5,10.,4.)) ;
#33=DIRECTION('Axis2P3D Direction',(-7.49879891331E-033,-6.12323399574E-017,1.)) ;
#34=DIRECTION('Axis2P3D XDirection',(-0.87758256189,-0.479425538604,-2.93563475641E-017)) ;
#38=DIRECTION('Vector Direction',(0.,0.,1.)) ;
#47=DIRECTION('Axis2P3D Direction',(-7.49879891331E-033,-6.12323399574E-017,1.)) ;
#54=DIRECTION('Vector Direction',(0.,0.,1.)) ;
#61=DIRECTION('Axis2P3D Direction',(-7.49879891331E-033,-6.12323399574E-017,1.)) ;
#73=DIRECTION('Axis2P3D Direction',(7.49879891331E-033,6.12323399574E-017,-1.)) ;
#74=DIRECTION('Axis2P3D XDirection',(1.,-1.22464679915E-016,0.)) ;
#78=DIRECTION('Vector Direction',(1.22464679915E-016,1.,6.12323399574E-017)) ;
#87=DIRECTION('Vector Direction',(-1.,1.82190445067E-016,0.)) ;
#94=DIRECTION('Axis2P3D Direction',(7.49879891331E-033,6.12323399574E-017,-1.)) ;
#101=DIRECTION('Vector Direction',(1.,0.,0.)) ;
#108=DIRECTION('Vector Direction',(0.,-1.,-6.12323399574E-017)) ;
#115=DIRECTION('Vector Direction',(1.,-1.18423789293E-016,0.)) ;
#122=DIRECTION('Axis2P3D Direction',(7.49879891331E-033,6.12323399574E-017,-1.)) ;
#129=DIRECTION('Vector Direction',(1.,-9.10952225333E-017,0.)) ;
#144=DIRECTION('Axis2P3D Direction',(7.49879891331E-033,6.12323399574E-017,-1.)) ;
#153=DIRECTION('Axis2P3D Direction',(7.49879891331E-033,6.12323399574E-017,-1.)) ;
#162=DIRECTION('Axis2P3D Direction',(7.49879891331E-033,6.12323399574E-017,-1.)) ;
#172=DIRECTION('Axis2P3D Direction',(-7.49879891331E-033,-6.12323399574E-017,1.)) ;
#184=DIRECTION('Axis2P3D Direction',(-1.,1.22464679915E-016,7.49879891331E-033)) ;
#185=DIRECTION('Axis2P3D XDirection',(1.22464679915E-016,1.,6.12323399574E-017)) ;
#189=DIRECTION('Vector Direction',(0.,6.12323399574E-017,-1.)) ;
#196=DIRECTION('Vector Direction',(1.22464679915E-016,1.,6.66133814775E-017)) ;
#203=DIRECTION('Vector Direction',(0.,0.,-1.)) ;
#215=DIRECTION('Axis2P3D Direction',(-1.22464679915E-016,-1.,-6.12323399574E-017)) ;
#216=DIRECTION('Axis2P3D XDirection',(-1.,1.22464679915E-016,0.)) ;
#220=DIRECTION('Vector Direction',(-1.,1.82190445067E-016,0.)) ;
#227=DIRECTION('Vector Direction',(0.,0.,-1.)) ;
#239=DIRECTION('Axis2P3D Direction',(7.49879891331E-033,6.12323399574E-017,-1.)) ;
#240=DIRECTION('Axis2P3D XDirection',(-6.12323399574E-017,-1.,-6.12323399574E-017)) ;
#244=DIRECTION('Axis2P3D Direction',(7.49879891331E-033,6.12323399574E-017,-1.)) ;
#251=DIRECTION('Vector Direction',(0.,0.,-1.)) ;
#263=DIRECTION('Axis2P3D Direction',(1.22464679915E-016,1.,6.12323399574E-017)) ;
#264=DIRECTION('Axis2P3D XDirection',(1.,-1.22464679915E-016,0.)) ;
#268=DIRECTION('Vector Direction',(1.,-2.36847578587E-016,0.)) ;
#275=DIRECTION('Vector Direction',(0.,0.,-1.)) ;
#287=DIRECTION('Axis2P3D Direction',(1.,-1.22464679915E-016,-7.49879891331E-033)) ;
#288=DIRECTION('Axis2P3D XDirection',(-1.22464679915E-016,-1.,-6.12323399574E-017)) ;
#292=DIRECTION('Vector Direction',(0.,-1.,-5.92118946467E-017)) ;
#299=DIRECTION('Vector Direction',(0.,0.,-1.)) ;
#311=DIRECTION('Axis2P3D Direction',(1.22464679915E-016,1.,6.12323399574E-017)) ;
#312=DIRECTION('Axis2P3D XDirection',(1.,-1.22464679915E-016,0.)) ;
#316=DIRECTION('Vector Direction',(1.,-1.18423789293E-016,0.)) ;
#323=DIRECTION('Vector Direction',(0.,0.,-1.)) ;
#335=DIRECTION('Axis2P3D Direction',(7.49879891331E-033,6.12323399574E-017,-1.)) ;
#336=DIRECTION('Axis2P3D XDirection',(-1.,0.,-7.49879891331E-033)) ;
#340=DIRECTION('Axis2P3D Direction',(7.49879891331E-033,6.12323399574E-017,-1.)) ;
#347=DIRECTION('Vector Direction',(0.,6.12323399574E-017,-1.)) ;
#359=DIRECTION('Axis2P3D Direction',(1.22464679915E-016,1.,6.12323399574E-017)) ;
#360=DIRECTION('Axis2P3D XDirection',(1.,-1.22464679915E-016,0.)) ;
#364=DIRECTION('Vector Direction',(1.,-1.22464679915E-016,0.)) ;
#376=DIRECTION('Axis2P3D Direction',(-7.49879891331E-033,-6.12323399574E-017,1.)) ;
#377=DIRECTION('Axis2P3D XDirection',(-0.87758256189,-0.479425538604,-2.93563475641E-017)) ;
#381=DIRECTION('Vector Direction',(0.,0.,1.)) ;
#388=DIRECTION('Axis2P3D Direction',(-7.49879891331E-033,-6.12323399574E-017,1.)) ;
#395=DIRECTION('Vector Direction',(0.,0.,1.)) ;
#407=DIRECTION('Axis2P3D Direction',(-7.49879891331E-033,-6.12323399574E-017,1.)) ;
#419=DIRECTION('Axis2P3D Direction',(7.49879891331E-033,6.12323399574E-017,-1.)) ;
#420=DIRECTION('Axis2P3D XDirection',(1.,-1.22464679915E-016,0.)) ;
#30=PRESENTATION_LAYER_ASSIGNMENT('1',' ',(#21)) ;
#8=PRODUCT_RELATED_PRODUCT_CATEGORY('part',$,(#5)) ;
#7=PRODUCT_CATEGORY('part','specification') ;
#29=STYLED_ITEM(' ',(#28),#21) ;
#28=PRESENTATION_STYLE_ASSIGNMENT((#27)) ;
#27=SURFACE_STYLE_USAGE(.BOTH.,#26) ;
#26=SURFACE_SIDE_STYLE(' ',(#25)) ;
#25=SURFACE_STYLE_FILL_AREA(#24) ;
#24=FILL_AREA_STYLE(' ',(#23)) ;
#23=FILL_AREA_STYLE_COLOUR(' ',#22) ;
#39=VECTOR('Line Direction',#38,1.) ;
#55=VECTOR('Line Direction',#54,1.) ;
#79=VECTOR('Line Direction',#78,1.) ;
#88=VECTOR('Line Direction',#87,1.) ;
#102=VECTOR('Line Direction',#101,1.) ;
#109=VECTOR('Line Direction',#108,1.) ;
#116=VECTOR('Line Direction',#115,1.) ;
#130=VECTOR('Line Direction',#129,1.) ;
#190=VECTOR('Line Direction',#189,1.) ;
#197=VECTOR('Line Direction',#196,1.) ;
#204=VECTOR('Line Direction',#203,1.) ;
#221=VECTOR('Line Direction',#220,1.) ;
#228=VECTOR('Line Direction',#227,1.) ;
#252=VECTOR('Line Direction',#251,1.) ;
#269=VECTOR('Line Direction',#268,1.) ;
#276=VECTOR('Line Direction',#275,1.) ;
#293=VECTOR('Line Direction',#292,1.) ;
#300=VECTOR('Line Direction',#299,1.) ;
#317=VECTOR('Line Direction',#316,1.) ;
#324=VECTOR('Line Direction',#323,1.) ;
#348=VECTOR('Line Direction',#347,1.) ;
#365=VECTOR('Line Direction',#364,1.) ;
#382=VECTOR('Line Direction',#381,1.) ;
#396=VECTOR('Line Direction',#395,1.) ;
#15=UNCERTAINTY_MEASURE_WITH_UNIT(LENGTH_MEASURE(0.005),#12,'distance_accuracy_value','CONFUSED CURVE UNCERTAINTY') ;
#443=SHAPE_REPRESENTATION_RELATIONSHIP(' ',' ',#19,#442) ;
#66=ORIENTED_EDGE('',*,*,#45,.F.) ;
#67=ORIENTED_EDGE('',*,*,#52,.F.) ;
#68=ORIENTED_EDGE('',*,*,#59,.T.) ;
#69=ORIENTED_EDGE('',*,*,#64,.T.) ;
#134=ORIENTED_EDGE('',*,*,#85,.T.) ;
#135=ORIENTED_EDGE('',*,*,#92,.T.) ;
#136=ORIENTED_EDGE('',*,*,#99,.T.) ;
#137=ORIENTED_EDGE('',*,*,#106,.T.) ;
#138=ORIENTED_EDGE('',*,*,#113,.T.) ;
#139=ORIENTED_EDGE('',*,*,#120,.T.) ;
#140=ORIENTED_EDGE('',*,*,#127,.T.) ;
#141=ORIENTED_EDGE('',*,*,#132,.T.) ;
#149=ORIENTED_EDGE('',*,*,#147,.F.) ;
#150=ORIENTED_EDGE('',*,*,#64,.F.) ;
#167=ORIENTED_EDGE('',*,*,#160,.F.) ;
#168=ORIENTED_EDGE('',*,*,#165,.F.) ;
#177=ORIENTED_EDGE('',*,*,#59,.F.) ;
#178=ORIENTED_EDGE('',*,*,#175,.F.) ;
#179=ORIENTED_EDGE('',*,*,#45,.T.) ;
#180=ORIENTED_EDGE('',*,*,#147,.T.) ;
#208=ORIENTED_EDGE('',*,*,#194,.F.) ;
#209=ORIENTED_EDGE('',*,*,#201,.T.) ;
#210=ORIENTED_EDGE('',*,*,#206,.T.) ;
#211=ORIENTED_EDGE('',*,*,#85,.F.) ;
#232=ORIENTED_EDGE('',*,*,#206,.F.) ;
#233=ORIENTED_EDGE('',*,*,#225,.T.) ;
#234=ORIENTED_EDGE('',*,*,#230,.T.) ;
#235=ORIENTED_EDGE('',*,*,#92,.F.) ;
#256=ORIENTED_EDGE('',*,*,#230,.F.) ;
#257=ORIENTED_EDGE('',*,*,#249,.T.) ;
#258=ORIENTED_EDGE('',*,*,#254,.T.) ;
#259=ORIENTED_EDGE('',*,*,#99,.F.) ;
#280=ORIENTED_EDGE('',*,*,#254,.F.) ;
#281=ORIENTED_EDGE('',*,*,#273,.T.) ;
#282=ORIENTED_EDGE('',*,*,#278,.T.) ;
#283=ORIENTED_EDGE('',*,*,#106,.F.) ;
#304=ORIENTED_EDGE('',*,*,#278,.F.) ;
#305=ORIENTED_EDGE('',*,*,#297,.T.) ;
#306=ORIENTED_EDGE('',*,*,#302,.T.) ;
#307=ORIENTED_EDGE('',*,*,#113,.F.) ;
#328=ORIENTED_EDGE('',*,*,#302,.F.) ;
#329=ORIENTED_EDGE('',*,*,#321,.T.) ;
#330=ORIENTED_EDGE('',*,*,#326,.T.) ;
#331=ORIENTED_EDGE('',*,*,#120,.F.) ;
#352=ORIENTED_EDGE('',*,*,#326,.F.) ;
#353=ORIENTED_EDGE('',*,*,#345,.T.) ;
#354=ORIENTED_EDGE('',*,*,#350,.T.) ;
#355=ORIENTED_EDGE('',*,*,#127,.F.) ;
#369=ORIENTED_EDGE('',*,*,#350,.F.) ;
#370=ORIENTED_EDGE('',*,*,#367,.T.) ;
#371=ORIENTED_EDGE('',*,*,#194,.T.) ;
#372=ORIENTED_EDGE('',*,*,#132,.F.) ;
#400=ORIENTED_EDGE('',*,*,#386,.F.) ;
#401=ORIENTED_EDGE('',*,*,#393,.F.) ;
#402=ORIENTED_EDGE('',*,*,#398,.T.) ;
#403=ORIENTED_EDGE('',*,*,#165,.T.) ;
#412=ORIENTED_EDGE('',*,*,#398,.F.) ;
#413=ORIENTED_EDGE('',*,*,#410,.F.) ;
#414=ORIENTED_EDGE('',*,*,#386,.T.) ;
#415=ORIENTED_EDGE('',*,*,#160,.T.) ;
#424=ORIENTED_EDGE('',*,*,#367,.F.) ;
#425=ORIENTED_EDGE('',*,*,#345,.F.) ;
#426=ORIENTED_EDGE('',*,*,#321,.F.) ;
#427=ORIENTED_EDGE('',*,*,#297,.F.) ;
#428=ORIENTED_EDGE('',*,*,#273,.F.) ;
#429=ORIENTED_EDGE('',*,*,#249,.F.) ;
#430=ORIENTED_EDGE('',*,*,#225,.F.) ;
#431=ORIENTED_EDGE('',*,*,#201,.F.) ;
#434=ORIENTED_EDGE('',*,*,#52,.T.) ;
#435=ORIENTED_EDGE('',*,*,#175,.T.) ;
#438=ORIENTED_EDGE('',*,*,#393,.T.) ;
#439=ORIENTED_EDGE('',*,*,#410,.T.) ;
#151=FACE_BOUND('',#148,.T.) ;
#169=FACE_BOUND('',#166,.T.) ;
#436=FACE_BOUND('',#433,.T.) ;
#440=FACE_BOUND('',#437,.T.) ;
#31=CLOSED_SHELL('Closed Shell',(#71,#170,#182,#213,#237,#261,#285,#309,#333,#357,#374,#405,#417,#441)) ;
#442=ADVANCED_BREP_SHAPE_REPRESENTATION('NONE',(#21),#16) ;
#71=ADVANCED_FACE('Hauptk\X2\00F6\X0\rper',(#70),#36,.F.) ;
#170=ADVANCED_FACE('Hauptk\X2\00F6\X0\rper',(#142,#151,#169),#76,.T.) ;
#182=ADVANCED_FACE('Hauptk\X2\00F6\X0\rper',(#181),#36,.F.) ;
#213=ADVANCED_FACE('Hauptk\X2\00F6\X0\rper',(#212),#187,.T.) ;
#237=ADVANCED_FACE('Hauptk\X2\00F6\X0\rper',(#236),#218,.F.) ;
#261=ADVANCED_FACE('Hauptk\X2\00F6\X0\rper',(#260),#242,.F.) ;
#285=ADVANCED_FACE('Hauptk\X2\00F6\X0\rper',(#284),#266,.T.) ;
#309=ADVANCED_FACE('Hauptk\X2\00F6\X0\rper',(#308),#290,.T.) ;
#333=ADVANCED_FACE('Hauptk\X2\00F6\X0\rper',(#332),#314,.F.) ;
#357=ADVANCED_FACE('Hauptk\X2\00F6\X0\rper',(#356),#338,.F.) ;
#374=ADVANCED_FACE('Hauptk\X2\00F6\X0\rper',(#373),#362,.F.) ;
#405=ADVANCED_FACE('Hauptk\X2\00F6\X0\rper',(#404),#379,.F.) ;
#417=ADVANCED_FACE('Hauptk\X2\00F6\X0\rper',(#416),#379,.F.) ;
#441=ADVANCED_FACE('Hauptk\X2\00F6\X0\rper',(#432,#436,#440),#422,.F.) ;
#4=APPLICATION_PROTOCOL_DEFINITION('international standard','automotive_design',2001,#1) ;
#21=MANIFOLD_SOLID_BREP('Hauptk\X2\00F6\X0\rper',#31) ;
#49=CIRCLE('generated circle',#48,3.3) ;
#63=CIRCLE('generated circle',#62,3.3) ;
#96=CIRCLE('generated circle',#95,2.5) ;
#124=CIRCLE('generated circle',#123,2.5) ;
#146=CIRCLE('generated circle',#145,3.3) ;
#155=CIRCLE('generated circle',#154,4.3) ;
#164=CIRCLE('generated circle',#163,4.3) ;
#174=CIRCLE('generated circle',#173,3.3) ;
#246=CIRCLE('generated circle',#245,2.5) ;
#342=CIRCLE('generated circle',#341,2.5) ;
#390=CIRCLE('generated circle',#389,4.3) ;
#409=CIRCLE('generated circle',#408,4.3) ;
#22=COLOUR_RGB('Colour',0.690196078431,0.690196078431,0.690196078431) ;
#36=CYLINDRICAL_SURFACE('generated cylinder',#35,3.3) ;
#242=CYLINDRICAL_SURFACE('generated cylinder',#241,2.5) ;
#338=CYLINDRICAL_SURFACE('generated cylinder',#337,2.5) ;
#379=CYLINDRICAL_SURFACE('generated cylinder',#378,4.3) ;
#45=EDGE_CURVE('',#42,#44,#40,.F.) ;
#52=EDGE_CURVE('',#51,#42,#49,.F.) ;
#59=EDGE_CURVE('',#51,#58,#56,.F.) ;
#64=EDGE_CURVE('',#58,#44,#63,.F.) ;
#85=EDGE_CURVE('',#82,#84,#80,.T.) ;
#92=EDGE_CURVE('',#84,#91,#89,.F.) ;
#99=EDGE_CURVE('',#91,#98,#96,.F.) ;
#106=EDGE_CURVE('',#98,#105,#103,.T.) ;
#113=EDGE_CURVE('',#105,#112,#110,.T.) ;
#120=EDGE_CURVE('',#112,#119,#117,.F.) ;
#127=EDGE_CURVE('',#119,#126,#124,.F.) ;
#132=EDGE_CURVE('',#126,#82,#131,.F.) ;
#147=EDGE_CURVE('',#44,#58,#146,.T.) ;
#160=EDGE_CURVE('',#157,#159,#155,.T.) ;
#165=EDGE_CURVE('',#159,#157,#164,.T.) ;
#175=EDGE_CURVE('',#42,#51,#174,.F.) ;
#194=EDGE_CURVE('',#193,#82,#191,.T.) ;
#201=EDGE_CURVE('',#193,#200,#198,.T.) ;
#206=EDGE_CURVE('',#200,#84,#205,.T.) ;
#225=EDGE_CURVE('',#200,#224,#222,.F.) ;
#230=EDGE_CURVE('',#224,#91,#229,.T.) ;
#249=EDGE_CURVE('',#224,#248,#246,.F.) ;
#254=EDGE_CURVE('',#248,#98,#253,.T.) ;
#273=EDGE_CURVE('',#248,#272,#270,.T.) ;
#278=EDGE_CURVE('',#272,#105,#277,.T.) ;
#297=EDGE_CURVE('',#272,#296,#294,.T.) ;
#302=EDGE_CURVE('',#296,#112,#301,.T.) ;
#321=EDGE_CURVE('',#296,#320,#318,.F.) ;
#326=EDGE_CURVE('',#320,#119,#325,.T.) ;
#345=EDGE_CURVE('',#320,#344,#342,.F.) ;
#350=EDGE_CURVE('',#344,#126,#349,.T.) ;
#367=EDGE_CURVE('',#344,#193,#366,.F.) ;
#386=EDGE_CURVE('',#385,#157,#383,.F.) ;
#393=EDGE_CURVE('',#392,#385,#390,.F.) ;
#398=EDGE_CURVE('',#392,#159,#397,.F.) ;
#410=EDGE_CURVE('',#385,#392,#409,.F.) ;
#65=EDGE_LOOP('',(#66,#67,#68,#69)) ;
#133=EDGE_LOOP('',(#134,#135,#136,#137,#138,#139,#140,#141)) ;
#148=EDGE_LOOP('',(#149,#150)) ;
#166=EDGE_LOOP('',(#167,#168)) ;
#176=EDGE_LOOP('',(#177,#178,#179,#180)) ;
#207=EDGE_LOOP('',(#208,#209,#210,#211)) ;
#231=EDGE_LOOP('',(#232,#233,#234,#235)) ;
#255=EDGE_LOOP('',(#256,#257,#258,#259)) ;
#279=EDGE_LOOP('',(#280,#281,#282,#283)) ;
#303=EDGE_LOOP('',(#304,#305,#306,#307)) ;
#327=EDGE_LOOP('',(#328,#329,#330,#331)) ;
#351=EDGE_LOOP('',(#352,#353,#354,#355)) ;
#368=EDGE_LOOP('',(#369,#370,#371,#372)) ;
#399=EDGE_LOOP('',(#400,#401,#402,#403)) ;
#411=EDGE_LOOP('',(#412,#413,#414,#415)) ;
#423=EDGE_LOOP('',(#424,#425,#426,#427,#428,#429,#430,#431)) ;
#433=EDGE_LOOP('',(#434,#435)) ;
#437=EDGE_LOOP('',(#438,#439)) ;
#70=FACE_OUTER_BOUND('',#65,.T.) ;
#142=FACE_OUTER_BOUND('',#133,.T.) ;
#181=FACE_OUTER_BOUND('',#176,.T.) ;
#212=FACE_OUTER_BOUND('',#207,.T.) ;
#236=FACE_OUTER_BOUND('',#231,.T.) ;
#260=FACE_OUTER_BOUND('',#255,.T.) ;
#284=FACE_OUTER_BOUND('',#279,.T.) ;
#308=FACE_OUTER_BOUND('',#303,.T.) ;
#332=FACE_OUTER_BOUND('',#327,.T.) ;
#356=FACE_OUTER_BOUND('',#351,.T.) ;
#373=FACE_OUTER_BOUND('',#368,.T.) ;
#404=FACE_OUTER_BOUND('',#399,.T.) ;
#416=FACE_OUTER_BOUND('',#411,.T.) ;
#432=FACE_OUTER_BOUND('',#423,.T.) ;
#40=LINE('Line',#37,#39) ;
#56=LINE('Line',#53,#55) ;
#80=LINE('Line',#77,#79) ;
#89=LINE('Line',#86,#88) ;
#103=LINE('Line',#100,#102) ;
#110=LINE('Line',#107,#109) ;
#117=LINE('Line',#114,#116) ;
#131=LINE('Line',#128,#130) ;
#191=LINE('Line',#188,#190) ;
#198=LINE('Line',#195,#197) ;
#205=LINE('Line',#202,#204) ;
#222=LINE('Line',#219,#221) ;
#229=LINE('Line',#226,#228) ;
#253=LINE('Line',#250,#252) ;
#270=LINE('Line',#267,#269) ;
#277=LINE('Line',#274,#276) ;
#294=LINE('Line',#291,#293) ;
#301=LINE('Line',#298,#300) ;
#318=LINE('Line',#315,#317) ;
#325=LINE('Line',#322,#324) ;
#349=LINE('Line',#346,#348) ;
#366=LINE('Line',#363,#365) ;
#383=LINE('Line',#380,#382) ;
#397=LINE('Line',#394,#396) ;
#76=PLANE('',#75) ;
#187=PLANE('',#186) ;
#218=PLANE('',#217) ;
#266=PLANE('',#265) ;
#290=PLANE('',#289) ;
#314=PLANE('',#313) ;
#362=PLANE('',#361) ;
#422=PLANE('',#421) ;
#9=PRODUCT_CATEGORY_RELATIONSHIP(' ',' ',#7,#8) ;
#6=PRODUCT_DEFINITION_FORMATION_WITH_SPECIFIED_SOURCE('',' ',#5,.NOT_KNOWN.) ;
#20=SHAPE_DEFINITION_REPRESENTATION(#11,#19) ;
#42=VERTEX_POINT('',#41) ;
#44=VERTEX_POINT('',#43) ;
#51=VERTEX_POINT('',#50) ;
#58=VERTEX_POINT('',#57) ;
#82=VERTEX_POINT('',#81) ;
#84=VERTEX_POINT('',#83) ;
#91=VERTEX_POINT('',#90) ;
#98=VERTEX_POINT('',#97) ;
#105=VERTEX_POINT('',#104) ;
#112=VERTEX_POINT('',#111) ;
#119=VERTEX_POINT('',#118) ;
#126=VERTEX_POINT('',#125) ;
#157=VERTEX_POINT('',#156) ;
#159=VERTEX_POINT('',#158) ;
#193=VERTEX_POINT('',#192) ;
#200=VERTEX_POINT('',#199) ;
#224=VERTEX_POINT('',#223) ;
#248=VERTEX_POINT('',#247) ;
#272=VERTEX_POINT('',#271) ;
#296=VERTEX_POINT('',#295) ;
#320=VERTEX_POINT('',#319) ;
#344=VERTEX_POINT('',#343) ;
#385=VERTEX_POINT('',#384) ;
#392=VERTEX_POINT('',#391) ;
#12=(LENGTH_UNIT()NAMED_UNIT(*)SI_UNIT(.MILLI.,.METRE.)) ;
#13=(NAMED_UNIT(*)PLANE_ANGLE_UNIT()SI_UNIT($,.RADIAN.)) ;
#14=(NAMED_UNIT(*)SI_UNIT($,.STERADIAN.)SOLID_ANGLE_UNIT()) ;
#16=(GEOMETRIC_REPRESENTATION_CONTEXT(3)GLOBAL_UNCERTAINTY_ASSIGNED_CONTEXT((#15))GLOBAL_UNIT_ASSIGNED_CONTEXT((#12,#13,#14))REPRESENTATION_CONTEXT(' ',' ')) ;
ENDSEC;
END-ISO-10303-21;
