ISO-10303-21;
HEADER;
FILE_DESCRIPTION(('CATIA V5 STEP Exchange','CAx-IF Rec.Pracs.--- Model Styling and Organization---1.5--- 2016-08-15','CAx-IF Rec.Pracs.---Supplemental Geometry---1.0---2011-11-01','CAx-IF Rec.Pracs.--- Composite Materials ---1.1---2010-07-15'),'2;1');

FILE_NAME ('706731-2_1_2652460000_2652460000 CABTITE BP 25MM PA S3D.stp','2024-06-13T11:26:34+00:00',('none'),('Weidmueller'),'CATIA Version 5-6 Release 2022 SP4 HF5','CATIA V5 STEP AP214 v3','none');

FILE_SCHEMA(('AUTOMOTIVE_DESIGN { 1 0 10303 214 1 1 1 1 }'));

ENDSEC;
DATA;
#5=PRODUCT('2652460000 CABTITE BP 25MM PA S3D','2652460000_CABTITE BP 25MM PA','PART-2652460000_CABTITE BP 25MM PA-DESC',(#2)) ;
#2=PRODUCT_CONTEXT(' ',#1,'mechanical') ;
#1=APPLICATION_CONTEXT('automotive design') ;
#10=PRODUCT_DEFINITION('NONE',' ',#6,#3) ;
#3=PRODUCT_DEFINITION_CONTEXT('part definition',#1,' ') ;
#11=PRODUCT_DEFINITION_SHAPE(' ',' ',#10) ;
#523=MECHANICAL_DESIGN_GEOMETRIC_PRESENTATION_REPRESENTATION(' ',(#78,#142,#257,#282,#316,#350,#386,#399,#431,#449,#462,#475,#488,#496,#509,#520,#29),#16) ;
#19=SHAPE_REPRESENTATION(' ',(#18),#16) ;
#18=AXIS2_PLACEMENT_3D(' ',#17,$,$) ;
#34=AXIS2_PLACEMENT_3D('Plane Axis2P3D',#31,#32,#33) ;
#82=AXIS2_PLACEMENT_3D('Cylinder Axis2P3D',#79,#80,#81) ;
#95=AXIS2_PLACEMENT_3D('Circle Axis2P3D',#93,#94,$) ;
#109=AXIS2_PLACEMENT_3D('Circle Axis2P3D',#107,#108,$) ;
#114=AXIS2_PLACEMENT_3D('Circle Axis2P3D',#112,#113,$) ;
#128=AXIS2_PLACEMENT_3D('Circle Axis2P3D',#126,#127,$) ;
#146=AXIS2_PLACEMENT_3D('Plane Axis2P3D',#143,#144,#145) ;
#199=AXIS2_PLACEMENT_3D('Circle Axis2P3D',#197,#198,$) ;
#261=AXIS2_PLACEMENT_3D('Cylinder Axis2P3D',#258,#259,#260) ;
#272=AXIS2_PLACEMENT_3D('Circle Axis2P3D',#270,#271,$) ;
#286=AXIS2_PLACEMENT_3D('Plane Axis2P3D',#283,#284,#285) ;
#299=AXIS2_PLACEMENT_3D('Circle Axis2P3D',#297,#298,$) ;
#304=AXIS2_PLACEMENT_3D('Circle Axis2P3D',#302,#303,$) ;
#331=AXIS2_PLACEMENT_3D('Circle Axis2P3D',#329,#330,$) ;
#336=AXIS2_PLACEMENT_3D('Circle Axis2P3D',#334,#335,$) ;
#367=AXIS2_PLACEMENT_3D('Circle Axis2P3D',#365,#366,$) ;
#374=AXIS2_PLACEMENT_3D('Circle Axis2P3D',#372,#373,$) ;
#403=AXIS2_PLACEMENT_3D('Cone Axis2P3D',#400,#401,#402) ;
#414=AXIS2_PLACEMENT_3D('Circle Axis2P3D',#412,#413,$) ;
#435=AXIS2_PLACEMENT_3D('Cylinder Axis2P3D',#432,#433,#434) ;
#466=AXIS2_PLACEMENT_3D('Plane Axis2P3D',#463,#464,#465) ;
#499=AXIS2_PLACEMENT_3D('Circle Axis2P3D',#497,#498,$) ;
#513=AXIS2_PLACEMENT_3D('Plane Axis2P3D',#510,#511,#512) ;
#17=CARTESIAN_POINT(' ',(0.,0.,0.)) ;
#31=CARTESIAN_POINT('Axis2P3D Location',(0.75,11.25,25.)) ;
#36=CARTESIAN_POINT('Line Origine',(1.02346043289,11.25,27.5)) ;
#40=CARTESIAN_POINT('Vertex',(1.02346043289,11.25,30.)) ;
#42=CARTESIAN_POINT('Vertex',(1.02346043289,11.25,25.)) ;
#45=CARTESIAN_POINT('Line Origine',(0.886730216444,11.25,30.)) ;
#49=CARTESIAN_POINT('Vertex',(0.75,11.25,30.)) ;
#52=CARTESIAN_POINT('Line Origine',(0.75,11.25,27.5)) ;
#56=CARTESIAN_POINT('Vertex',(0.75,11.25,25.)) ;
#59=CARTESIAN_POINT('Line Origine',(0.886730216444,11.25,25.)) ;
#79=CARTESIAN_POINT('Axis2P3D Location',(13.,12.,7.1054273576E-15)) ;
#84=CARTESIAN_POINT('Line Origine',(25.,12.,0.)) ;
#88=CARTESIAN_POINT('Vertex',(25.,12.,25.)) ;
#90=CARTESIAN_POINT('Vertex',(25.,12.,5.)) ;
#93=CARTESIAN_POINT('Axis2P3D Location',(13.,12.,25.)) ;
#97=CARTESIAN_POINT('Vertex',(24.976539567,11.25,25.)) ;
#100=CARTESIAN_POINT('Line Origine',(24.976539567,11.25,0.)) ;
#104=CARTESIAN_POINT('Vertex',(24.976539567,11.25,30.)) ;
#107=CARTESIAN_POINT('Axis2P3D Location',(13.,12.,30.)) ;
#112=CARTESIAN_POINT('Axis2P3D Location',(13.,12.,25.)) ;
#116=CARTESIAN_POINT('Vertex',(1.,12.,25.)) ;
#119=CARTESIAN_POINT('Line Origine',(1.,12.,0.)) ;
#123=CARTESIAN_POINT('Vertex',(1.,12.,5.)) ;
#126=CARTESIAN_POINT('Axis2P3D Location',(13.,12.,5.)) ;
#143=CARTESIAN_POINT('Axis2P3D Location',(13.,12.,30.)) ;
#148=CARTESIAN_POINT('Line Origine',(25.1132697836,11.25,30.)) ;
#152=CARTESIAN_POINT('Vertex',(25.25,11.25,30.)) ;
#156=CARTESIAN_POINT('Control Point',(25.25,11.25,30.)) ;
#157=CARTESIAN_POINT('Control Point',(25.3348493569,11.25,30.)) ;
#158=CARTESIAN_POINT('Control Point',(25.4196978663,11.2619990237,30.)) ;
#159=CARTESIAN_POINT('Control Point',(25.5023078693,11.2860083184,30.)) ;
#160=CARTESIAN_POINT('Control Point',(25.6584346854,11.3567087588,30.)) ;
#161=CARTESIAN_POINT('Control Point',(25.7888325757,11.4679264503,30.)) ;
#162=CARTESIAN_POINT('Control Point',(25.8457041873,11.5324747048,30.)) ;
#163=CARTESIAN_POINT('Control Point',(25.929131925,11.6598437722,30.)) ;
#164=CARTESIAN_POINT('Control Point',(25.9782767983,11.8033246742,30.)) ;
#165=CARTESIAN_POINT('Control Point',(25.992758366,11.8681805,30.)) ;
#166=CARTESIAN_POINT('Control Point',(25.9999992225,11.9340903853,30.)) ;
#167=CARTESIAN_POINT('Control Point',(25.9999996889,12.,30.)) ;
#168=CARTESIAN_POINT('Vertex',(26.,12.,30.)) ;
#172=CARTESIAN_POINT('Control Point',(25.9999996889,12.,30.)) ;
#173=CARTESIAN_POINT('Control Point',(26.0000002897,12.0848500859,30.)) ;
#174=CARTESIAN_POINT('Control Point',(25.9880012267,12.1696985952,30.)) ;
#175=CARTESIAN_POINT('Control Point',(25.9639961792,12.2522903232,30.)) ;
#176=CARTESIAN_POINT('Control Point',(25.8932994454,12.408422371,30.)) ;
#177=CARTESIAN_POINT('Control Point',(25.7820843448,12.5388224906,30.)) ;
#178=CARTESIAN_POINT('Control Point',(25.7175506172,12.5956822736,30.)) ;
#179=CARTESIAN_POINT('Control Point',(25.6101163944,12.6660606131,30.)) ;
#180=CARTESIAN_POINT('Control Point',(25.4912185856,12.7120453939,30.)) ;
#181=CARTESIAN_POINT('Control Point',(25.4503407516,12.7246159241,30.)) ;
#182=CARTESIAN_POINT('Control Point',(25.3859597331,12.7394822841,30.)) ;
#183=CARTESIAN_POINT('Control Point',(25.3204538779,12.7472293715,30.)) ;
#184=CARTESIAN_POINT('Control Point',(25.2969416132,12.7490818588,30.)) ;
#185=CARTESIAN_POINT('Control Point',(25.2734708039,12.75,30.)) ;
#186=CARTESIAN_POINT('Control Point',(25.25,12.75,30.)) ;
#187=CARTESIAN_POINT('Vertex',(25.25,12.75,30.)) ;
#190=CARTESIAN_POINT('Line Origine',(25.1132697836,12.75,30.)) ;
#194=CARTESIAN_POINT('Vertex',(24.9765395671,12.75,30.)) ;
#197=CARTESIAN_POINT('Axis2P3D Location',(13.,11.9999999999,30.)) ;
#201=CARTESIAN_POINT('Vertex',(1.02346043289,12.75,30.)) ;
#204=CARTESIAN_POINT('Line Origine',(0.886730216444,12.75,30.)) ;
#208=CARTESIAN_POINT('Vertex',(0.75,12.75,30.)) ;
#212=CARTESIAN_POINT('Control Point',(0.75,12.75,30.)) ;
#213=CARTESIAN_POINT('Control Point',(0.665150643173,12.75,30.)) ;
#214=CARTESIAN_POINT('Control Point',(0.580302133832,12.7380009763,30.)) ;
#215=CARTESIAN_POINT('Control Point',(0.497692130478,12.7139916816,30.)) ;
#216=CARTESIAN_POINT('Control Point',(0.341565314581,12.6432912411,30.)) ;
#217=CARTESIAN_POINT('Control Point',(0.211167424292,12.5320735497,30.)) ;
#218=CARTESIAN_POINT('Control Point',(0.154295812595,12.4675252952,30.)) ;
#219=CARTESIAN_POINT('Control Point',(0.0708680749031,12.3401562277,30.)) ;
#220=CARTESIAN_POINT('Control Point',(0.0217232016571,12.1966753254,30.)) ;
#221=CARTESIAN_POINT('Control Point',(0.00724163402282,12.1318195004,30.)) ;
#222=CARTESIAN_POINT('Control Point',(7.77572623186E-07,12.0659096149,30.)) ;
#223=CARTESIAN_POINT('Control Point',(3.11061739922E-07,12.,30.)) ;
#224=CARTESIAN_POINT('Vertex',(1.05096531911E-33,12.,30.)) ;
#228=CARTESIAN_POINT('Control Point',(3.11061739922E-07,12.,30.)) ;
#229=CARTESIAN_POINT('Control Point',(-2.89510564864E-07,11.9151499124,30.)) ;
#230=CARTESIAN_POINT('Control Point',(0.011998772267,11.8303014013,30.)) ;
#231=CARTESIAN_POINT('Control Point',(0.0360038251286,11.7477096633,30.)) ;
#232=CARTESIAN_POINT('Control Point',(0.106700562306,11.5915776164,30.)) ;
#233=CARTESIAN_POINT('Control Point',(0.217915665925,11.461177499,30.)) ;
#234=CARTESIAN_POINT('Control Point',(0.282449398087,11.4043177141,30.)) ;
#235=CARTESIAN_POINT('Control Point',(0.389883621556,11.333939378,30.)) ;
#236=CARTESIAN_POINT('Control Point',(0.508781430239,11.2879546004,30.)) ;
#237=CARTESIAN_POINT('Control Point',(0.54965926467,11.2753840703,30.)) ;
#238=CARTESIAN_POINT('Control Point',(0.614040280231,11.2605177125,30.)) ;
#239=CARTESIAN_POINT('Control Point',(0.679546132158,11.2527706266,30.)) ;
#240=CARTESIAN_POINT('Control Point',(0.703058393618,11.2509181409,30.)) ;
#241=CARTESIAN_POINT('Control Point',(0.726529199508,11.25,30.)) ;
#242=CARTESIAN_POINT('Control Point',(0.75,11.25,30.)) ;
#258=CARTESIAN_POINT('Axis2P3D Location',(0.75,12.,25.)) ;
#263=CARTESIAN_POINT('Line Origine',(0.,12.,25.)) ;
#267=CARTESIAN_POINT('Vertex',(1.05096531911E-33,12.,25.)) ;
#270=CARTESIAN_POINT('Axis2P3D Location',(0.75,12.,25.)) ;
#283=CARTESIAN_POINT('Axis2P3D Location',(0.75,12.,25.)) ;
#288=CARTESIAN_POINT('Line Origine',(0.886730216444,12.75,25.)) ;
#292=CARTESIAN_POINT('Vertex',(1.02346043289,12.75,25.)) ;
#294=CARTESIAN_POINT('Vertex',(0.75,12.75,25.)) ;
#297=CARTESIAN_POINT('Axis2P3D Location',(13.0000005587,11.9999999843,25.)) ;
#302=CARTESIAN_POINT('Axis2P3D Location',(0.749999999191,12.0000000008,25.)) ;
#317=CARTESIAN_POINT('Line Origine',(1.023460433,12.75,0.)) ;
#322=CARTESIAN_POINT('Line Origine',(24.976539567,12.75,0.)) ;
#326=CARTESIAN_POINT('Vertex',(24.976539567,12.75,25.)) ;
#329=CARTESIAN_POINT('Axis2P3D Location',(13.,12.,25.)) ;
#334=CARTESIAN_POINT('Axis2P3D Location',(13.,12.,5.)) ;
#351=CARTESIAN_POINT('Line Origine',(25.1132697836,11.25,25.)) ;
#355=CARTESIAN_POINT('Vertex',(25.25,11.25,25.)) ;
#358=CARTESIAN_POINT('Line Origine',(25.1132697836,12.75,25.)) ;
#362=CARTESIAN_POINT('Vertex',(25.25,12.75,25.)) ;
#365=CARTESIAN_POINT('Axis2P3D Location',(25.2500000008,12.0000000008,25.)) ;
#369=CARTESIAN_POINT('Vertex',(26.,12.,25.)) ;
#372=CARTESIAN_POINT('Axis2P3D Location',(25.2500000008,11.9999999992,25.)) ;
#387=CARTESIAN_POINT('Line Origine',(25.25,11.25,27.5)) ;
#400=CARTESIAN_POINT('Axis2P3D Location',(13.,12.,5.)) ;
#405=CARTESIAN_POINT('Line Origine',(-868233.888337,12.0000000011,4924009.73737)) ;
#409=CARTESIAN_POINT('Vertex',(1.88163490357,12.,-1.56432200527E-10)) ;
#412=CARTESIAN_POINT('Axis2P3D Location',(13.,12.,1.5258017072E-11)) ;
#416=CARTESIAN_POINT('Vertex',(24.1183650965,12.,1.5258017072E-11)) ;
#419=CARTESIAN_POINT('Line Origine',(868259.888337,12.0000000008,4924009.73737)) ;
#432=CARTESIAN_POINT('Axis2P3D Location',(25.25,12.,25.)) ;
#437=CARTESIAN_POINT('Line Origine',(26.,12.,25.)) ;
#450=CARTESIAN_POINT('Line Origine',(25.25,12.75,25.)) ;
#463=CARTESIAN_POINT('Axis2P3D Location',(25.25,12.75,25.)) ;
#476=CARTESIAN_POINT('Line Origine',(0.75,12.75,27.5)) ;
#497=CARTESIAN_POINT('Axis2P3D Location',(13.,12.,1.5258017072E-11)) ;
#510=CARTESIAN_POINT('Axis2P3D Location',(13.,0.88163490354,1.06581410364E-14)) ;
#32=DIRECTION('Axis2P3D Direction',(-1.66533453694E-16,-1.,1.85083163418E-16)) ;
#33=DIRECTION('Axis2P3D XDirection',(1.,-1.66533453694E-16,1.73472347598E-17)) ;
#37=DIRECTION('Vector Direction',(0.,-3.5527136788E-16,-1.)) ;
#46=DIRECTION('Vector Direction',(1.,0.,0.)) ;
#53=DIRECTION('Vector Direction',(-2.22044604925E-17,3.5527136788E-16,1.)) ;
#60=DIRECTION('Vector Direction',(1.,0.,0.)) ;
#80=DIRECTION('Axis2P3D Direction',(-6.93889390391E-18,1.38777878078E-16,1.)) ;
#81=DIRECTION('Axis2P3D XDirection',(1.,-1.11022302462E-16,6.93889390391E-18)) ;
#85=DIRECTION('Vector Direction',(-6.93916035743E-18,1.38777878078E-16,1.)) ;
#94=DIRECTION('Axis2P3D Direction',(-6.93889390391E-18,1.38777878078E-16,1.)) ;
#101=DIRECTION('Vector Direction',(-6.93916035743E-18,1.38777878078E-16,1.)) ;
#108=DIRECTION('Axis2P3D Direction',(-6.93889390391E-18,1.38777878078E-16,1.)) ;
#113=DIRECTION('Axis2P3D Direction',(-6.93889390391E-18,1.38777878078E-16,1.)) ;
#120=DIRECTION('Vector Direction',(-6.93898272175E-18,1.38777878078E-16,1.)) ;
#127=DIRECTION('Axis2P3D Direction',(-6.93889390391E-18,1.38777878078E-16,1.)) ;
#144=DIRECTION('Axis2P3D Direction',(6.93889390391E-18,-1.38777878078E-16,-1.)) ;
#145=DIRECTION('Axis2P3D XDirection',(1.,-1.11022302463E-16,6.93889390391E-18)) ;
#149=DIRECTION('Vector Direction',(1.,0.,0.)) ;
#191=DIRECTION('Vector Direction',(-1.,0.,0.)) ;
#198=DIRECTION('Axis2P3D Direction',(6.93889390391E-18,-1.38777878078E-16,-1.)) ;
#205=DIRECTION('Vector Direction',(-1.,0.,0.)) ;
#259=DIRECTION('Axis2P3D Direction',(6.93889390391E-18,-1.38777878078E-16,-1.)) ;
#260=DIRECTION('Axis2P3D XDirection',(1.,1.14423774522E-17,6.93889390391E-18)) ;
#264=DIRECTION('Vector Direction',(6.93889390391E-18,-1.38777878078E-16,-1.)) ;
#271=DIRECTION('Axis2P3D Direction',(6.93889390391E-18,-1.38777878078E-16,-1.)) ;
#284=DIRECTION('Axis2P3D Direction',(-6.93889390391E-18,1.38777878078E-16,1.)) ;
#285=DIRECTION('Axis2P3D XDirection',(-1.,1.11022302463E-16,-6.93889390391E-18)) ;
#289=DIRECTION('Vector Direction',(-1.,0.,0.)) ;
#298=DIRECTION('Axis2P3D Direction',(-6.93889390391E-18,1.38777878078E-16,1.)) ;
#303=DIRECTION('Axis2P3D Direction',(-6.93889390391E-18,1.38777878078E-16,1.)) ;
#318=DIRECTION('Vector Direction',(-6.93898272175E-18,1.38777878078E-16,1.)) ;
#323=DIRECTION('Vector Direction',(-6.93916035743E-18,1.38777878078E-16,1.)) ;
#330=DIRECTION('Axis2P3D Direction',(-6.93889390391E-18,1.38777878078E-16,1.)) ;
#335=DIRECTION('Axis2P3D Direction',(-6.93889390391E-18,1.38777878078E-16,1.)) ;
#352=DIRECTION('Vector Direction',(1.,0.,0.)) ;
#359=DIRECTION('Vector Direction',(-1.,0.,0.)) ;
#366=DIRECTION('Axis2P3D Direction',(-6.93889390391E-18,1.38777878078E-16,1.)) ;
#373=DIRECTION('Axis2P3D Direction',(-6.93889390391E-18,1.38777878078E-16,1.)) ;
#388=DIRECTION('Vector Direction',(0.,3.5527136788E-16,1.)) ;
#401=DIRECTION('Axis2P3D Direction',(-1.19387540495E-16,2.09345265196E-16,1.)) ;
#402=DIRECTION('Axis2P3D XDirection',(-1.,1.24899866578E-16,0.)) ;
#406=DIRECTION('Vector Direction',(-0.173648177667,2.2785349356E-16,0.984807753012)) ;
#413=DIRECTION('Axis2P3D Direction',(2.61471956917E-32,2.09345265196E-16,1.)) ;
#420=DIRECTION('Vector Direction',(0.173648177667,1.63210538534E-16,0.984807753012)) ;
#433=DIRECTION('Axis2P3D Direction',(6.93889390391E-18,-1.38777878078E-16,-1.)) ;
#434=DIRECTION('Axis2P3D XDirection',(1.,1.14423774522E-17,6.93889390391E-18)) ;
#438=DIRECTION('Vector Direction',(6.93880508607E-18,-1.38777878078E-16,-1.)) ;
#451=DIRECTION('Vector Direction',(6.93880508607E-18,-1.38777878078E-16,-1.)) ;
#464=DIRECTION('Axis2P3D Direction',(1.66533453694E-16,1.,-1.85083163418E-16)) ;
#465=DIRECTION('Axis2P3D XDirection',(-1.,1.66533453694E-16,-1.73472347598E-17)) ;
#477=DIRECTION('Vector Direction',(-2.22044604925E-17,3.5527136788E-16,1.)) ;
#498=DIRECTION('Axis2P3D Direction',(2.61471956917E-32,2.09345265196E-16,1.)) ;
#511=DIRECTION('Axis2P3D Direction',(-6.93889390391E-18,1.38777878078E-16,1.)) ;
#512=DIRECTION('Axis2P3D XDirection',(-1.,1.11022302463E-16,-6.93889390391E-18)) ;
#8=PRODUCT_RELATED_PRODUCT_CATEGORY('part',$,(#5)) ;
#7=PRODUCT_CATEGORY('part','specification') ;
#29=STYLED_ITEM(' ',(#28),#21) ;
#28=PRESENTATION_STYLE_ASSIGNMENT((#27)) ;
#77=PRESENTATION_STYLE_ASSIGNMENT((#76)) ;
#27=SURFACE_STYLE_USAGE(.BOTH.,#26) ;
#76=SURFACE_STYLE_USAGE(.BOTH.,#75) ;
#26=SURFACE_SIDE_STYLE(' ',(#25)) ;
#75=SURFACE_SIDE_STYLE(' ',(#74)) ;
#25=SURFACE_STYLE_FILL_AREA(#24) ;
#74=SURFACE_STYLE_FILL_AREA(#73) ;
#24=FILL_AREA_STYLE(' ',(#23)) ;
#73=FILL_AREA_STYLE(' ',(#72)) ;
#23=FILL_AREA_STYLE_COLOUR(' ',#22) ;
#72=FILL_AREA_STYLE_COLOUR(' ',#71) ;
#38=VECTOR('Line Direction',#37,1.) ;
#47=VECTOR('Line Direction',#46,1.) ;
#54=VECTOR('Line Direction',#53,1.) ;
#61=VECTOR('Line Direction',#60,1.) ;
#86=VECTOR('Line Direction',#85,1.) ;
#102=VECTOR('Line Direction',#101,1.) ;
#121=VECTOR('Line Direction',#120,1.) ;
#150=VECTOR('Line Direction',#149,1.) ;
#192=VECTOR('Line Direction',#191,1.) ;
#206=VECTOR('Line Direction',#205,1.) ;
#265=VECTOR('Line Direction',#264,1.) ;
#290=VECTOR('Line Direction',#289,1.) ;
#319=VECTOR('Line Direction',#318,1.) ;
#324=VECTOR('Line Direction',#323,1.) ;
#353=VECTOR('Line Direction',#352,1.) ;
#360=VECTOR('Line Direction',#359,1.) ;
#389=VECTOR('Line Direction',#388,1.) ;
#407=VECTOR('Line Direction',#406,1.) ;
#421=VECTOR('Line Direction',#420,1.) ;
#439=VECTOR('Line Direction',#438,1.) ;
#452=VECTOR('Line Direction',#451,1.) ;
#478=VECTOR('Line Direction',#477,1.) ;
#15=UNCERTAINTY_MEASURE_WITH_UNIT(LENGTH_MEASURE(0.005),#12,'distance_accuracy_value','CONFUSED CURVE UNCERTAINTY') ;
#522=SHAPE_REPRESENTATION_RELATIONSHIP(' ',' ',#19,#521) ;
#65=ORIENTED_EDGE('',*,*,#44,.F.) ;
#66=ORIENTED_EDGE('',*,*,#51,.F.) ;
#67=ORIENTED_EDGE('',*,*,#58,.F.) ;
#68=ORIENTED_EDGE('',*,*,#63,.T.) ;
#132=ORIENTED_EDGE('',*,*,#92,.F.) ;
#133=ORIENTED_EDGE('',*,*,#99,.F.) ;
#134=ORIENTED_EDGE('',*,*,#106,.T.) ;
#135=ORIENTED_EDGE('',*,*,#111,.T.) ;
#136=ORIENTED_EDGE('',*,*,#44,.T.) ;
#137=ORIENTED_EDGE('',*,*,#118,.F.) ;
#138=ORIENTED_EDGE('',*,*,#125,.F.) ;
#139=ORIENTED_EDGE('',*,*,#130,.F.) ;
#245=ORIENTED_EDGE('',*,*,#111,.F.) ;
#246=ORIENTED_EDGE('',*,*,#154,.T.) ;
#247=ORIENTED_EDGE('',*,*,#170,.T.) ;
#248=ORIENTED_EDGE('',*,*,#189,.T.) ;
#249=ORIENTED_EDGE('',*,*,#196,.T.) ;
#250=ORIENTED_EDGE('',*,*,#203,.F.) ;
#251=ORIENTED_EDGE('',*,*,#210,.T.) ;
#252=ORIENTED_EDGE('',*,*,#226,.T.) ;
#253=ORIENTED_EDGE('',*,*,#243,.T.) ;
#254=ORIENTED_EDGE('',*,*,#51,.T.) ;
#276=ORIENTED_EDGE('',*,*,#269,.F.) ;
#277=ORIENTED_EDGE('',*,*,#274,.T.) ;
#278=ORIENTED_EDGE('',*,*,#58,.T.) ;
#279=ORIENTED_EDGE('',*,*,#243,.F.) ;
#308=ORIENTED_EDGE('',*,*,#296,.F.) ;
#309=ORIENTED_EDGE('',*,*,#301,.T.) ;
#310=ORIENTED_EDGE('',*,*,#118,.T.) ;
#311=ORIENTED_EDGE('',*,*,#63,.F.) ;
#312=ORIENTED_EDGE('',*,*,#274,.F.) ;
#313=ORIENTED_EDGE('',*,*,#306,.F.) ;
#340=ORIENTED_EDGE('',*,*,#125,.T.) ;
#341=ORIENTED_EDGE('',*,*,#301,.F.) ;
#342=ORIENTED_EDGE('',*,*,#321,.T.) ;
#343=ORIENTED_EDGE('',*,*,#203,.T.) ;
#344=ORIENTED_EDGE('',*,*,#328,.T.) ;
#345=ORIENTED_EDGE('',*,*,#333,.F.) ;
#346=ORIENTED_EDGE('',*,*,#92,.T.) ;
#347=ORIENTED_EDGE('',*,*,#338,.F.) ;
#378=ORIENTED_EDGE('',*,*,#357,.F.) ;
#379=ORIENTED_EDGE('',*,*,#99,.T.) ;
#380=ORIENTED_EDGE('',*,*,#333,.T.) ;
#381=ORIENTED_EDGE('',*,*,#364,.F.) ;
#382=ORIENTED_EDGE('',*,*,#371,.F.) ;
#383=ORIENTED_EDGE('',*,*,#376,.F.) ;
#393=ORIENTED_EDGE('',*,*,#106,.F.) ;
#394=ORIENTED_EDGE('',*,*,#357,.T.) ;
#395=ORIENTED_EDGE('',*,*,#391,.T.) ;
#396=ORIENTED_EDGE('',*,*,#154,.F.) ;
#425=ORIENTED_EDGE('',*,*,#411,.T.) ;
#426=ORIENTED_EDGE('',*,*,#418,.F.) ;
#427=ORIENTED_EDGE('',*,*,#423,.T.) ;
#428=ORIENTED_EDGE('',*,*,#130,.T.) ;
#443=ORIENTED_EDGE('',*,*,#441,.F.) ;
#444=ORIENTED_EDGE('',*,*,#170,.F.) ;
#445=ORIENTED_EDGE('',*,*,#391,.F.) ;
#446=ORIENTED_EDGE('',*,*,#376,.T.) ;
#456=ORIENTED_EDGE('',*,*,#441,.T.) ;
#457=ORIENTED_EDGE('',*,*,#371,.T.) ;
#458=ORIENTED_EDGE('',*,*,#454,.T.) ;
#459=ORIENTED_EDGE('',*,*,#189,.F.) ;
#469=ORIENTED_EDGE('',*,*,#328,.F.) ;
#470=ORIENTED_EDGE('',*,*,#196,.F.) ;
#471=ORIENTED_EDGE('',*,*,#454,.F.) ;
#472=ORIENTED_EDGE('',*,*,#364,.T.) ;
#482=ORIENTED_EDGE('',*,*,#321,.F.) ;
#483=ORIENTED_EDGE('',*,*,#296,.T.) ;
#484=ORIENTED_EDGE('',*,*,#480,.T.) ;
#485=ORIENTED_EDGE('',*,*,#210,.F.) ;
#490=ORIENTED_EDGE('',*,*,#269,.T.) ;
#491=ORIENTED_EDGE('',*,*,#226,.F.) ;
#492=ORIENTED_EDGE('',*,*,#480,.F.) ;
#493=ORIENTED_EDGE('',*,*,#306,.T.) ;
#503=ORIENTED_EDGE('',*,*,#423,.F.) ;
#504=ORIENTED_EDGE('',*,*,#501,.F.) ;
#505=ORIENTED_EDGE('',*,*,#411,.F.) ;
#506=ORIENTED_EDGE('',*,*,#338,.T.) ;
#516=ORIENTED_EDGE('',*,*,#418,.T.) ;
#517=ORIENTED_EDGE('',*,*,#501,.T.) ;
#30=CLOSED_SHELL('Closed Shell',(#70,#141,#256,#281,#315,#349,#385,#398,#430,#448,#461,#474,#487,#495,#508,#519)) ;
#521=ADVANCED_BREP_SHAPE_REPRESENTATION('NONE',(#21),#16) ;
#70=ADVANCED_FACE('2652460000_CABTITE BP 25MM PA',(#69),#35,.T.) ;
#141=ADVANCED_FACE('2652460000_CABTITE BP 25MM PA',(#140),#83,.T.) ;
#256=ADVANCED_FACE('2652460000_CABTITE BP 25MM PA',(#255),#147,.F.) ;
#281=ADVANCED_FACE('2652460000_CABTITE BP 25MM PA',(#280),#262,.T.) ;
#315=ADVANCED_FACE('2652460000_CABTITE BP 25MM PA',(#314),#287,.F.) ;
#349=ADVANCED_FACE('2652460000_CABTITE BP 25MM PA',(#348),#83,.T.) ;
#385=ADVANCED_FACE('2652460000_CABTITE BP 25MM PA',(#384),#287,.F.) ;
#398=ADVANCED_FACE('2652460000_CABTITE BP 25MM PA',(#397),#35,.T.) ;
#430=ADVANCED_FACE('2652460000_CABTITE BP 25MM PA',(#429),#404,.T.) ;
#448=ADVANCED_FACE('2652460000_CABTITE BP 25MM PA',(#447),#436,.T.) ;
#461=ADVANCED_FACE('2652460000_CABTITE BP 25MM PA',(#460),#436,.T.) ;
#474=ADVANCED_FACE('2652460000_CABTITE BP 25MM PA',(#473),#467,.T.) ;
#487=ADVANCED_FACE('2652460000_CABTITE BP 25MM PA',(#486),#467,.T.) ;
#495=ADVANCED_FACE('2652460000_CABTITE BP 25MM PA',(#494),#262,.T.) ;
#508=ADVANCED_FACE('2652460000_CABTITE BP 25MM PA',(#507),#404,.T.) ;
#519=ADVANCED_FACE('2652460000_CABTITE BP 25MM PA',(#518),#514,.F.) ;
#4=APPLICATION_PROTOCOL_DEFINITION('international standard','automotive_design',2001,#1) ;
#155=B_SPLINE_CURVE_WITH_KNOTS('',5,(#156,#157,#158,#159,#160,#161,#162,#163,#164,#165,#166,#167),.UNSPECIFIED.,.F.,.U.,(6,3,3,6),(0.,0.601770073545,1.20354014837,1.67098123309),.UNSPECIFIED.) ;
#171=B_SPLINE_CURVE_WITH_KNOTS('',5,(#172,#173,#174,#175,#176,#177,#178,#179,#180,#181,#182,#183,#184,#185,#186),.UNSPECIFIED.,.F.,.U.,(6,3,3,3,6),(0.,0.601681964694,1.2033639584,1.50343030243,1.66986604387),.UNSPECIFIED.) ;
#211=B_SPLINE_CURVE_WITH_KNOTS('',5,(#212,#213,#214,#215,#216,#217,#218,#219,#220,#221,#222,#223),.UNSPECIFIED.,.F.,.U.,(6,3,3,6),(0.,0.601770073023,1.20354014784,1.67098123377),.UNSPECIFIED.) ;
#227=B_SPLINE_CURVE_WITH_KNOTS('',5,(#228,#229,#230,#231,#232,#233,#234,#235,#236,#237,#238,#239,#240,#241,#242),.UNSPECIFIED.,.F.,.U.,(6,3,3,3,6),(0.,0.601681977185,1.20336396133,1.50343030582,1.669866023),.UNSPECIFIED.) ;
#21=MANIFOLD_SOLID_BREP('2652460000_CABTITE BP 25MM PA',#30) ;
#96=CIRCLE('generated circle',#95,12.) ;
#110=CIRCLE('generated circle',#109,12.) ;
#115=CIRCLE('generated circle',#114,12.) ;
#129=CIRCLE('generated circle',#128,12.) ;
#200=CIRCLE('generated circle',#199,12.0000000001) ;
#273=CIRCLE('generated circle',#272,0.75) ;
#300=CIRCLE('generated circle',#299,12.0000005587) ;
#305=CIRCLE('generated circle',#304,0.749999999191) ;
#332=CIRCLE('generated circle',#331,12.) ;
#337=CIRCLE('generated circle',#336,12.) ;
#368=CIRCLE('generated circle',#367,0.749999999191) ;
#375=CIRCLE('generated circle',#374,0.749999999191) ;
#415=CIRCLE('generated circle',#414,11.1183650965) ;
#500=CIRCLE('generated circle',#499,11.1183650965) ;
#22=COLOUR_RGB('Colour',0.823529411765,0.823529411765,1.) ;
#404=CONICAL_SURFACE('Cone',#403,12.,0.1745329252) ;
#78=OVER_RIDING_STYLED_ITEM(' ',(#77),#70,#29) ;
#142=OVER_RIDING_STYLED_ITEM(' ',(#77),#141,#29) ;
#257=OVER_RIDING_STYLED_ITEM(' ',(#77),#256,#29) ;
#282=OVER_RIDING_STYLED_ITEM(' ',(#77),#281,#29) ;
#316=OVER_RIDING_STYLED_ITEM(' ',(#77),#315,#29) ;
#350=OVER_RIDING_STYLED_ITEM(' ',(#77),#349,#29) ;
#386=OVER_RIDING_STYLED_ITEM(' ',(#77),#385,#29) ;
#399=OVER_RIDING_STYLED_ITEM(' ',(#77),#398,#29) ;
#431=OVER_RIDING_STYLED_ITEM(' ',(#77),#430,#29) ;
#449=OVER_RIDING_STYLED_ITEM(' ',(#77),#448,#29) ;
#462=OVER_RIDING_STYLED_ITEM(' ',(#77),#461,#29) ;
#475=OVER_RIDING_STYLED_ITEM(' ',(#77),#474,#29) ;
#488=OVER_RIDING_STYLED_ITEM(' ',(#77),#487,#29) ;
#496=OVER_RIDING_STYLED_ITEM(' ',(#77),#495,#29) ;
#509=OVER_RIDING_STYLED_ITEM(' ',(#77),#508,#29) ;
#520=OVER_RIDING_STYLED_ITEM(' ',(#77),#519,#29) ;
#83=CYLINDRICAL_SURFACE('generated cylinder',#82,12.) ;
#262=CYLINDRICAL_SURFACE('generated cylinder',#261,0.75) ;
#436=CYLINDRICAL_SURFACE('generated cylinder',#435,0.75) ;
#71=DRAUGHTING_PRE_DEFINED_COLOUR('red') ;
#44=EDGE_CURVE('',#41,#43,#39,.T.) ;
#51=EDGE_CURVE('',#50,#41,#48,.T.) ;
#58=EDGE_CURVE('',#57,#50,#55,.T.) ;
#63=EDGE_CURVE('',#57,#43,#62,.T.) ;
#92=EDGE_CURVE('',#89,#91,#87,.F.) ;
#99=EDGE_CURVE('',#98,#89,#96,.T.) ;
#106=EDGE_CURVE('',#98,#105,#103,.T.) ;
#111=EDGE_CURVE('',#105,#41,#110,.F.) ;
#118=EDGE_CURVE('',#117,#43,#115,.T.) ;
#125=EDGE_CURVE('',#124,#117,#122,.T.) ;
#130=EDGE_CURVE('',#91,#124,#129,.F.) ;
#154=EDGE_CURVE('',#105,#153,#151,.T.) ;
#170=EDGE_CURVE('',#153,#169,#155,.T.) ;
#189=EDGE_CURVE('',#169,#188,#171,.T.) ;
#196=EDGE_CURVE('',#188,#195,#193,.T.) ;
#203=EDGE_CURVE('',#202,#195,#200,.T.) ;
#210=EDGE_CURVE('',#202,#209,#207,.T.) ;
#226=EDGE_CURVE('',#209,#225,#211,.T.) ;
#243=EDGE_CURVE('',#225,#50,#227,.T.) ;
#269=EDGE_CURVE('',#268,#225,#266,.F.) ;
#274=EDGE_CURVE('',#268,#57,#273,.F.) ;
#296=EDGE_CURVE('',#293,#295,#291,.T.) ;
#301=EDGE_CURVE('',#293,#117,#300,.T.) ;
#306=EDGE_CURVE('',#295,#268,#305,.T.) ;
#321=EDGE_CURVE('',#293,#202,#320,.T.) ;
#328=EDGE_CURVE('',#195,#327,#325,.F.) ;
#333=EDGE_CURVE('',#89,#327,#332,.T.) ;
#338=EDGE_CURVE('',#124,#91,#337,.F.) ;
#357=EDGE_CURVE('',#98,#356,#354,.T.) ;
#364=EDGE_CURVE('',#363,#327,#361,.T.) ;
#371=EDGE_CURVE('',#370,#363,#368,.T.) ;
#376=EDGE_CURVE('',#356,#370,#375,.T.) ;
#391=EDGE_CURVE('',#356,#153,#390,.T.) ;
#411=EDGE_CURVE('',#124,#410,#408,.F.) ;
#418=EDGE_CURVE('',#417,#410,#415,.F.) ;
#423=EDGE_CURVE('',#417,#91,#422,.T.) ;
#441=EDGE_CURVE('',#169,#370,#440,.T.) ;
#454=EDGE_CURVE('',#363,#188,#453,.F.) ;
#480=EDGE_CURVE('',#295,#209,#479,.T.) ;
#501=EDGE_CURVE('',#410,#417,#500,.F.) ;
#64=EDGE_LOOP('',(#65,#66,#67,#68)) ;
#131=EDGE_LOOP('',(#132,#133,#134,#135,#136,#137,#138,#139)) ;
#244=EDGE_LOOP('',(#245,#246,#247,#248,#249,#250,#251,#252,#253,#254)) ;
#275=EDGE_LOOP('',(#276,#277,#278,#279)) ;
#307=EDGE_LOOP('',(#308,#309,#310,#311,#312,#313)) ;
#339=EDGE_LOOP('',(#340,#341,#342,#343,#344,#345,#346,#347)) ;
#377=EDGE_LOOP('',(#378,#379,#380,#381,#382,#383)) ;
#392=EDGE_LOOP('',(#393,#394,#395,#396)) ;
#424=EDGE_LOOP('',(#425,#426,#427,#428)) ;
#442=EDGE_LOOP('',(#443,#444,#445,#446)) ;
#455=EDGE_LOOP('',(#456,#457,#458,#459)) ;
#468=EDGE_LOOP('',(#469,#470,#471,#472)) ;
#481=EDGE_LOOP('',(#482,#483,#484,#485)) ;
#489=EDGE_LOOP('',(#490,#491,#492,#493)) ;
#502=EDGE_LOOP('',(#503,#504,#505,#506)) ;
#515=EDGE_LOOP('',(#516,#517)) ;
#69=FACE_OUTER_BOUND('',#64,.T.) ;
#140=FACE_OUTER_BOUND('',#131,.T.) ;
#255=FACE_OUTER_BOUND('',#244,.T.) ;
#280=FACE_OUTER_BOUND('',#275,.T.) ;
#314=FACE_OUTER_BOUND('',#307,.T.) ;
#348=FACE_OUTER_BOUND('',#339,.T.) ;
#384=FACE_OUTER_BOUND('',#377,.T.) ;
#397=FACE_OUTER_BOUND('',#392,.T.) ;
#429=FACE_OUTER_BOUND('',#424,.T.) ;
#447=FACE_OUTER_BOUND('',#442,.T.) ;
#460=FACE_OUTER_BOUND('',#455,.T.) ;
#473=FACE_OUTER_BOUND('',#468,.T.) ;
#486=FACE_OUTER_BOUND('',#481,.T.) ;
#494=FACE_OUTER_BOUND('',#489,.T.) ;
#507=FACE_OUTER_BOUND('',#502,.T.) ;
#518=FACE_OUTER_BOUND('',#515,.T.) ;
#39=LINE('Line',#36,#38) ;
#48=LINE('Line',#45,#47) ;
#55=LINE('Line',#52,#54) ;
#62=LINE('Line',#59,#61) ;
#87=LINE('Line',#84,#86) ;
#103=LINE('Line',#100,#102) ;
#122=LINE('Line',#119,#121) ;
#151=LINE('Line',#148,#150) ;
#193=LINE('Line',#190,#192) ;
#207=LINE('Line',#204,#206) ;
#266=LINE('Line',#263,#265) ;
#291=LINE('Line',#288,#290) ;
#320=LINE('Line',#317,#319) ;
#325=LINE('Line',#322,#324) ;
#354=LINE('Line',#351,#353) ;
#361=LINE('Line',#358,#360) ;
#390=LINE('Line',#387,#389) ;
#408=LINE('Line',#405,#407) ;
#422=LINE('Line',#419,#421) ;
#440=LINE('Line',#437,#439) ;
#453=LINE('Line',#450,#452) ;
#479=LINE('Line',#476,#478) ;
#35=PLANE('',#34) ;
#147=PLANE('',#146) ;
#287=PLANE('',#286) ;
#467=PLANE('',#466) ;
#514=PLANE('',#513) ;
#9=PRODUCT_CATEGORY_RELATIONSHIP(' ',' ',#7,#8) ;
#6=PRODUCT_DEFINITION_FORMATION_WITH_SPECIFIED_SOURCE(' ',' ',#5,.NOT_KNOWN.) ;
#20=SHAPE_DEFINITION_REPRESENTATION(#11,#19) ;
#41=VERTEX_POINT('',#40) ;
#43=VERTEX_POINT('',#42) ;
#50=VERTEX_POINT('',#49) ;
#57=VERTEX_POINT('',#56) ;
#89=VERTEX_POINT('',#88) ;
#91=VERTEX_POINT('',#90) ;
#98=VERTEX_POINT('',#97) ;
#105=VERTEX_POINT('',#104) ;
#117=VERTEX_POINT('',#116) ;
#124=VERTEX_POINT('',#123) ;
#153=VERTEX_POINT('',#152) ;
#169=VERTEX_POINT('',#168) ;
#188=VERTEX_POINT('',#187) ;
#195=VERTEX_POINT('',#194) ;
#202=VERTEX_POINT('',#201) ;
#209=VERTEX_POINT('',#208) ;
#225=VERTEX_POINT('',#224) ;
#268=VERTEX_POINT('',#267) ;
#293=VERTEX_POINT('',#292) ;
#295=VERTEX_POINT('',#294) ;
#327=VERTEX_POINT('',#326) ;
#356=VERTEX_POINT('',#355) ;
#363=VERTEX_POINT('',#362) ;
#370=VERTEX_POINT('',#369) ;
#410=VERTEX_POINT('',#409) ;
#417=VERTEX_POINT('',#416) ;
#12=(LENGTH_UNIT()NAMED_UNIT(*)SI_UNIT(.MILLI.,.METRE.)) ;
#13=(NAMED_UNIT(*)PLANE_ANGLE_UNIT()SI_UNIT($,.RADIAN.)) ;
#14=(NAMED_UNIT(*)SI_UNIT($,.STERADIAN.)SOLID_ANGLE_UNIT()) ;
#16=(GEOMETRIC_REPRESENTATION_CONTEXT(3)GLOBAL_UNCERTAINTY_ASSIGNED_CONTEXT((#15))GLOBAL_UNIT_ASSIGNED_CONTEXT((#12,#13,#14))REPRESENTATION_CONTEXT(' ',' ')) ;
ENDSEC;
END-ISO-10303-21;
