ISO-10303-21;
HEADER;
FILE_DESCRIPTION(('CATIA V5 STEP Exchange','CAx-IF Rec.Pracs.--- Model Styling and Organization---1.4--- 2014-01-23'),'2;1');

FILE_NAME ('001200-1_3', '2023-02-24T11:42:00+00:00', ('none'), ('Weidmueller'), 'CATIA Version 5-6 Release 2016 SP3 HF44', 'CATIA V5 STEP AP214', 'none');

FILE_SCHEMA(('AUTOMOTIVE_DESIGN { 1 0 10303 214 1 1 1 1 }'));

ENDSEC;
DATA;
#5=PRODUCT('0212700000','','',(#2)) ;
#2=PRODUCT_CONTEXT(' ',#1,'mechanical') ;
#1=APPLICATION_CONTEXT('automotive design') ;
#10=PRODUCT_DEFINITION('',' ',#6,#3) ;
#3=PRODUCT_DEFINITION_CONTEXT('part definition',#1,' ') ;
#11=PRODUCT_DEFINITION_SHAPE(' ',' ',#10) ;
#502=MECHANICAL_DESIGN_GEOMETRIC_PRESENTATION_REPRESENTATION(' ',(#29,#322,#407),#16) ;
#503=MECHANICAL_DESIGN_GEOMETRIC_PRESENTATION_REPRESENTATION(' ',(#499),#16) ;
#19=SHAPE_REPRESENTATION(' ',(#18),#16) ;
#18=AXIS2_PLACEMENT_3D(' ',#17,$,$) ;
#35=AXIS2_PLACEMENT_3D('Plane Axis2P3D',#32,#33,#34) ;
#75=AXIS2_PLACEMENT_3D('Cylinder Axis2P3D',#72,#73,#74) ;
#124=AXIS2_PLACEMENT_3D('Cylinder Axis2P3D',#121,#122,#123) ;
#157=AXIS2_PLACEMENT_3D('Cylinder Axis2P3D',#154,#155,#156) ;
#190=AXIS2_PLACEMENT_3D('Cylinder Axis2P3D',#187,#188,#189) ;
#207=AXIS2_PLACEMENT_3D('Plane Axis2P3D',#204,#205,#206) ;
#238=AXIS2_PLACEMENT_3D('Plane Axis2P3D',#235,#236,#237) ;
#262=AXIS2_PLACEMENT_3D('Plane Axis2P3D',#259,#260,#261) ;
#286=AXIS2_PLACEMENT_3D('Plane Axis2P3D',#283,#284,#285) ;
#303=AXIS2_PLACEMENT_3D('Plane Axis2P3D',#300,#301,#302) ;
#327=AXIS2_PLACEMENT_3D('Cylinder Axis2P3D',#324,#325,#326) ;
#340=AXIS2_PLACEMENT_3D('Circle Axis2P3D',#338,#339,$) ;
#354=AXIS2_PLACEMENT_3D('Circle Axis2P3D',#352,#353,$) ;
#367=AXIS2_PLACEMENT_3D('Cylinder Axis2P3D',#364,#365,#366) ;
#371=AXIS2_PLACEMENT_3D('Circle Axis2P3D',#369,#370,$) ;
#376=AXIS2_PLACEMENT_3D('Circle Axis2P3D',#374,#375,$) ;
#389=AXIS2_PLACEMENT_3D('Plane Axis2P3D',#386,#387,#388) ;
#399=AXIS2_PLACEMENT_3D('Plane Axis2P3D',#396,#397,#398) ;
#412=AXIS2_PLACEMENT_3D('Cylinder Axis2P3D',#409,#410,#411) ;
#425=AXIS2_PLACEMENT_3D('Circle Axis2P3D',#423,#424,$) ;
#439=AXIS2_PLACEMENT_3D('Circle Axis2P3D',#437,#438,$) ;
#452=AXIS2_PLACEMENT_3D('Cylinder Axis2P3D',#449,#450,#451) ;
#456=AXIS2_PLACEMENT_3D('Circle Axis2P3D',#454,#455,$) ;
#461=AXIS2_PLACEMENT_3D('Circle Axis2P3D',#459,#460,$) ;
#474=AXIS2_PLACEMENT_3D('Plane Axis2P3D',#471,#472,#473) ;
#484=AXIS2_PLACEMENT_3D('Plane Axis2P3D',#481,#482,#483) ;
#494=AXIS2_PLACEMENT_3D('Achsensystem.1',#491,#492,#493) ;
#17=CARTESIAN_POINT(' ',(0.,0.,0.)) ;
#32=CARTESIAN_POINT('Axis2P3D Location',(20.3022155762,4.25,37.5)) ;
#37=CARTESIAN_POINT('Line Origine',(3.,4.25,37.5)) ;
#41=CARTESIAN_POINT('Vertex',(3.,3.,37.5)) ;
#43=CARTESIAN_POINT('Vertex',(3.,5.5,37.5)) ;
#46=CARTESIAN_POINT('Line Origine',(6.25,3.,37.5)) ;
#50=CARTESIAN_POINT('Vertex',(9.5,3.,37.5)) ;
#53=CARTESIAN_POINT('Line Origine',(9.5,4.25,37.5)) ;
#57=CARTESIAN_POINT('Vertex',(9.5,5.5,37.5)) ;
#60=CARTESIAN_POINT('Line Origine',(6.25,5.5,37.5)) ;
#72=CARTESIAN_POINT('Axis2P3D Location',(6.25,5.5,34.5)) ;
#78=CARTESIAN_POINT('Control Point',(9.5,5.5,37.5)) ;
#79=CARTESIAN_POINT('Control Point',(9.87101203486,5.87101182434,37.5)) ;
#80=CARTESIAN_POINT('Control Point',(10.242003306,6.24206319538,37.4426459276)) ;
#81=CARTESIAN_POINT('Control Point',(10.6056268022,6.60562753904,37.3285542306)) ;
#82=CARTESIAN_POINT('Control Point',(11.2608007874,7.26080015972,37.0031251147)) ;
#83=CARTESIAN_POINT('Control Point',(11.8293131259,7.82931366067,36.4441704568)) ;
#84=CARTESIAN_POINT('Control Point',(12.0684054544,8.06840612056,36.1291510459)) ;
#85=CARTESIAN_POINT('Control Point',(12.331494276,8.33149401779,35.6119313442)) ;
#86=CARTESIAN_POINT('Control Point',(12.4624678479,8.46246794799,35.0172981724)) ;
#87=CARTESIAN_POINT('Control Point',(12.4874899664,8.48748996643,34.8465490154)) ;
#88=CARTESIAN_POINT('Control Point',(12.5,8.5,34.6732745814)) ;
#89=CARTESIAN_POINT('Control Point',(12.5,8.5,34.5)) ;
#90=CARTESIAN_POINT('Vertex',(12.5,8.5,34.5)) ;
#93=CARTESIAN_POINT('Line Origine',(6.25,8.5,34.5)) ;
#97=CARTESIAN_POINT('Vertex',(1.7763568394E-015,8.5,34.5)) ;
#101=CARTESIAN_POINT('Control Point',(3.,5.5,37.5)) ;
#102=CARTESIAN_POINT('Control Point',(2.6289880291,5.8710118387,37.5)) ;
#103=CARTESIAN_POINT('Control Point',(2.25797859572,6.24205755341,37.4426459231)) ;
#104=CARTESIAN_POINT('Control Point',(1.89437319783,6.60562753903,37.3285542306)) ;
#105=CARTESIAN_POINT('Control Point',(1.23919921258,7.26080015971,37.0031251147)) ;
#106=CARTESIAN_POINT('Control Point',(0.670686874059,7.82931366067,36.4441704568)) ;
#107=CARTESIAN_POINT('Control Point',(0.431594545556,8.06840612056,36.1291510459)) ;
#108=CARTESIAN_POINT('Control Point',(0.168505723979,8.33149401779,35.6119313442)) ;
#109=CARTESIAN_POINT('Control Point',(0.0375321521198,8.46246794799,35.0172981724)) ;
#110=CARTESIAN_POINT('Control Point',(0.0125100335609,8.48748996643,34.8465490154)) ;
#111=CARTESIAN_POINT('Control Point',(-2.91079196668E-017,8.5,34.6732745814)) ;
#112=CARTESIAN_POINT('Control Point',(0.,8.5,34.5)) ;
#121=CARTESIAN_POINT('Axis2P3D Location',(3.,4.25,34.5)) ;
#126=CARTESIAN_POINT('Line Origine',(-4.4408920985E-016,4.25,34.5)) ;
#130=CARTESIAN_POINT('Vertex',(0.,0.,34.5)) ;
#134=CARTESIAN_POINT('Control Point',(3.,3.,37.5)) ;
#135=CARTESIAN_POINT('Control Point',(2.62898804226,2.62898794603,37.5)) ;
#136=CARTESIAN_POINT('Control Point',(2.25797466841,2.25800443729,37.4426458863)) ;
#137=CARTESIAN_POINT('Control Point',(1.89437246097,1.89437319782,37.3285542306)) ;
#138=CARTESIAN_POINT('Control Point',(1.23919984029,1.23919921258,37.0031251147)) ;
#139=CARTESIAN_POINT('Control Point',(0.670686339332,0.670686874059,36.4441704568)) ;
#140=CARTESIAN_POINT('Control Point',(0.431593879438,0.431594545551,36.1291510459)) ;
#141=CARTESIAN_POINT('Control Point',(0.168505982207,0.168505723979,35.6119313442)) ;
#142=CARTESIAN_POINT('Control Point',(0.0375320520141,0.0375321521197,35.0172981724)) ;
#143=CARTESIAN_POINT('Control Point',(0.0125100335653,0.0125100335605,34.8465490154)) ;
#144=CARTESIAN_POINT('Control Point',(-4.61707984296E-016,2.71838589278E-019,34.6732745814)) ;
#145=CARTESIAN_POINT('Control Point',(-4.47558656802E-016,-3.46944695195E-018,34.5)) ;
#154=CARTESIAN_POINT('Axis2P3D Location',(6.25,3.,34.5)) ;
#159=CARTESIAN_POINT('Line Origine',(6.25,-4.4408920985E-016,34.5)) ;
#163=CARTESIAN_POINT('Vertex',(12.5,0.,34.5)) ;
#167=CARTESIAN_POINT('Control Point',(9.5,3.,37.5)) ;
#168=CARTESIAN_POINT('Control Point',(9.87101196422,2.62898804717,37.5)) ;
#169=CARTESIAN_POINT('Control Point',(10.2420232456,2.25797545935,37.4426458879)) ;
#170=CARTESIAN_POINT('Control Point',(10.6056268022,1.89437246097,37.3285542306)) ;
#171=CARTESIAN_POINT('Control Point',(11.2608007874,1.23919984029,37.0031251147)) ;
#172=CARTESIAN_POINT('Control Point',(11.8293131259,0.670686339329,36.4441704568)) ;
#173=CARTESIAN_POINT('Control Point',(12.0684054544,0.431593879438,36.1291510459)) ;
#174=CARTESIAN_POINT('Control Point',(12.331494276,0.168505982207,35.6119313442)) ;
#175=CARTESIAN_POINT('Control Point',(12.4624678479,0.0375320520142,35.0172981724)) ;
#176=CARTESIAN_POINT('Control Point',(12.4874899664,0.0125100335652,34.8465490154)) ;
#177=CARTESIAN_POINT('Control Point',(12.5,-4.69741934797E-016,34.6732745814)) ;
#178=CARTESIAN_POINT('Control Point',(12.5,-4.4408920985E-016,34.5)) ;
#187=CARTESIAN_POINT('Axis2P3D Location',(9.5,4.25,34.5)) ;
#192=CARTESIAN_POINT('Line Origine',(12.5,4.25,34.5)) ;
#204=CARTESIAN_POINT('Axis2P3D Location',(12.5,8.5,15.)) ;
#209=CARTESIAN_POINT('Line Origine',(12.5,8.5,26.25)) ;
#213=CARTESIAN_POINT('Vertex',(12.5,8.5,15.)) ;
#216=CARTESIAN_POINT('Line Origine',(6.25,8.5,15.)) ;
#220=CARTESIAN_POINT('Vertex',(0.,8.5,15.)) ;
#223=CARTESIAN_POINT('Line Origine',(0.,8.5,26.25)) ;
#235=CARTESIAN_POINT('Axis2P3D Location',(0.,7.75,15.)) ;
#240=CARTESIAN_POINT('Line Origine',(0.,4.25,15.)) ;
#244=CARTESIAN_POINT('Vertex',(0.,0.,15.)) ;
#247=CARTESIAN_POINT('Line Origine',(0.,0.,24.75)) ;
#259=CARTESIAN_POINT('Axis2P3D Location',(0.,0.,15.)) ;
#264=CARTESIAN_POINT('Line Origine',(6.25,0.,15.)) ;
#268=CARTESIAN_POINT('Vertex',(12.5,0.,15.)) ;
#271=CARTESIAN_POINT('Line Origine',(12.5,0.,26.25)) ;
#283=CARTESIAN_POINT('Axis2P3D Location',(12.5,0.75,15.)) ;
#288=CARTESIAN_POINT('Line Origine',(12.5,4.25,15.)) ;
#300=CARTESIAN_POINT('Axis2P3D Location',(20.3022155762,4.25,15.)) ;
#324=CARTESIAN_POINT('Axis2P3D Location',(3.,4.25,7.5)) ;
#329=CARTESIAN_POINT('Line Origine',(4.5,4.25,7.5)) ;
#333=CARTESIAN_POINT('Vertex',(4.5,4.25,15.)) ;
#335=CARTESIAN_POINT('Vertex',(4.5,4.25,0.)) ;
#338=CARTESIAN_POINT('Axis2P3D Location',(3.,4.25,15.)) ;
#342=CARTESIAN_POINT('Vertex',(1.5,4.25,15.)) ;
#345=CARTESIAN_POINT('Line Origine',(1.5,4.25,7.5)) ;
#349=CARTESIAN_POINT('Vertex',(1.5,4.25,0.)) ;
#352=CARTESIAN_POINT('Axis2P3D Location',(3.,4.25,0.)) ;
#364=CARTESIAN_POINT('Axis2P3D Location',(3.,4.25,7.5)) ;
#369=CARTESIAN_POINT('Axis2P3D Location',(3.,4.25,15.)) ;
#374=CARTESIAN_POINT('Axis2P3D Location',(3.,4.25,0.)) ;
#386=CARTESIAN_POINT('Axis2P3D Location',(0.,0.75,15.)) ;
#396=CARTESIAN_POINT('Axis2P3D Location',(0.,0.75,0.)) ;
#409=CARTESIAN_POINT('Axis2P3D Location',(9.5,4.25,7.5)) ;
#414=CARTESIAN_POINT('Line Origine',(11.,4.25,7.5)) ;
#418=CARTESIAN_POINT('Vertex',(11.,4.25,15.)) ;
#420=CARTESIAN_POINT('Vertex',(11.,4.25,0.)) ;
#423=CARTESIAN_POINT('Axis2P3D Location',(9.5,4.25,15.)) ;
#427=CARTESIAN_POINT('Vertex',(8.,4.25,15.)) ;
#430=CARTESIAN_POINT('Line Origine',(8.,4.25,7.5)) ;
#434=CARTESIAN_POINT('Vertex',(8.,4.25,0.)) ;
#437=CARTESIAN_POINT('Axis2P3D Location',(9.5,4.25,0.)) ;
#449=CARTESIAN_POINT('Axis2P3D Location',(9.5,4.25,7.5)) ;
#454=CARTESIAN_POINT('Axis2P3D Location',(9.5,4.25,15.)) ;
#459=CARTESIAN_POINT('Axis2P3D Location',(9.5,4.25,0.)) ;
#471=CARTESIAN_POINT('Axis2P3D Location',(0.,0.75,15.)) ;
#481=CARTESIAN_POINT('Axis2P3D Location',(0.,0.75,0.)) ;
#491=CARTESIAN_POINT('Axis2P3D Location',(0.,0.,0.)) ;
#33=DIRECTION('Axis2P3D Direction',(0.,0.,1.)) ;
#34=DIRECTION('Axis2P3D XDirection',(-1.,0.,0.)) ;
#38=DIRECTION('Vector Direction',(0.,-1.,0.)) ;
#47=DIRECTION('Vector Direction',(-1.,0.,0.)) ;
#54=DIRECTION('Vector Direction',(0.,-1.,0.)) ;
#61=DIRECTION('Vector Direction',(-1.,0.,0.)) ;
#73=DIRECTION('Axis2P3D Direction',(-1.,0.,0.)) ;
#74=DIRECTION('Axis2P3D XDirection',(0.,0.,1.)) ;
#94=DIRECTION('Vector Direction',(-1.,0.,0.)) ;
#122=DIRECTION('Axis2P3D Direction',(0.,-1.,0.)) ;
#123=DIRECTION('Axis2P3D XDirection',(0.,0.,1.)) ;
#127=DIRECTION('Vector Direction',(0.,-1.,0.)) ;
#155=DIRECTION('Axis2P3D Direction',(-1.,0.,0.)) ;
#156=DIRECTION('Axis2P3D XDirection',(-0.,-1.,-1.83697019872E-016)) ;
#160=DIRECTION('Vector Direction',(-1.,0.,0.)) ;
#188=DIRECTION('Axis2P3D Direction',(0.,-1.,0.)) ;
#189=DIRECTION('Axis2P3D XDirection',(1.,-0.,-1.83697019872E-016)) ;
#193=DIRECTION('Vector Direction',(0.,-1.,0.)) ;
#205=DIRECTION('Axis2P3D Direction',(0.,1.,-0.)) ;
#206=DIRECTION('Axis2P3D XDirection',(-1.,0.,0.)) ;
#210=DIRECTION('Vector Direction',(0.,0.,1.)) ;
#217=DIRECTION('Vector Direction',(-1.,0.,0.)) ;
#224=DIRECTION('Vector Direction',(0.,0.,1.)) ;
#236=DIRECTION('Axis2P3D Direction',(-1.,0.,0.)) ;
#237=DIRECTION('Axis2P3D XDirection',(0.,-1.,0.)) ;
#241=DIRECTION('Vector Direction',(0.,-1.,0.)) ;
#248=DIRECTION('Vector Direction',(0.,0.,1.)) ;
#260=DIRECTION('Axis2P3D Direction',(0.,-1.,0.)) ;
#261=DIRECTION('Axis2P3D XDirection',(1.,0.,0.)) ;
#265=DIRECTION('Vector Direction',(1.,0.,0.)) ;
#272=DIRECTION('Vector Direction',(0.,0.,1.)) ;
#284=DIRECTION('Axis2P3D Direction',(1.,0.,0.)) ;
#285=DIRECTION('Axis2P3D XDirection',(0.,1.,0.)) ;
#289=DIRECTION('Vector Direction',(0.,1.,0.)) ;
#301=DIRECTION('Axis2P3D Direction',(0.,0.,1.)) ;
#302=DIRECTION('Axis2P3D XDirection',(-1.,0.,0.)) ;
#325=DIRECTION('Axis2P3D Direction',(0.,0.,-1.)) ;
#326=DIRECTION('Axis2P3D XDirection',(1.,0.,0.)) ;
#330=DIRECTION('Vector Direction',(0.,0.,-1.)) ;
#339=DIRECTION('Axis2P3D Direction',(0.,0.,-1.)) ;
#346=DIRECTION('Vector Direction',(0.,0.,-1.)) ;
#353=DIRECTION('Axis2P3D Direction',(0.,0.,-1.)) ;
#365=DIRECTION('Axis2P3D Direction',(-0.,0.,-1.)) ;
#366=DIRECTION('Axis2P3D XDirection',(-1.,-1.22464679915E-016,0.)) ;
#370=DIRECTION('Axis2P3D Direction',(-0.,0.,-1.)) ;
#375=DIRECTION('Axis2P3D Direction',(-0.,0.,-1.)) ;
#387=DIRECTION('Axis2P3D Direction',(0.,0.,-1.)) ;
#388=DIRECTION('Axis2P3D XDirection',(1.,0.,0.)) ;
#397=DIRECTION('Axis2P3D Direction',(0.,0.,-1.)) ;
#398=DIRECTION('Axis2P3D XDirection',(1.,0.,0.)) ;
#410=DIRECTION('Axis2P3D Direction',(0.,0.,-1.)) ;
#411=DIRECTION('Axis2P3D XDirection',(1.,0.,0.)) ;
#415=DIRECTION('Vector Direction',(0.,0.,-1.)) ;
#424=DIRECTION('Axis2P3D Direction',(0.,0.,-1.)) ;
#431=DIRECTION('Vector Direction',(0.,0.,-1.)) ;
#438=DIRECTION('Axis2P3D Direction',(0.,0.,-1.)) ;
#450=DIRECTION('Axis2P3D Direction',(-0.,0.,-1.)) ;
#451=DIRECTION('Axis2P3D XDirection',(-1.,-1.22464679915E-016,0.)) ;
#455=DIRECTION('Axis2P3D Direction',(-0.,0.,-1.)) ;
#460=DIRECTION('Axis2P3D Direction',(-0.,0.,-1.)) ;
#472=DIRECTION('Axis2P3D Direction',(0.,0.,-1.)) ;
#473=DIRECTION('Axis2P3D XDirection',(1.,0.,0.)) ;
#482=DIRECTION('Axis2P3D Direction',(0.,0.,-1.)) ;
#483=DIRECTION('Axis2P3D XDirection',(1.,0.,0.)) ;
#492=DIRECTION('Axis2P3D Direction',(0.,0.,1.)) ;
#493=DIRECTION('Axis2P3D XDirection',(1.,0.,0.)) ;
#30=PRESENTATION_LAYER_ASSIGNMENT('1',' ',(#21)) ;
#8=PRODUCT_RELATED_PRODUCT_CATEGORY('part',$,(#5)) ;
#7=PRODUCT_CATEGORY('part','specification') ;
#29=STYLED_ITEM(' ',(#28),#21) ;
#322=STYLED_ITEM(' ',(#321),#314) ;
#407=STYLED_ITEM(' ',(#321),#406) ;
#499=STYLED_ITEM(' ',(#498),#494) ;
#28=PRESENTATION_STYLE_ASSIGNMENT((#27)) ;
#321=PRESENTATION_STYLE_ASSIGNMENT((#320)) ;
#498=PRESENTATION_STYLE_ASSIGNMENT((#497)) ;
#497=CURVE_STYLE(' ',#495,POSITIVE_LENGTH_MEASURE(0.129999995232),#496) ;
#27=SURFACE_STYLE_USAGE(.BOTH.,#26) ;
#320=SURFACE_STYLE_USAGE(.BOTH.,#319) ;
#26=SURFACE_SIDE_STYLE(' ',(#25)) ;
#319=SURFACE_SIDE_STYLE(' ',(#318)) ;
#25=SURFACE_STYLE_FILL_AREA(#24) ;
#318=SURFACE_STYLE_FILL_AREA(#317) ;
#24=FILL_AREA_STYLE(' ',(#23)) ;
#317=FILL_AREA_STYLE(' ',(#316)) ;
#23=FILL_AREA_STYLE_COLOUR(' ',#22) ;
#316=FILL_AREA_STYLE_COLOUR(' ',#315) ;
#39=VECTOR('Line Direction',#38,1.) ;
#48=VECTOR('Line Direction',#47,1.) ;
#55=VECTOR('Line Direction',#54,1.) ;
#62=VECTOR('Line Direction',#61,1.) ;
#95=VECTOR('Line Direction',#94,1.) ;
#128=VECTOR('Line Direction',#127,1.) ;
#161=VECTOR('Line Direction',#160,1.) ;
#194=VECTOR('Line Direction',#193,1.) ;
#211=VECTOR('Line Direction',#210,1.) ;
#218=VECTOR('Line Direction',#217,1.) ;
#225=VECTOR('Line Direction',#224,1.) ;
#242=VECTOR('Line Direction',#241,1.) ;
#249=VECTOR('Line Direction',#248,1.) ;
#266=VECTOR('Line Direction',#265,1.) ;
#273=VECTOR('Line Direction',#272,1.) ;
#290=VECTOR('Line Direction',#289,1.) ;
#331=VECTOR('Line Direction',#330,1.) ;
#347=VECTOR('Line Direction',#346,1.) ;
#416=VECTOR('Line Direction',#415,1.) ;
#432=VECTOR('Line Direction',#431,1.) ;
#15=UNCERTAINTY_MEASURE_WITH_UNIT(LENGTH_MEASURE(0.005),#12,'distance_accuracy_value','CONFUSED CURVE UNCERTAINTY') ;
#313=SHAPE_REPRESENTATION_RELATIONSHIP(' ',' ',#19,#312) ;
#66=ORIENTED_EDGE('',*,*,#45,.F.) ;
#67=ORIENTED_EDGE('',*,*,#52,.F.) ;
#68=ORIENTED_EDGE('',*,*,#59,.F.) ;
#69=ORIENTED_EDGE('',*,*,#64,.F.) ;
#115=ORIENTED_EDGE('',*,*,#92,.T.) ;
#116=ORIENTED_EDGE('',*,*,#99,.F.) ;
#117=ORIENTED_EDGE('',*,*,#113,.F.) ;
#118=ORIENTED_EDGE('',*,*,#64,.T.) ;
#148=ORIENTED_EDGE('',*,*,#113,.T.) ;
#149=ORIENTED_EDGE('',*,*,#132,.F.) ;
#150=ORIENTED_EDGE('',*,*,#146,.F.) ;
#151=ORIENTED_EDGE('',*,*,#45,.T.) ;
#181=ORIENTED_EDGE('',*,*,#146,.T.) ;
#182=ORIENTED_EDGE('',*,*,#165,.F.) ;
#183=ORIENTED_EDGE('',*,*,#179,.F.) ;
#184=ORIENTED_EDGE('',*,*,#52,.T.) ;
#198=ORIENTED_EDGE('',*,*,#179,.T.) ;
#199=ORIENTED_EDGE('',*,*,#196,.F.) ;
#200=ORIENTED_EDGE('',*,*,#92,.F.) ;
#201=ORIENTED_EDGE('',*,*,#59,.T.) ;
#229=ORIENTED_EDGE('',*,*,#215,.F.) ;
#230=ORIENTED_EDGE('',*,*,#222,.T.) ;
#231=ORIENTED_EDGE('',*,*,#227,.T.) ;
#232=ORIENTED_EDGE('',*,*,#99,.T.) ;
#253=ORIENTED_EDGE('',*,*,#227,.F.) ;
#254=ORIENTED_EDGE('',*,*,#246,.T.) ;
#255=ORIENTED_EDGE('',*,*,#251,.T.) ;
#256=ORIENTED_EDGE('',*,*,#132,.T.) ;
#277=ORIENTED_EDGE('',*,*,#251,.F.) ;
#278=ORIENTED_EDGE('',*,*,#270,.F.) ;
#279=ORIENTED_EDGE('',*,*,#275,.T.) ;
#280=ORIENTED_EDGE('',*,*,#165,.T.) ;
#294=ORIENTED_EDGE('',*,*,#275,.F.) ;
#295=ORIENTED_EDGE('',*,*,#292,.T.) ;
#296=ORIENTED_EDGE('',*,*,#215,.T.) ;
#297=ORIENTED_EDGE('',*,*,#196,.T.) ;
#306=ORIENTED_EDGE('',*,*,#270,.T.) ;
#307=ORIENTED_EDGE('',*,*,#246,.F.) ;
#308=ORIENTED_EDGE('',*,*,#222,.F.) ;
#309=ORIENTED_EDGE('',*,*,#292,.F.) ;
#358=ORIENTED_EDGE('',*,*,#337,.F.) ;
#359=ORIENTED_EDGE('',*,*,#344,.T.) ;
#360=ORIENTED_EDGE('',*,*,#351,.T.) ;
#361=ORIENTED_EDGE('',*,*,#356,.F.) ;
#380=ORIENTED_EDGE('',*,*,#351,.F.) ;
#381=ORIENTED_EDGE('',*,*,#373,.T.) ;
#382=ORIENTED_EDGE('',*,*,#337,.T.) ;
#383=ORIENTED_EDGE('',*,*,#378,.F.) ;
#392=ORIENTED_EDGE('',*,*,#373,.F.) ;
#393=ORIENTED_EDGE('',*,*,#344,.F.) ;
#402=ORIENTED_EDGE('',*,*,#356,.T.) ;
#403=ORIENTED_EDGE('',*,*,#378,.T.) ;
#443=ORIENTED_EDGE('',*,*,#422,.F.) ;
#444=ORIENTED_EDGE('',*,*,#429,.T.) ;
#445=ORIENTED_EDGE('',*,*,#436,.T.) ;
#446=ORIENTED_EDGE('',*,*,#441,.F.) ;
#465=ORIENTED_EDGE('',*,*,#436,.F.) ;
#466=ORIENTED_EDGE('',*,*,#458,.T.) ;
#467=ORIENTED_EDGE('',*,*,#422,.T.) ;
#468=ORIENTED_EDGE('',*,*,#463,.F.) ;
#477=ORIENTED_EDGE('',*,*,#458,.F.) ;
#478=ORIENTED_EDGE('',*,*,#429,.F.) ;
#487=ORIENTED_EDGE('',*,*,#441,.T.) ;
#488=ORIENTED_EDGE('',*,*,#463,.T.) ;
#31=CLOSED_SHELL('Closed Shell',(#71,#120,#153,#186,#203,#234,#258,#282,#299,#311)) ;
#323=CLOSED_SHELL('Closed Shell',(#363,#385,#395,#405)) ;
#408=CLOSED_SHELL('Closed Shell',(#448,#470,#480,#490)) ;
#312=ADVANCED_BREP_SHAPE_REPRESENTATION('NONE',(#21,#314,#406),#16) ;
#71=ADVANCED_FACE('Koerper.2',(#70),#36,.T.) ;
#120=ADVANCED_FACE('Koerper.2',(#119),#76,.T.) ;
#153=ADVANCED_FACE('Koerper.2',(#152),#125,.T.) ;
#186=ADVANCED_FACE('Koerper.2',(#185),#158,.T.) ;
#203=ADVANCED_FACE('Koerper.2',(#202),#191,.T.) ;
#234=ADVANCED_FACE('Koerper.2',(#233),#208,.T.) ;
#258=ADVANCED_FACE('Koerper.2',(#257),#239,.T.) ;
#282=ADVANCED_FACE('Koerper.2',(#281),#263,.T.) ;
#299=ADVANCED_FACE('Koerper.2',(#298),#287,.T.) ;
#311=ADVANCED_FACE('Koerper.2',(#310),#304,.F.) ;
#363=ADVANCED_FACE('K\X2\00F6\X0\rper.4.1',(#362),#328,.T.) ;
#385=ADVANCED_FACE('K\X2\00F6\X0\rper.4.1',(#384),#368,.T.) ;
#395=ADVANCED_FACE('K\X2\00F6\X0\rper.4.1',(#394),#390,.F.) ;
#405=ADVANCED_FACE('K\X2\00F6\X0\rper.4.1',(#404),#400,.T.) ;
#448=ADVANCED_FACE('K\X2\00F6\X0\rper.4.2',(#447),#413,.T.) ;
#470=ADVANCED_FACE('K\X2\00F6\X0\rper.4.2',(#469),#453,.T.) ;
#480=ADVANCED_FACE('K\X2\00F6\X0\rper.4.2',(#479),#475,.F.) ;
#490=ADVANCED_FACE('K\X2\00F6\X0\rper.4.2',(#489),#485,.T.) ;
#4=APPLICATION_PROTOCOL_DEFINITION('international standard','automotive_design',2001,#1) ;
#77=B_SPLINE_CURVE_WITH_KNOTS('',5,(#78,#79,#80,#81,#82,#83,#84,#85,#86,#87,#88,#89),.UNSPECIFIED.,.F.,.U.,(6,3,3,6),(0.,3.71011961882,6.87068546815,8.09592178325),.UNSPECIFIED.) ;
#100=B_SPLINE_CURVE_WITH_KNOTS('',5,(#101,#102,#103,#104,#105,#106,#107,#108,#109,#110,#111,#112),.UNSPECIFIED.,.F.,.U.,(6,3,3,6),(0.,3.71011961887,6.8706854682,8.0959217833),.UNSPECIFIED.) ;
#133=B_SPLINE_CURVE_WITH_KNOTS('',5,(#134,#135,#136,#137,#138,#139,#140,#141,#142,#143,#144,#145),.UNSPECIFIED.,.F.,.U.,(6,3,3,6),(0.,3.71011961883,6.87068546814,8.09592178323),.UNSPECIFIED.) ;
#166=B_SPLINE_CURVE_WITH_KNOTS('',5,(#167,#168,#169,#170,#171,#172,#173,#174,#175,#176,#177,#178),.UNSPECIFIED.,.F.,.U.,(6,3,3,6),(0.,3.71011961885,6.87068546815,8.09592178325),.UNSPECIFIED.) ;
#21=MANIFOLD_SOLID_BREP('Koerper.2',#31) ;
#314=MANIFOLD_SOLID_BREP('K\X2\00F6\X0\rper.4.1',#323) ;
#406=MANIFOLD_SOLID_BREP('K\X2\00F6\X0\rper.4.2',#408) ;
#341=CIRCLE('generated circle',#340,1.5) ;
#355=CIRCLE('generated circle',#354,1.5) ;
#372=CIRCLE('generated circle',#371,1.5) ;
#377=CIRCLE('generated circle',#376,1.5) ;
#426=CIRCLE('generated circle',#425,1.5) ;
#440=CIRCLE('generated circle',#439,1.5) ;
#457=CIRCLE('generated circle',#456,1.5) ;
#462=CIRCLE('generated circle',#461,1.5) ;
#22=COLOUR_RGB('Colour',0.274509803922,0.235294117647,0.270588235294) ;
#315=COLOUR_RGB('Colour',0.823529411765,0.823529411765,1.) ;
#500=CONSTRUCTIVE_GEOMETRY_REPRESENTATION('supplemental geometry',(#494),#16) ;
#501=CONSTRUCTIVE_GEOMETRY_REPRESENTATION_RELATIONSHIP('supplemental geometry','',#19,#500) ;
#76=CYLINDRICAL_SURFACE('generated cylinder',#75,3.) ;
#125=CYLINDRICAL_SURFACE('generated cylinder',#124,3.) ;
#158=CYLINDRICAL_SURFACE('generated cylinder',#157,3.) ;
#191=CYLINDRICAL_SURFACE('generated cylinder',#190,3.) ;
#328=CYLINDRICAL_SURFACE('generated cylinder',#327,1.5) ;
#368=CYLINDRICAL_SURFACE('generated cylinder',#367,1.5) ;
#413=CYLINDRICAL_SURFACE('generated cylinder',#412,1.5) ;
#453=CYLINDRICAL_SURFACE('generated cylinder',#452,1.5) ;
#496=DRAUGHTING_PRE_DEFINED_COLOUR('white') ;
#495=DRAUGHTING_PRE_DEFINED_CURVE_FONT('dashed') ;
#45=EDGE_CURVE('',#42,#44,#40,.F.) ;
#52=EDGE_CURVE('',#51,#42,#49,.T.) ;
#59=EDGE_CURVE('',#58,#51,#56,.T.) ;
#64=EDGE_CURVE('',#44,#58,#63,.F.) ;
#92=EDGE_CURVE('',#58,#91,#77,.T.) ;
#99=EDGE_CURVE('',#98,#91,#96,.F.) ;
#113=EDGE_CURVE('',#44,#98,#100,.T.) ;
#132=EDGE_CURVE('',#131,#98,#129,.F.) ;
#146=EDGE_CURVE('',#42,#131,#133,.T.) ;
#165=EDGE_CURVE('',#164,#131,#162,.T.) ;
#179=EDGE_CURVE('',#51,#164,#166,.T.) ;
#196=EDGE_CURVE('',#91,#164,#195,.T.) ;
#215=EDGE_CURVE('',#214,#91,#212,.T.) ;
#222=EDGE_CURVE('',#214,#221,#219,.T.) ;
#227=EDGE_CURVE('',#221,#98,#226,.T.) ;
#246=EDGE_CURVE('',#221,#245,#243,.T.) ;
#251=EDGE_CURVE('',#245,#131,#250,.T.) ;
#270=EDGE_CURVE('',#269,#245,#267,.F.) ;
#275=EDGE_CURVE('',#269,#164,#274,.T.) ;
#292=EDGE_CURVE('',#269,#214,#291,.T.) ;
#337=EDGE_CURVE('',#334,#336,#332,.T.) ;
#344=EDGE_CURVE('',#334,#343,#341,.T.) ;
#351=EDGE_CURVE('',#343,#350,#348,.T.) ;
#356=EDGE_CURVE('',#336,#350,#355,.T.) ;
#373=EDGE_CURVE('',#343,#334,#372,.T.) ;
#378=EDGE_CURVE('',#350,#336,#377,.T.) ;
#422=EDGE_CURVE('',#419,#421,#417,.T.) ;
#429=EDGE_CURVE('',#419,#428,#426,.T.) ;
#436=EDGE_CURVE('',#428,#435,#433,.T.) ;
#441=EDGE_CURVE('',#421,#435,#440,.T.) ;
#458=EDGE_CURVE('',#428,#419,#457,.T.) ;
#463=EDGE_CURVE('',#435,#421,#462,.T.) ;
#65=EDGE_LOOP('',(#66,#67,#68,#69)) ;
#114=EDGE_LOOP('',(#115,#116,#117,#118)) ;
#147=EDGE_LOOP('',(#148,#149,#150,#151)) ;
#180=EDGE_LOOP('',(#181,#182,#183,#184)) ;
#197=EDGE_LOOP('',(#198,#199,#200,#201)) ;
#228=EDGE_LOOP('',(#229,#230,#231,#232)) ;
#252=EDGE_LOOP('',(#253,#254,#255,#256)) ;
#276=EDGE_LOOP('',(#277,#278,#279,#280)) ;
#293=EDGE_LOOP('',(#294,#295,#296,#297)) ;
#305=EDGE_LOOP('',(#306,#307,#308,#309)) ;
#357=EDGE_LOOP('',(#358,#359,#360,#361)) ;
#379=EDGE_LOOP('',(#380,#381,#382,#383)) ;
#391=EDGE_LOOP('',(#392,#393)) ;
#401=EDGE_LOOP('',(#402,#403)) ;
#442=EDGE_LOOP('',(#443,#444,#445,#446)) ;
#464=EDGE_LOOP('',(#465,#466,#467,#468)) ;
#476=EDGE_LOOP('',(#477,#478)) ;
#486=EDGE_LOOP('',(#487,#488)) ;
#70=FACE_OUTER_BOUND('',#65,.T.) ;
#119=FACE_OUTER_BOUND('',#114,.T.) ;
#152=FACE_OUTER_BOUND('',#147,.T.) ;
#185=FACE_OUTER_BOUND('',#180,.T.) ;
#202=FACE_OUTER_BOUND('',#197,.T.) ;
#233=FACE_OUTER_BOUND('',#228,.T.) ;
#257=FACE_OUTER_BOUND('',#252,.T.) ;
#281=FACE_OUTER_BOUND('',#276,.T.) ;
#298=FACE_OUTER_BOUND('',#293,.T.) ;
#310=FACE_OUTER_BOUND('',#305,.T.) ;
#362=FACE_OUTER_BOUND('',#357,.T.) ;
#384=FACE_OUTER_BOUND('',#379,.T.) ;
#394=FACE_OUTER_BOUND('',#391,.T.) ;
#404=FACE_OUTER_BOUND('',#401,.T.) ;
#447=FACE_OUTER_BOUND('',#442,.T.) ;
#469=FACE_OUTER_BOUND('',#464,.T.) ;
#479=FACE_OUTER_BOUND('',#476,.T.) ;
#489=FACE_OUTER_BOUND('',#486,.T.) ;
#40=LINE('Line',#37,#39) ;
#49=LINE('Line',#46,#48) ;
#56=LINE('Line',#53,#55) ;
#63=LINE('Line',#60,#62) ;
#96=LINE('Line',#93,#95) ;
#129=LINE('Line',#126,#128) ;
#162=LINE('Line',#159,#161) ;
#195=LINE('Line',#192,#194) ;
#212=LINE('Line',#209,#211) ;
#219=LINE('Line',#216,#218) ;
#226=LINE('Line',#223,#225) ;
#243=LINE('Line',#240,#242) ;
#250=LINE('Line',#247,#249) ;
#267=LINE('Line',#264,#266) ;
#274=LINE('Line',#271,#273) ;
#291=LINE('Line',#288,#290) ;
#332=LINE('Line',#329,#331) ;
#348=LINE('Line',#345,#347) ;
#417=LINE('Line',#414,#416) ;
#433=LINE('Line',#430,#432) ;
#36=PLANE('',#35) ;
#208=PLANE('',#207) ;
#239=PLANE('',#238) ;
#263=PLANE('',#262) ;
#287=PLANE('',#286) ;
#304=PLANE('',#303) ;
#390=PLANE('',#389) ;
#400=PLANE('',#399) ;
#475=PLANE('',#474) ;
#485=PLANE('',#484) ;
#9=PRODUCT_CATEGORY_RELATIONSHIP(' ',' ',#7,#8) ;
#6=PRODUCT_DEFINITION_FORMATION_WITH_SPECIFIED_SOURCE('',' ',#5,.NOT_KNOWN.) ;
#20=SHAPE_DEFINITION_REPRESENTATION(#11,#19) ;
#42=VERTEX_POINT('',#41) ;
#44=VERTEX_POINT('',#43) ;
#51=VERTEX_POINT('',#50) ;
#58=VERTEX_POINT('',#57) ;
#91=VERTEX_POINT('',#90) ;
#98=VERTEX_POINT('',#97) ;
#131=VERTEX_POINT('',#130) ;
#164=VERTEX_POINT('',#163) ;
#214=VERTEX_POINT('',#213) ;
#221=VERTEX_POINT('',#220) ;
#245=VERTEX_POINT('',#244) ;
#269=VERTEX_POINT('',#268) ;
#334=VERTEX_POINT('',#333) ;
#336=VERTEX_POINT('',#335) ;
#343=VERTEX_POINT('',#342) ;
#350=VERTEX_POINT('',#349) ;
#419=VERTEX_POINT('',#418) ;
#421=VERTEX_POINT('',#420) ;
#428=VERTEX_POINT('',#427) ;
#435=VERTEX_POINT('',#434) ;
#12=(LENGTH_UNIT()NAMED_UNIT(*)SI_UNIT(.MILLI.,.METRE.)) ;
#13=(NAMED_UNIT(*)PLANE_ANGLE_UNIT()SI_UNIT($,.RADIAN.)) ;
#14=(NAMED_UNIT(*)SI_UNIT($,.STERADIAN.)SOLID_ANGLE_UNIT()) ;
#16=(GEOMETRIC_REPRESENTATION_CONTEXT(3)GLOBAL_UNCERTAINTY_ASSIGNED_CONTEXT((#15))GLOBAL_UNIT_ASSIGNED_CONTEXT((#12,#13,#14))REPRESENTATION_CONTEXT(' ',' ')) ;
ENDSEC;
END-ISO-10303-21;
