ISO-10303-21;
HEADER;
FILE_DESCRIPTION(('CATIA V5 STEP Exchange','CAx-IF Rec.Pracs.--- Model Styling and Organization---1.4--- 2014-01-23'),'2;1');

FILE_NAME ('1228921-8_0_0468160001_DEK_6-5_Simple3D.stp','2024-02-27T13:36:28+00:00',('none'),('Weidmueller'),'CATIA Version 5-6 Release 2016 SP3 HF44','CATIA V5 STEP AP214','none');

FILE_SCHEMA(('AUTOMOTIVE_DESIGN { 1 0 10303 214 1 1 1 1 }'));

ENDSEC;
DATA;
#5=PRODUCT('24282_DEK_6-5','','VERBINDERMARKIERER\X2\000D\X0\\X2\000A\X0\<Q-CHECKER_SEAL> Q-Checker Version 2.14.8  \X2\000D\X0\\X2\000A\X0\CATIA-Version         : Catia V5 R20 SP5 Build Date 01-06-2014.17.15\X2\000D\X0\\X2\000A\X0\Model size (in KByte) : 0\X2\000D\X0\\X2\000A\X0\Checking date         : 2015-03-09 13:38:01\X2\000D\X0\\X2\000A\X0\Checking profile      : ADMIN / Release_2D-3D [CATPart]\X2\000D\X0\\X2\000A\X0\Model assessment      : In Ordnung (IO)\X2\000D\X0\\X2\000A\X0\Total weight sum      : 0\X2\000D\X0\\X2\000A\X0\<CROSS_CHECK_SUM>\X2\000D\X0\\X2\000A\X0\  <CHKSUM_DATE> 818322176 </CHKSUM_DATE>\X2\000D\X0\\X2\000A\X0\  <CHKSUM_ENTITIES> 1433751588 </CHKSUM_ENTITIES>\X2\000D\X0\\X2\000A\X0\  <CHKSUM_PROFILE> 1594213346 </CHKSUM_PROFILE>\X2\000D\X0\\X2\000A\X0\  <CHKSUM_DIMENSION> -186917087 </CHKSUM_DIMENSION>\X2\000D\X0\\X2\000A\X0\  <CHKSUM_PROJINTERSEC> -896974048 </CHKSUM_PROJINTERSEC>\X2\000D\X0\\X2\000A\X0\  <CHKSUM_IDENTCRV> -896974048 </CHKSUM_IDENTCRV>\X2\000D\X0\\X2\000A\X0\  <CHKSUM_INFINITY> 138018827 </CHKSUM_INFINITY>\X2\000D\X0\\X2\000A\X0\</CROSS_CHECK_SUM>\X2\000D\X0\\X2\000A\X0\</Q-CHECKER_SEAL> \X2\000D\X0\\X2\000A\X0\ \X2\000D\X0\\X2\000A\X0\ \X2\000D\X0\\X2\000A\X0\ \X2\000D\X0\\X2\000A\X0\ \X2\000D\X0\\X2\000A\X0\ \X2\000D\X0\\X2\000A\X0\ \X2\000D\X0\\X2\000A\X0\ \X2\000D\X0\\X2\000A\X0\ \X2\000D\X0\\X2\000A\X0\ \X2\000D\X0\\X2\000A\X0\ \X2\000D\X0\\X2\000A\X0\ \X2\000D\X0\\X2\000A\X0\ \X2\000D\X0\\X2\000A\X0\ \X2\000D\X0\\X2\000A\X0\ \X2\000D\X0\\X2\000A\X0\ \X2\000D\X0\\X2\000A\X0\ \X2\000D\X0\\X2\000A\X0\',(#2)) ;
#2=PRODUCT_CONTEXT(' ',#1,'mechanical') ;
#1=APPLICATION_CONTEXT('automotive design') ;
#10=PRODUCT_DEFINITION('',' ',#6,#3) ;
#3=PRODUCT_DEFINITION_CONTEXT('part definition',#1,' ') ;
#11=PRODUCT_DEFINITION_SHAPE(' ',' ',#10) ;
#450=MECHANICAL_DESIGN_GEOMETRIC_PRESENTATION_REPRESENTATION(' ',(#29),#16) ;
#19=SHAPE_REPRESENTATION(' ',(#18),#16) ;
#18=AXIS2_PLACEMENT_3D(' ',#17,$,$) ;
#34=AXIS2_PLACEMENT_3D('Plane Axis2P3D',#31,#32,#33) ;
#74=AXIS2_PLACEMENT_3D('Plane Axis2P3D',#71,#72,#73) ;
#105=AXIS2_PLACEMENT_3D('Plane Axis2P3D',#102,#103,#104) ;
#129=AXIS2_PLACEMENT_3D('Plane Axis2P3D',#126,#127,#128) ;
#153=AXIS2_PLACEMENT_3D('Plane Axis2P3D',#150,#151,#152) ;
#170=AXIS2_PLACEMENT_3D('Plane Axis2P3D',#167,#168,#169) ;
#274=AXIS2_PLACEMENT_3D('Plane Axis2P3D',#271,#272,#273) ;
#291=AXIS2_PLACEMENT_3D('Plane Axis2P3D',#288,#289,#290) ;
#343=AXIS2_PLACEMENT_3D('Plane Axis2P3D',#340,#341,#342) ;
#383=AXIS2_PLACEMENT_3D('Plane Axis2P3D',#380,#381,#382) ;
#405=AXIS2_PLACEMENT_3D('Plane Axis2P3D',#402,#403,#404) ;
#422=AXIS2_PLACEMENT_3D('Plane Axis2P3D',#419,#420,#421) ;
#439=AXIS2_PLACEMENT_3D('Plane Axis2P3D',#436,#437,#438) ;
#17=CARTESIAN_POINT(' ',(0.,0.,0.)) ;
#31=CARTESIAN_POINT('Axis2P3D Location',(3.2,1.02106611995,8.31981372684E-010)) ;
#36=CARTESIAN_POINT('Line Origine',(3.2,1.02106611995,8.31981372684E-010)) ;
#40=CARTESIAN_POINT('Vertex',(1.275,1.02106611995,8.3198115064E-010)) ;
#42=CARTESIAN_POINT('Vertex',(5.125,1.02106611995,8.31981594729E-010)) ;
#45=CARTESIAN_POINT('Line Origine',(1.275,1.23035368592,0.781071830416)) ;
#49=CARTESIAN_POINT('Vertex',(1.275,1.43964125188,1.56214366)) ;
#52=CARTESIAN_POINT('Line Origine',(3.2,1.43964125188,1.56214366)) ;
#56=CARTESIAN_POINT('Vertex',(5.125,1.43964125188,1.56214366)) ;
#59=CARTESIAN_POINT('Line Origine',(5.125,1.23035368592,0.781071830416)) ;
#71=CARTESIAN_POINT('Axis2P3D Location',(3.2,0.6,8.31981372684E-010)) ;
#76=CARTESIAN_POINT('Line Origine',(3.2,0.6,8.31981372684E-010)) ;
#80=CARTESIAN_POINT('Vertex',(1.275,0.6,8.3198115064E-010)) ;
#82=CARTESIAN_POINT('Vertex',(5.125,0.6,8.31981594729E-010)) ;
#85=CARTESIAN_POINT('Line Origine',(1.275,0.810533059974,8.31981254812E-010)) ;
#90=CARTESIAN_POINT('Line Origine',(5.125,0.810533059974,8.31981490557E-010)) ;
#102=CARTESIAN_POINT('Axis2P3D Location',(1.275,2.6,1.56214366)) ;
#107=CARTESIAN_POINT('Line Origine',(1.275,0.6,0.781071830416)) ;
#111=CARTESIAN_POINT('Vertex',(1.275,0.6,1.56214366)) ;
#114=CARTESIAN_POINT('Line Origine',(1.275,1.01982062594,1.56214366)) ;
#126=CARTESIAN_POINT('Axis2P3D Location',(5.125,2.6,1.56214366)) ;
#131=CARTESIAN_POINT('Line Origine',(5.125,1.01982062594,1.56214366)) ;
#135=CARTESIAN_POINT('Vertex',(5.125,0.6,1.56214366)) ;
#138=CARTESIAN_POINT('Line Origine',(5.125,0.6,0.781071830416)) ;
#150=CARTESIAN_POINT('Axis2P3D Location',(3.2,0.6,1.56214366)) ;
#155=CARTESIAN_POINT('Line Origine',(3.2,0.6,1.56214366)) ;
#167=CARTESIAN_POINT('Axis2P3D Location',(3.2,4.17893388005,8.31981372684E-010)) ;
#172=CARTESIAN_POINT('Line Origine',(5.125,3.96964631408,0.781071830416)) ;
#176=CARTESIAN_POINT('Vertex',(5.125,4.17893388005,8.31981594729E-010)) ;
#178=CARTESIAN_POINT('Vertex',(5.125,3.76035874812,1.56214366)) ;
#181=CARTESIAN_POINT('Line Origine',(3.2,3.76035874812,1.56214366)) ;
#185=CARTESIAN_POINT('Vertex',(1.275,3.76035874812,1.56214366)) ;
#188=CARTESIAN_POINT('Line Origine',(1.275,3.96964631408,0.781071830416)) ;
#192=CARTESIAN_POINT('Vertex',(1.275,4.17893388005,8.3198115064E-010)) ;
#195=CARTESIAN_POINT('Line Origine',(3.2,4.17893388005,8.31981372684E-010)) ;
#207=CARTESIAN_POINT('Line Origine',(5.125,4.38946694003,8.31981490557E-010)) ;
#211=CARTESIAN_POINT('Vertex',(5.125,4.6,8.31981594729E-010)) ;
#214=CARTESIAN_POINT('Line Origine',(1.275,4.38946694003,8.31981254812E-010)) ;
#218=CARTESIAN_POINT('Vertex',(1.275,4.6,8.3198115064E-010)) ;
#221=CARTESIAN_POINT('Line Origine',(3.2,4.6,8.31981372684E-010)) ;
#233=CARTESIAN_POINT('Line Origine',(1.275,4.18017937406,1.56214366)) ;
#237=CARTESIAN_POINT('Vertex',(1.275,4.6,1.56214366)) ;
#240=CARTESIAN_POINT('Line Origine',(1.275,4.6,0.781071830416)) ;
#252=CARTESIAN_POINT('Line Origine',(5.125,4.6,0.781071830416)) ;
#256=CARTESIAN_POINT('Vertex',(5.125,4.6,1.56214366)) ;
#259=CARTESIAN_POINT('Line Origine',(5.125,4.18017937406,1.56214366)) ;
#271=CARTESIAN_POINT('Axis2P3D Location',(3.2,4.6,1.56214366)) ;
#276=CARTESIAN_POINT('Line Origine',(3.2,4.6,1.56214366)) ;
#288=CARTESIAN_POINT('Axis2P3D Location',(3.2,2.6,1.56214366)) ;
#293=CARTESIAN_POINT('Line Origine',(0.1,2.6,1.56214366)) ;
#297=CARTESIAN_POINT('Vertex',(0.1,1.89820253868E-016,1.56214366)) ;
#299=CARTESIAN_POINT('Vertex',(0.1,5.2,1.56214366)) ;
#302=CARTESIAN_POINT('Line Origine',(3.2,5.2,1.56214366)) ;
#306=CARTESIAN_POINT('Vertex',(6.3,5.2,1.56214366)) ;
#309=CARTESIAN_POINT('Line Origine',(6.3,2.6,1.56214366)) ;
#313=CARTESIAN_POINT('Vertex',(6.3,-1.89820253868E-016,1.56214366)) ;
#316=CARTESIAN_POINT('Line Origine',(3.2,0.,1.56214366)) ;
#340=CARTESIAN_POINT('Axis2P3D Location',(3.2,2.6,2.36214366)) ;
#345=CARTESIAN_POINT('Line Origine',(3.2,0.,2.36214366)) ;
#349=CARTESIAN_POINT('Vertex',(6.3,-1.89820253868E-016,2.36214366)) ;
#351=CARTESIAN_POINT('Vertex',(0.1,1.89820253868E-016,2.36214366)) ;
#354=CARTESIAN_POINT('Line Origine',(6.3,2.6,2.36214366)) ;
#358=CARTESIAN_POINT('Vertex',(6.3,5.2,2.36214366)) ;
#361=CARTESIAN_POINT('Line Origine',(3.2,5.2,2.36214366)) ;
#365=CARTESIAN_POINT('Vertex',(0.1,5.2,2.36214366)) ;
#368=CARTESIAN_POINT('Line Origine',(0.1,2.6,2.36214366)) ;
#380=CARTESIAN_POINT('Axis2P3D Location',(0.1,0.,1.56214366)) ;
#385=CARTESIAN_POINT('Line Origine',(0.1,5.2,1.96214366)) ;
#390=CARTESIAN_POINT('Line Origine',(0.1,0.,1.96214366)) ;
#402=CARTESIAN_POINT('Axis2P3D Location',(6.3,5.2,1.56214366)) ;
#407=CARTESIAN_POINT('Line Origine',(6.3,5.2,1.96214366)) ;
#419=CARTESIAN_POINT('Axis2P3D Location',(6.3,0.,1.56214366)) ;
#424=CARTESIAN_POINT('Line Origine',(6.3,0.,1.96214366)) ;
#436=CARTESIAN_POINT('Axis2P3D Location',(0.1,0.,1.56214366)) ;
#32=DIRECTION('Axis2P3D Direction',(7.49939943261E-017,0.965925826289,-0.258819045103)) ;
#33=DIRECTION('Axis2P3D XDirection',(-4.32978028118E-017,0.258819045103,0.965925826289)) ;
#37=DIRECTION('Vector Direction',(1.,-1.15347846714E-016,6.12323399436E-017)) ;
#46=DIRECTION('Vector Direction',(0.,0.258819045103,0.965925826289)) ;
#53=DIRECTION('Vector Direction',(1.,-1.15347846714E-016,1.15347846714E-016)) ;
#60=DIRECTION('Vector Direction',(0.,0.258819045103,0.965925826289)) ;
#72=DIRECTION('Axis2P3D Direction',(6.12323399574E-017,-3.74939945665E-033,-1.)) ;
#73=DIRECTION('Axis2P3D XDirection',(6.12323399574E-017,1.,0.)) ;
#77=DIRECTION('Vector Direction',(1.,-5.76739233572E-017,6.12323399436E-017)) ;
#86=DIRECTION('Vector Direction',(0.,1.,0.)) ;
#91=DIRECTION('Vector Direction',(0.,1.,0.)) ;
#103=DIRECTION('Axis2P3D Direction',(1.,-6.12323399574E-017,6.12323399574E-017)) ;
#104=DIRECTION('Axis2P3D XDirection',(6.12323399574E-017,1.,0.)) ;
#108=DIRECTION('Vector Direction',(0.,0.,-1.)) ;
#115=DIRECTION('Vector Direction',(-2.64451757732E-016,-1.,-2.64451757732E-016)) ;
#127=DIRECTION('Axis2P3D Direction',(1.,-6.12323399574E-017,6.12323399574E-017)) ;
#128=DIRECTION('Axis2P3D XDirection',(6.12323399574E-017,1.,0.)) ;
#132=DIRECTION('Vector Direction',(0.,-1.,-2.64451757732E-016)) ;
#139=DIRECTION('Vector Direction',(0.,0.,-1.)) ;
#151=DIRECTION('Axis2P3D Direction',(-6.12323399574E-017,-1.,0.)) ;
#152=DIRECTION('Axis2P3D XDirection',(6.12323399574E-017,-3.74939945665E-033,-1.)) ;
#156=DIRECTION('Vector Direction',(1.,-5.76739233572E-017,1.15347846714E-016)) ;
#168=DIRECTION('Axis2P3D Direction',(4.32978028118E-017,0.965925826289,0.258819045103)) ;
#169=DIRECTION('Axis2P3D XDirection',(-7.49939943261E-017,-0.258819045103,0.965925826289)) ;
#173=DIRECTION('Vector Direction',(0.,-0.258819045103,0.965925826289)) ;
#182=DIRECTION('Vector Direction',(1.,0.,1.15347846714E-016)) ;
#189=DIRECTION('Vector Direction',(0.,-0.258819045103,0.965925826289)) ;
#196=DIRECTION('Vector Direction',(1.,0.,6.12323399436E-017)) ;
#208=DIRECTION('Vector Direction',(-2.10935617382E-015,-1.,0.)) ;
#215=DIRECTION('Vector Direction',(-1.05467808691E-015,-1.,0.)) ;
#222=DIRECTION('Vector Direction',(1.,0.,6.12323399436E-017)) ;
#234=DIRECTION('Vector Direction',(2.64451757732E-016,1.,0.)) ;
#241=DIRECTION('Vector Direction',(0.,0.,-1.)) ;
#253=DIRECTION('Vector Direction',(0.,0.,-1.)) ;
#260=DIRECTION('Vector Direction',(0.,1.,0.)) ;
#272=DIRECTION('Axis2P3D Direction',(-6.12323399574E-017,-1.,0.)) ;
#273=DIRECTION('Axis2P3D XDirection',(6.12323399574E-017,-3.74939945665E-033,-1.)) ;
#277=DIRECTION('Vector Direction',(1.,0.,1.15347846714E-016)) ;
#289=DIRECTION('Axis2P3D Direction',(0.,-0.,1.)) ;
#290=DIRECTION('Axis2P3D XDirection',(6.12323399574E-017,1.,0.)) ;
#294=DIRECTION('Vector Direction',(0.,1.,0.)) ;
#303=DIRECTION('Vector Direction',(-1.,0.,0.)) ;
#310=DIRECTION('Vector Direction',(0.,1.,0.)) ;
#317=DIRECTION('Vector Direction',(1.,-6.12323399574E-017,0.)) ;
#341=DIRECTION('Axis2P3D Direction',(0.,-0.,1.)) ;
#342=DIRECTION('Axis2P3D XDirection',(6.12323399574E-017,1.,0.)) ;
#346=DIRECTION('Vector Direction',(1.,-6.12323399574E-017,0.)) ;
#355=DIRECTION('Vector Direction',(0.,1.,0.)) ;
#362=DIRECTION('Vector Direction',(-1.,0.,0.)) ;
#369=DIRECTION('Vector Direction',(0.,1.,0.)) ;
#381=DIRECTION('Axis2P3D Direction',(1.,-6.12323399574E-017,0.)) ;
#382=DIRECTION('Axis2P3D XDirection',(6.12323399574E-017,1.,0.)) ;
#386=DIRECTION('Vector Direction',(0.,0.,1.)) ;
#391=DIRECTION('Vector Direction',(0.,0.,1.)) ;
#403=DIRECTION('Axis2P3D Direction',(6.12323399574E-017,1.,-0.)) ;
#404=DIRECTION('Axis2P3D XDirection',(-1.,6.12323399574E-017,0.)) ;
#408=DIRECTION('Vector Direction',(0.,0.,1.)) ;
#420=DIRECTION('Axis2P3D Direction',(1.,-6.12323399574E-017,0.)) ;
#421=DIRECTION('Axis2P3D XDirection',(6.12323399574E-017,1.,0.)) ;
#425=DIRECTION('Vector Direction',(0.,0.,1.)) ;
#437=DIRECTION('Axis2P3D Direction',(-6.12323399574E-017,-1.,0.)) ;
#438=DIRECTION('Axis2P3D XDirection',(1.,-6.12323399574E-017,0.)) ;
#8=PRODUCT_RELATED_PRODUCT_CATEGORY('part',$,(#5)) ;
#7=PRODUCT_CATEGORY('part','specification') ;
#29=STYLED_ITEM(' ',(#28),#21) ;
#28=PRESENTATION_STYLE_ASSIGNMENT((#27)) ;
#27=SURFACE_STYLE_USAGE(.BOTH.,#26) ;
#26=SURFACE_SIDE_STYLE(' ',(#25)) ;
#25=SURFACE_STYLE_FILL_AREA(#24) ;
#24=FILL_AREA_STYLE(' ',(#23)) ;
#23=FILL_AREA_STYLE_COLOUR(' ',#22) ;
#38=VECTOR('Line Direction',#37,1.) ;
#47=VECTOR('Line Direction',#46,1.) ;
#54=VECTOR('Line Direction',#53,1.) ;
#61=VECTOR('Line Direction',#60,1.) ;
#78=VECTOR('Line Direction',#77,1.) ;
#87=VECTOR('Line Direction',#86,1.) ;
#92=VECTOR('Line Direction',#91,1.) ;
#109=VECTOR('Line Direction',#108,1.) ;
#116=VECTOR('Line Direction',#115,1.) ;
#133=VECTOR('Line Direction',#132,1.) ;
#140=VECTOR('Line Direction',#139,1.) ;
#157=VECTOR('Line Direction',#156,1.) ;
#174=VECTOR('Line Direction',#173,1.) ;
#183=VECTOR('Line Direction',#182,1.) ;
#190=VECTOR('Line Direction',#189,1.) ;
#197=VECTOR('Line Direction',#196,1.) ;
#209=VECTOR('Line Direction',#208,1.) ;
#216=VECTOR('Line Direction',#215,1.) ;
#223=VECTOR('Line Direction',#222,1.) ;
#235=VECTOR('Line Direction',#234,1.) ;
#242=VECTOR('Line Direction',#241,1.) ;
#254=VECTOR('Line Direction',#253,1.) ;
#261=VECTOR('Line Direction',#260,1.) ;
#278=VECTOR('Line Direction',#277,1.) ;
#295=VECTOR('Line Direction',#294,1.) ;
#304=VECTOR('Line Direction',#303,1.) ;
#311=VECTOR('Line Direction',#310,1.) ;
#318=VECTOR('Line Direction',#317,1.) ;
#347=VECTOR('Line Direction',#346,1.) ;
#356=VECTOR('Line Direction',#355,1.) ;
#363=VECTOR('Line Direction',#362,1.) ;
#370=VECTOR('Line Direction',#369,1.) ;
#387=VECTOR('Line Direction',#386,1.) ;
#392=VECTOR('Line Direction',#391,1.) ;
#409=VECTOR('Line Direction',#408,1.) ;
#426=VECTOR('Line Direction',#425,1.) ;
#15=UNCERTAINTY_MEASURE_WITH_UNIT(LENGTH_MEASURE(0.005),#12,'distance_accuracy_value','CONFUSED CURVE UNCERTAINTY') ;
#449=SHAPE_REPRESENTATION_RELATIONSHIP(' ',' ',#19,#448) ;
#65=ORIENTED_EDGE('',*,*,#44,.F.) ;
#66=ORIENTED_EDGE('',*,*,#51,.T.) ;
#67=ORIENTED_EDGE('',*,*,#58,.T.) ;
#68=ORIENTED_EDGE('',*,*,#63,.F.) ;
#96=ORIENTED_EDGE('',*,*,#84,.F.) ;
#97=ORIENTED_EDGE('',*,*,#89,.T.) ;
#98=ORIENTED_EDGE('',*,*,#44,.T.) ;
#99=ORIENTED_EDGE('',*,*,#94,.F.) ;
#120=ORIENTED_EDGE('',*,*,#89,.F.) ;
#121=ORIENTED_EDGE('',*,*,#113,.F.) ;
#122=ORIENTED_EDGE('',*,*,#118,.F.) ;
#123=ORIENTED_EDGE('',*,*,#51,.F.) ;
#144=ORIENTED_EDGE('',*,*,#63,.T.) ;
#145=ORIENTED_EDGE('',*,*,#137,.T.) ;
#146=ORIENTED_EDGE('',*,*,#142,.T.) ;
#147=ORIENTED_EDGE('',*,*,#94,.T.) ;
#161=ORIENTED_EDGE('',*,*,#159,.F.) ;
#162=ORIENTED_EDGE('',*,*,#113,.T.) ;
#163=ORIENTED_EDGE('',*,*,#84,.T.) ;
#164=ORIENTED_EDGE('',*,*,#142,.F.) ;
#201=ORIENTED_EDGE('',*,*,#180,.T.) ;
#202=ORIENTED_EDGE('',*,*,#187,.F.) ;
#203=ORIENTED_EDGE('',*,*,#194,.F.) ;
#204=ORIENTED_EDGE('',*,*,#199,.T.) ;
#227=ORIENTED_EDGE('',*,*,#213,.T.) ;
#228=ORIENTED_EDGE('',*,*,#199,.F.) ;
#229=ORIENTED_EDGE('',*,*,#220,.F.) ;
#230=ORIENTED_EDGE('',*,*,#225,.T.) ;
#246=ORIENTED_EDGE('',*,*,#239,.T.) ;
#247=ORIENTED_EDGE('',*,*,#244,.T.) ;
#248=ORIENTED_EDGE('',*,*,#220,.T.) ;
#249=ORIENTED_EDGE('',*,*,#194,.T.) ;
#265=ORIENTED_EDGE('',*,*,#180,.F.) ;
#266=ORIENTED_EDGE('',*,*,#213,.F.) ;
#267=ORIENTED_EDGE('',*,*,#258,.F.) ;
#268=ORIENTED_EDGE('',*,*,#263,.F.) ;
#282=ORIENTED_EDGE('',*,*,#258,.T.) ;
#283=ORIENTED_EDGE('',*,*,#225,.F.) ;
#284=ORIENTED_EDGE('',*,*,#244,.F.) ;
#285=ORIENTED_EDGE('',*,*,#280,.T.) ;
#322=ORIENTED_EDGE('',*,*,#301,.T.) ;
#323=ORIENTED_EDGE('',*,*,#308,.T.) ;
#324=ORIENTED_EDGE('',*,*,#315,.T.) ;
#325=ORIENTED_EDGE('',*,*,#320,.T.) ;
#328=ORIENTED_EDGE('',*,*,#137,.F.) ;
#329=ORIENTED_EDGE('',*,*,#58,.F.) ;
#330=ORIENTED_EDGE('',*,*,#118,.T.) ;
#331=ORIENTED_EDGE('',*,*,#159,.T.) ;
#334=ORIENTED_EDGE('',*,*,#280,.F.) ;
#335=ORIENTED_EDGE('',*,*,#239,.F.) ;
#336=ORIENTED_EDGE('',*,*,#187,.T.) ;
#337=ORIENTED_EDGE('',*,*,#263,.T.) ;
#374=ORIENTED_EDGE('',*,*,#353,.F.) ;
#375=ORIENTED_EDGE('',*,*,#360,.F.) ;
#376=ORIENTED_EDGE('',*,*,#367,.F.) ;
#377=ORIENTED_EDGE('',*,*,#372,.F.) ;
#396=ORIENTED_EDGE('',*,*,#372,.T.) ;
#397=ORIENTED_EDGE('',*,*,#389,.F.) ;
#398=ORIENTED_EDGE('',*,*,#301,.F.) ;
#399=ORIENTED_EDGE('',*,*,#394,.T.) ;
#413=ORIENTED_EDGE('',*,*,#367,.T.) ;
#414=ORIENTED_EDGE('',*,*,#411,.F.) ;
#415=ORIENTED_EDGE('',*,*,#308,.F.) ;
#416=ORIENTED_EDGE('',*,*,#389,.T.) ;
#430=ORIENTED_EDGE('',*,*,#360,.T.) ;
#431=ORIENTED_EDGE('',*,*,#428,.F.) ;
#432=ORIENTED_EDGE('',*,*,#315,.F.) ;
#433=ORIENTED_EDGE('',*,*,#411,.T.) ;
#442=ORIENTED_EDGE('',*,*,#353,.T.) ;
#443=ORIENTED_EDGE('',*,*,#394,.F.) ;
#444=ORIENTED_EDGE('',*,*,#320,.F.) ;
#445=ORIENTED_EDGE('',*,*,#428,.T.) ;
#332=FACE_BOUND('',#327,.T.) ;
#338=FACE_BOUND('',#333,.T.) ;
#30=CLOSED_SHELL('Closed Shell',(#70,#101,#125,#149,#166,#206,#232,#251,#270,#287,#339,#379,#401,#418,#435,#447)) ;
#448=ADVANCED_BREP_SHAPE_REPRESENTATION('NONE',(#21),#16) ;
#70=ADVANCED_FACE('S3D_GEDREHT',(#69),#35,.T.) ;
#101=ADVANCED_FACE('S3D_GEDREHT',(#100),#75,.T.) ;
#125=ADVANCED_FACE('S3D_GEDREHT',(#124),#106,.F.) ;
#149=ADVANCED_FACE('S3D_GEDREHT',(#148),#130,.T.) ;
#166=ADVANCED_FACE('S3D_GEDREHT',(#165),#154,.T.) ;
#206=ADVANCED_FACE('S3D_GEDREHT',(#205),#171,.F.) ;
#232=ADVANCED_FACE('S3D_GEDREHT',(#231),#75,.T.) ;
#251=ADVANCED_FACE('S3D_GEDREHT',(#250),#106,.F.) ;
#270=ADVANCED_FACE('S3D_GEDREHT',(#269),#130,.T.) ;
#287=ADVANCED_FACE('S3D_GEDREHT',(#286),#275,.F.) ;
#339=ADVANCED_FACE('S3D_GEDREHT',(#326,#332,#338),#292,.F.) ;
#379=ADVANCED_FACE('S3D_GEDREHT',(#378),#344,.T.) ;
#401=ADVANCED_FACE('S3D_GEDREHT',(#400),#384,.F.) ;
#418=ADVANCED_FACE('S3D_GEDREHT',(#417),#406,.T.) ;
#435=ADVANCED_FACE('S3D_GEDREHT',(#434),#423,.T.) ;
#447=ADVANCED_FACE('S3D_GEDREHT',(#446),#440,.T.) ;
#4=APPLICATION_PROTOCOL_DEFINITION('international standard','automotive_design',2001,#1) ;
#21=MANIFOLD_SOLID_BREP('S3D_GEDREHT',#30) ;
#22=DRAUGHTING_PRE_DEFINED_COLOUR('white') ;
#44=EDGE_CURVE('',#41,#43,#39,.T.) ;
#51=EDGE_CURVE('',#41,#50,#48,.T.) ;
#58=EDGE_CURVE('',#50,#57,#55,.T.) ;
#63=EDGE_CURVE('',#43,#57,#62,.T.) ;
#84=EDGE_CURVE('',#81,#83,#79,.T.) ;
#89=EDGE_CURVE('',#81,#41,#88,.T.) ;
#94=EDGE_CURVE('',#83,#43,#93,.T.) ;
#113=EDGE_CURVE('',#112,#81,#110,.T.) ;
#118=EDGE_CURVE('',#50,#112,#117,.T.) ;
#137=EDGE_CURVE('',#57,#136,#134,.T.) ;
#142=EDGE_CURVE('',#136,#83,#141,.T.) ;
#159=EDGE_CURVE('',#112,#136,#158,.T.) ;
#180=EDGE_CURVE('',#177,#179,#175,.T.) ;
#187=EDGE_CURVE('',#186,#179,#184,.T.) ;
#194=EDGE_CURVE('',#193,#186,#191,.T.) ;
#199=EDGE_CURVE('',#193,#177,#198,.T.) ;
#213=EDGE_CURVE('',#212,#177,#210,.T.) ;
#220=EDGE_CURVE('',#219,#193,#217,.T.) ;
#225=EDGE_CURVE('',#219,#212,#224,.T.) ;
#239=EDGE_CURVE('',#186,#238,#236,.T.) ;
#244=EDGE_CURVE('',#238,#219,#243,.T.) ;
#258=EDGE_CURVE('',#257,#212,#255,.T.) ;
#263=EDGE_CURVE('',#179,#257,#262,.T.) ;
#280=EDGE_CURVE('',#238,#257,#279,.T.) ;
#301=EDGE_CURVE('',#298,#300,#296,.T.) ;
#308=EDGE_CURVE('',#300,#307,#305,.F.) ;
#315=EDGE_CURVE('',#307,#314,#312,.F.) ;
#320=EDGE_CURVE('',#314,#298,#319,.F.) ;
#353=EDGE_CURVE('',#350,#352,#348,.F.) ;
#360=EDGE_CURVE('',#359,#350,#357,.F.) ;
#367=EDGE_CURVE('',#366,#359,#364,.F.) ;
#372=EDGE_CURVE('',#352,#366,#371,.T.) ;
#389=EDGE_CURVE('',#300,#366,#388,.T.) ;
#394=EDGE_CURVE('',#298,#352,#393,.T.) ;
#411=EDGE_CURVE('',#307,#359,#410,.T.) ;
#428=EDGE_CURVE('',#314,#350,#427,.T.) ;
#64=EDGE_LOOP('',(#65,#66,#67,#68)) ;
#95=EDGE_LOOP('',(#96,#97,#98,#99)) ;
#119=EDGE_LOOP('',(#120,#121,#122,#123)) ;
#143=EDGE_LOOP('',(#144,#145,#146,#147)) ;
#160=EDGE_LOOP('',(#161,#162,#163,#164)) ;
#200=EDGE_LOOP('',(#201,#202,#203,#204)) ;
#226=EDGE_LOOP('',(#227,#228,#229,#230)) ;
#245=EDGE_LOOP('',(#246,#247,#248,#249)) ;
#264=EDGE_LOOP('',(#265,#266,#267,#268)) ;
#281=EDGE_LOOP('',(#282,#283,#284,#285)) ;
#321=EDGE_LOOP('',(#322,#323,#324,#325)) ;
#327=EDGE_LOOP('',(#328,#329,#330,#331)) ;
#333=EDGE_LOOP('',(#334,#335,#336,#337)) ;
#373=EDGE_LOOP('',(#374,#375,#376,#377)) ;
#395=EDGE_LOOP('',(#396,#397,#398,#399)) ;
#412=EDGE_LOOP('',(#413,#414,#415,#416)) ;
#429=EDGE_LOOP('',(#430,#431,#432,#433)) ;
#441=EDGE_LOOP('',(#442,#443,#444,#445)) ;
#69=FACE_OUTER_BOUND('',#64,.T.) ;
#100=FACE_OUTER_BOUND('',#95,.T.) ;
#124=FACE_OUTER_BOUND('',#119,.T.) ;
#148=FACE_OUTER_BOUND('',#143,.T.) ;
#165=FACE_OUTER_BOUND('',#160,.T.) ;
#205=FACE_OUTER_BOUND('',#200,.T.) ;
#231=FACE_OUTER_BOUND('',#226,.T.) ;
#250=FACE_OUTER_BOUND('',#245,.T.) ;
#269=FACE_OUTER_BOUND('',#264,.T.) ;
#286=FACE_OUTER_BOUND('',#281,.T.) ;
#326=FACE_OUTER_BOUND('',#321,.T.) ;
#378=FACE_OUTER_BOUND('',#373,.T.) ;
#400=FACE_OUTER_BOUND('',#395,.T.) ;
#417=FACE_OUTER_BOUND('',#412,.T.) ;
#434=FACE_OUTER_BOUND('',#429,.T.) ;
#446=FACE_OUTER_BOUND('',#441,.T.) ;
#39=LINE('Line',#36,#38) ;
#48=LINE('Line',#45,#47) ;
#55=LINE('Line',#52,#54) ;
#62=LINE('Line',#59,#61) ;
#79=LINE('Line',#76,#78) ;
#88=LINE('Line',#85,#87) ;
#93=LINE('Line',#90,#92) ;
#110=LINE('Line',#107,#109) ;
#117=LINE('Line',#114,#116) ;
#134=LINE('Line',#131,#133) ;
#141=LINE('Line',#138,#140) ;
#158=LINE('Line',#155,#157) ;
#175=LINE('Line',#172,#174) ;
#184=LINE('Line',#181,#183) ;
#191=LINE('Line',#188,#190) ;
#198=LINE('Line',#195,#197) ;
#210=LINE('Line',#207,#209) ;
#217=LINE('Line',#214,#216) ;
#224=LINE('Line',#221,#223) ;
#236=LINE('Line',#233,#235) ;
#243=LINE('Line',#240,#242) ;
#255=LINE('Line',#252,#254) ;
#262=LINE('Line',#259,#261) ;
#279=LINE('Line',#276,#278) ;
#296=LINE('Line',#293,#295) ;
#305=LINE('Line',#302,#304) ;
#312=LINE('Line',#309,#311) ;
#319=LINE('Line',#316,#318) ;
#348=LINE('Line',#345,#347) ;
#357=LINE('Line',#354,#356) ;
#364=LINE('Line',#361,#363) ;
#371=LINE('Line',#368,#370) ;
#388=LINE('Line',#385,#387) ;
#393=LINE('Line',#390,#392) ;
#410=LINE('Line',#407,#409) ;
#427=LINE('Line',#424,#426) ;
#35=PLANE('',#34) ;
#75=PLANE('',#74) ;
#106=PLANE('',#105) ;
#130=PLANE('',#129) ;
#154=PLANE('',#153) ;
#171=PLANE('',#170) ;
#275=PLANE('',#274) ;
#292=PLANE('',#291) ;
#344=PLANE('',#343) ;
#384=PLANE('',#383) ;
#406=PLANE('',#405) ;
#423=PLANE('',#422) ;
#440=PLANE('',#439) ;
#9=PRODUCT_CATEGORY_RELATIONSHIP(' ',' ',#7,#8) ;
#6=PRODUCT_DEFINITION_FORMATION_WITH_SPECIFIED_SOURCE('',' ',#5,.MADE.) ;
#20=SHAPE_DEFINITION_REPRESENTATION(#11,#19) ;
#41=VERTEX_POINT('',#40) ;
#43=VERTEX_POINT('',#42) ;
#50=VERTEX_POINT('',#49) ;
#57=VERTEX_POINT('',#56) ;
#81=VERTEX_POINT('',#80) ;
#83=VERTEX_POINT('',#82) ;
#112=VERTEX_POINT('',#111) ;
#136=VERTEX_POINT('',#135) ;
#177=VERTEX_POINT('',#176) ;
#179=VERTEX_POINT('',#178) ;
#186=VERTEX_POINT('',#185) ;
#193=VERTEX_POINT('',#192) ;
#212=VERTEX_POINT('',#211) ;
#219=VERTEX_POINT('',#218) ;
#238=VERTEX_POINT('',#237) ;
#257=VERTEX_POINT('',#256) ;
#298=VERTEX_POINT('',#297) ;
#300=VERTEX_POINT('',#299) ;
#307=VERTEX_POINT('',#306) ;
#314=VERTEX_POINT('',#313) ;
#350=VERTEX_POINT('',#349) ;
#352=VERTEX_POINT('',#351) ;
#359=VERTEX_POINT('',#358) ;
#366=VERTEX_POINT('',#365) ;
#12=(LENGTH_UNIT()NAMED_UNIT(*)SI_UNIT(.MILLI.,.METRE.)) ;
#13=(NAMED_UNIT(*)PLANE_ANGLE_UNIT()SI_UNIT($,.RADIAN.)) ;
#14=(NAMED_UNIT(*)SI_UNIT($,.STERADIAN.)SOLID_ANGLE_UNIT()) ;
#16=(GEOMETRIC_REPRESENTATION_CONTEXT(3)GLOBAL_UNCERTAINTY_ASSIGNED_CONTEXT((#15))GLOBAL_UNIT_ASSIGNED_CONTEXT((#12,#13,#14))REPRESENTATION_CONTEXT(' ',' ')) ;
ENDSEC;
END-ISO-10303-21;
