ISO-10303-21;
HEADER;
FILE_DESCRIPTION(('CATIA V5 STEP Exchange','CAx-IF Rec.Pracs.--- Model Styling and Organization---1.5--- 2016-08-15','CAx-IF Rec.Pracs.---Supplemental Geometry---1.0---2011-11-01','CAx-IF Rec.Pracs.--- Composite Materials ---1.1---2010-07-15'),'2;1');

FILE_NAME ('D1445742_0', '2025-09-22T06:14:38+00:00', ('none'), ('Weidmueller'), 'CATIA Version 5-6 Release 2024 SP4', 'CATIA V5 STEP AP214 v3', 'none');

FILE_SCHEMA(('AUTOMOTIVE_DESIGN { 1 0 10303 214 1 1 1 1 }'));

ENDSEC;
DATA;
#5=PRODUCT('v5-standard_part','','',(#2)) ;
#2=PRODUCT_CONTEXT(' ',#1,'mechanical') ;
#1=APPLICATION_CONTEXT('automotive design') ;
#10=PRODUCT_DEFINITION('',' ',#6,#3) ;
#3=PRODUCT_DEFINITION_CONTEXT('part definition',#1,' ') ;
#11=PRODUCT_DEFINITION_SHAPE(' ',' ',#10) ;
#445=MECHANICAL_DESIGN_GEOMETRIC_PRESENTATION_REPRESENTATION(' ',(#29),#16) ;
#19=SHAPE_REPRESENTATION(' ',(#18),#16) ;
#18=AXIS2_PLACEMENT_3D(' ',#17,$,$) ;
#35=AXIS2_PLACEMENT_3D('Plane Axis2P3D',#32,#33,#34) ;
#75=AXIS2_PLACEMENT_3D('Cylinder Axis2P3D',#72,#73,#74) ;
#88=AXIS2_PLACEMENT_3D('Circle Axis2P3D',#86,#87,$) ;
#93=AXIS2_PLACEMENT_3D('Circle Axis2P3D',#91,#92,$) ;
#106=AXIS2_PLACEMENT_3D('Plane Axis2P3D',#103,#104,#105) ;
#117=AXIS2_PLACEMENT_3D('Circle Axis2P3D',#115,#116,$) ;
#124=AXIS2_PLACEMENT_3D('Circle Axis2P3D',#122,#123,$) ;
#131=AXIS2_PLACEMENT_3D('Circle Axis2P3D',#129,#130,$) ;
#138=AXIS2_PLACEMENT_3D('Circle Axis2P3D',#136,#137,$) ;
#145=AXIS2_PLACEMENT_3D('Circle Axis2P3D',#143,#144,$) ;
#152=AXIS2_PLACEMENT_3D('Circle Axis2P3D',#150,#151,$) ;
#159=AXIS2_PLACEMENT_3D('Circle Axis2P3D',#157,#158,$) ;
#176=AXIS2_PLACEMENT_3D('Circle Axis2P3D',#174,#175,$) ;
#185=AXIS2_PLACEMENT_3D('Circle Axis2P3D',#183,#184,$) ;
#196=AXIS2_PLACEMENT_3D('Cylinder Axis2P3D',#193,#194,#195) ;
#207=AXIS2_PLACEMENT_3D('Circle Axis2P3D',#205,#206,$) ;
#220=AXIS2_PLACEMENT_3D('Plane Axis2P3D',#217,#218,#219) ;
#224=AXIS2_PLACEMENT_3D('Circle Axis2P3D',#222,#223,$) ;
#231=AXIS2_PLACEMENT_3D('Circle Axis2P3D',#229,#230,$) ;
#238=AXIS2_PLACEMENT_3D('Circle Axis2P3D',#236,#237,$) ;
#245=AXIS2_PLACEMENT_3D('Circle Axis2P3D',#243,#244,$) ;
#252=AXIS2_PLACEMENT_3D('Circle Axis2P3D',#250,#251,$) ;
#259=AXIS2_PLACEMENT_3D('Circle Axis2P3D',#257,#258,$) ;
#283=AXIS2_PLACEMENT_3D('Circle Axis2P3D',#281,#282,$) ;
#292=AXIS2_PLACEMENT_3D('Circle Axis2P3D',#290,#291,$) ;
#303=AXIS2_PLACEMENT_3D('Plane Axis2P3D',#300,#301,#302) ;
#320=AXIS2_PLACEMENT_3D('Cylinder Axis2P3D',#317,#318,#319) ;
#337=AXIS2_PLACEMENT_3D('Cylinder Axis2P3D',#334,#335,#336) ;
#354=AXIS2_PLACEMENT_3D('Cylinder Axis2P3D',#351,#352,#353) ;
#371=AXIS2_PLACEMENT_3D('Cylinder Axis2P3D',#368,#369,#370) ;
#388=AXIS2_PLACEMENT_3D('Cylinder Axis2P3D',#385,#386,#387) ;
#405=AXIS2_PLACEMENT_3D('Cylinder Axis2P3D',#402,#403,#404) ;
#417=AXIS2_PLACEMENT_3D('Cylinder Axis2P3D',#414,#415,#416) ;
#17=CARTESIAN_POINT(' ',(0.,0.,0.)) ;
#32=CARTESIAN_POINT('Axis2P3D Location',(4.,8.,1.5)) ;
#37=CARTESIAN_POINT('Line Origine',(4.,8.,0.75)) ;
#41=CARTESIAN_POINT('Vertex',(4.,8.,1.5)) ;
#43=CARTESIAN_POINT('Vertex',(4.,8.,0.)) ;
#46=CARTESIAN_POINT('Line Origine',(10.,8.,1.5)) ;
#50=CARTESIAN_POINT('Vertex',(16.,8.,1.5)) ;
#53=CARTESIAN_POINT('Line Origine',(16.,8.,0.75)) ;
#57=CARTESIAN_POINT('Vertex',(16.,8.,1.55431223448E-15)) ;
#60=CARTESIAN_POINT('Line Origine',(10.,8.,7.77156117238E-16)) ;
#72=CARTESIAN_POINT('Axis2P3D Location',(4.,4.,0.75)) ;
#77=CARTESIAN_POINT('Line Origine',(4.,0.,0.75)) ;
#81=CARTESIAN_POINT('Vertex',(4.,0.,1.5)) ;
#83=CARTESIAN_POINT('Vertex',(4.,-4.04173341248E-44,0.)) ;
#86=CARTESIAN_POINT('Axis2P3D Location',(4.,4.,1.5)) ;
#91=CARTESIAN_POINT('Axis2P3D Location',(4.,4.,0.)) ;
#103=CARTESIAN_POINT('Axis2P3D Location',(4.,4.,1.5)) ;
#108=CARTESIAN_POINT('Line Origine',(8.1895703841,0.,1.5)) ;
#112=CARTESIAN_POINT('Vertex',(12.3791407674,1.11022302463E-16,1.5)) ;
#115=CARTESIAN_POINT('Axis2P3D Location',(12.3791407656,1.00000000306,1.5)) ;
#119=CARTESIAN_POINT('Vertex',(13.3206172581,0.66292134831,1.5)) ;
#122=CARTESIAN_POINT('Axis2P3D Location',(3.99999994026,4.00000001057,1.5)) ;
#126=CARTESIAN_POINT('Vertex',(13.9,4.,1.5)) ;
#129=CARTESIAN_POINT('Axis2P3D Location',(16.,4.,1.5)) ;
#133=CARTESIAN_POINT('Vertex',(18.1,4.,1.5)) ;
#136=CARTESIAN_POINT('Axis2P3D Location',(3.99999983032,4.0000000128,1.5)) ;
#140=CARTESIAN_POINT('Vertex',(17.807419605,1.14252491694,1.5)) ;
#143=CARTESIAN_POINT('Axis2P3D Location',(18.7377067422,0.949999999817,1.5)) ;
#147=CARTESIAN_POINT('Vertex',(19.6679938781,0.757475083046,1.5)) ;
#150=CARTESIAN_POINT('Axis2P3D Location',(4.0000000676,3.99999998945,1.5)) ;
#154=CARTESIAN_POINT('Vertex',(20.,4.,1.5)) ;
#157=CARTESIAN_POINT('Axis2P3D Location',(16.0000000001,4.00000000008,1.5)) ;
#174=CARTESIAN_POINT('Axis2P3D Location',(4.,4.,1.5)) ;
#178=CARTESIAN_POINT('Vertex',(1.9,4.,1.5)) ;
#180=CARTESIAN_POINT('Vertex',(6.1,4.,1.5)) ;
#183=CARTESIAN_POINT('Axis2P3D Location',(4.,4.,1.5)) ;
#193=CARTESIAN_POINT('Axis2P3D Location',(16.,4.,0.75)) ;
#198=CARTESIAN_POINT('Line Origine',(20.,4.,0.75)) ;
#202=CARTESIAN_POINT('Vertex',(20.,4.,4.8985871966E-16)) ;
#205=CARTESIAN_POINT('Axis2P3D Location',(16.,4.,0.)) ;
#217=CARTESIAN_POINT('Axis2P3D Location',(4.,4.,8.881784197E-16)) ;
#222=CARTESIAN_POINT('Axis2P3D Location',(4.0000000676,3.99999998945,8.88178427978E-16)) ;
#226=CARTESIAN_POINT('Vertex',(19.6679938781,0.757475083046,1.91877585519E-15)) ;
#229=CARTESIAN_POINT('Axis2P3D Location',(18.7377067422,0.949999999817,2.69302695856E-15)) ;
#233=CARTESIAN_POINT('Vertex',(17.807419605,1.14252491694,-1.13927316402E-16)) ;
#236=CARTESIAN_POINT('Axis2P3D Location',(3.99999983032,4.0000000128,8.8817839892E-16)) ;
#240=CARTESIAN_POINT('Vertex',(18.1,4.,1.7267519868E-15)) ;
#243=CARTESIAN_POINT('Axis2P3D Location',(16.,4.,2.35775457868E-15)) ;
#247=CARTESIAN_POINT('Vertex',(13.9,4.,-2.57175827822E-16)) ;
#250=CARTESIAN_POINT('Axis2P3D Location',(3.99999994026,4.00000001057,8.88178412384E-16)) ;
#254=CARTESIAN_POINT('Vertex',(13.3206172581,0.66292134831,1.14144640913E-15)) ;
#257=CARTESIAN_POINT('Axis2P3D Location',(12.3791407656,1.00000000306,1.91432721152E-15)) ;
#261=CARTESIAN_POINT('Vertex',(12.3791407674,1.11022302463E-16,-2.22044604925E-16)) ;
#264=CARTESIAN_POINT('Line Origine',(8.1895703841,0.,1.40125281577E-15)) ;
#281=CARTESIAN_POINT('Axis2P3D Location',(4.,4.,8.881784197E-16)) ;
#285=CARTESIAN_POINT('Vertex',(6.1,4.,1.14535424752E-15)) ;
#287=CARTESIAN_POINT('Vertex',(1.9,4.,-2.57175827822E-16)) ;
#290=CARTESIAN_POINT('Axis2P3D Location',(4.,4.,8.881784197E-16)) ;
#300=CARTESIAN_POINT('Axis2P3D Location',(4.,0.,1.5)) ;
#305=CARTESIAN_POINT('Line Origine',(12.3791407682,-8.88178419785E-16,0.75)) ;
#317=CARTESIAN_POINT('Axis2P3D Location',(12.3791407674,1.,0.75)) ;
#322=CARTESIAN_POINT('Line Origine',(13.3206172581,0.662921348315,0.75)) ;
#334=CARTESIAN_POINT('Axis2P3D Location',(4.,4.,0.75)) ;
#339=CARTESIAN_POINT('Line Origine',(13.9,4.,0.75)) ;
#351=CARTESIAN_POINT('Axis2P3D Location',(16.,4.,0.75)) ;
#356=CARTESIAN_POINT('Line Origine',(18.1,4.,0.75)) ;
#368=CARTESIAN_POINT('Axis2P3D Location',(4.,4.,0.75)) ;
#373=CARTESIAN_POINT('Line Origine',(17.807419605,1.14252491693,0.75)) ;
#385=CARTESIAN_POINT('Axis2P3D Location',(18.7377067415,0.95,0.75)) ;
#390=CARTESIAN_POINT('Line Origine',(19.667993878,0.757475083056,0.75)) ;
#402=CARTESIAN_POINT('Axis2P3D Location',(4.,4.,0.75)) ;
#414=CARTESIAN_POINT('Axis2P3D Location',(4.,4.,0.75)) ;
#419=CARTESIAN_POINT('Line Origine',(6.1,4.,0.75)) ;
#424=CARTESIAN_POINT('Line Origine',(1.9,4.,0.75)) ;
#33=DIRECTION('Axis2P3D Direction',(1.48029736617E-16,1.,1.81284143126E-32)) ;
#34=DIRECTION('Axis2P3D XDirection',(1.,-1.48029736617E-16,1.22464679915E-16)) ;
#38=DIRECTION('Vector Direction',(0.,0.,-1.)) ;
#47=DIRECTION('Vector Direction',(1.,-1.48029736617E-16,1.2952601954E-16)) ;
#54=DIRECTION('Vector Direction',(0.,0.,-1.)) ;
#61=DIRECTION('Vector Direction',(1.,-1.48029736617E-16,1.2952601954E-16)) ;
#73=DIRECTION('Axis2P3D Direction',(1.22464679915E-16,5.12959315851E-41,-1.)) ;
#74=DIRECTION('Axis2P3D XDirection',(1.33410459975E-13,-1.,1.63380692781E-29)) ;
#78=DIRECTION('Vector Direction',(1.22464682839E-16,0.,-1.)) ;
#87=DIRECTION('Axis2P3D Direction',(1.22464679915E-16,5.12959315851E-41,-1.)) ;
#92=DIRECTION('Axis2P3D Direction',(1.22464679915E-16,5.12959315851E-41,-1.)) ;
#104=DIRECTION('Axis2P3D Direction',(1.22464679915E-16,0.,-1.)) ;
#105=DIRECTION('Axis2P3D XDirection',(-1.,0.,-1.22464679915E-16)) ;
#109=DIRECTION('Vector Direction',(1.,0.,1.32498433352E-16)) ;
#116=DIRECTION('Axis2P3D Direction',(1.22464679915E-16,0.,-1.)) ;
#123=DIRECTION('Axis2P3D Direction',(1.22464679915E-16,0.,-1.)) ;
#130=DIRECTION('Axis2P3D Direction',(1.22464679915E-16,0.,-1.)) ;
#137=DIRECTION('Axis2P3D Direction',(1.22464679915E-16,0.,-1.)) ;
#144=DIRECTION('Axis2P3D Direction',(1.22464679915E-16,0.,-1.)) ;
#151=DIRECTION('Axis2P3D Direction',(1.22464679915E-16,0.,-1.)) ;
#158=DIRECTION('Axis2P3D Direction',(1.22464679915E-16,0.,-1.)) ;
#175=DIRECTION('Axis2P3D Direction',(1.22464679915E-16,0.,-1.)) ;
#184=DIRECTION('Axis2P3D Direction',(1.22464679915E-16,0.,-1.)) ;
#194=DIRECTION('Axis2P3D Direction',(1.22464679915E-16,9.85337028175E-41,-1.)) ;
#195=DIRECTION('Axis2P3D XDirection',(-1.30623460036E-13,1.,-1.59967602226E-29)) ;
#199=DIRECTION('Vector Direction',(1.22464527408E-16,0.,-1.)) ;
#206=DIRECTION('Axis2P3D Direction',(1.22464679915E-16,9.85337028175E-41,-1.)) ;
#218=DIRECTION('Axis2P3D Direction',(1.22464679915E-16,0.,-1.)) ;
#219=DIRECTION('Axis2P3D XDirection',(-1.,0.,-1.22464679915E-16)) ;
#223=DIRECTION('Axis2P3D Direction',(1.22464679915E-16,0.,-1.)) ;
#230=DIRECTION('Axis2P3D Direction',(1.22464679915E-16,0.,-1.)) ;
#237=DIRECTION('Axis2P3D Direction',(1.22464679915E-16,0.,-1.)) ;
#244=DIRECTION('Axis2P3D Direction',(1.22464679915E-16,0.,-1.)) ;
#251=DIRECTION('Axis2P3D Direction',(1.22464679915E-16,0.,-1.)) ;
#258=DIRECTION('Axis2P3D Direction',(1.22464679915E-16,0.,-1.)) ;
#265=DIRECTION('Vector Direction',(1.,0.,1.22464679915E-16)) ;
#282=DIRECTION('Axis2P3D Direction',(1.22464679915E-16,0.,-1.)) ;
#291=DIRECTION('Axis2P3D Direction',(1.22464679915E-16,0.,-1.)) ;
#301=DIRECTION('Axis2P3D Direction',(1.05998746692E-16,1.,1.2981102585E-32)) ;
#302=DIRECTION('Axis2P3D XDirection',(1.,-1.05998746692E-16,1.22464679915E-16)) ;
#306=DIRECTION('Vector Direction',(0.,0.,-1.)) ;
#318=DIRECTION('Axis2P3D Direction',(1.22464679915E-16,1.76045404357E-28,-1.)) ;
#319=DIRECTION('Axis2P3D XDirection',(0.94147649072,-0.337078651685,1.15297617083E-16)) ;
#323=DIRECTION('Vector Direction',(1.22464705044E-16,0.,-1.)) ;
#335=DIRECTION('Axis2P3D Direction',(1.22464679915E-16,0.,-1.)) ;
#336=DIRECTION('Axis2P3D XDirection',(1.,5.66553889765E-16,1.22464679915E-16)) ;
#340=DIRECTION('Vector Direction',(1.22464705044E-16,0.,-1.)) ;
#352=DIRECTION('Axis2P3D Direction',(1.22464679915E-16,0.,-1.)) ;
#353=DIRECTION('Axis2P3D XDirection',(-1.,-2.44929359829E-16,-1.22464679915E-16)) ;
#357=DIRECTION('Vector Direction',(1.22464705044E-16,0.,-1.)) ;
#369=DIRECTION('Axis2P3D Direction',(1.22464679915E-16,0.,-1.)) ;
#370=DIRECTION('Axis2P3D XDirection',(1.,1.22464679915E-16,1.22464679915E-16)) ;
#374=DIRECTION('Vector Direction',(1.22464705044E-16,0.,-1.)) ;
#386=DIRECTION('Axis2P3D Direction',(1.22464679915E-16,4.16370646537E-29,-1.)) ;
#387=DIRECTION('Axis2P3D XDirection',(0.979249617379,-0.202657807309,1.19923490949E-16)) ;
#391=DIRECTION('Vector Direction',(1.22464527408E-16,0.,-1.)) ;
#403=DIRECTION('Axis2P3D Direction',(1.22464679915E-16,0.,-1.)) ;
#404=DIRECTION('Axis2P3D XDirection',(1.,1.22464679915E-16,1.22464679915E-16)) ;
#415=DIRECTION('Axis2P3D Direction',(1.22464679915E-16,0.,-1.)) ;
#416=DIRECTION('Axis2P3D XDirection',(-1.,0.,-1.22464679915E-16)) ;
#420=DIRECTION('Vector Direction',(1.22464660635E-16,0.,-1.)) ;
#425=DIRECTION('Vector Direction',(1.22464682839E-16,0.,-1.)) ;
#30=PRESENTATION_LAYER_ASSIGNMENT('1',' ',(#21)) ;
#8=PRODUCT_RELATED_PRODUCT_CATEGORY('part',$,(#5)) ;
#7=PRODUCT_CATEGORY('part','specification') ;
#29=STYLED_ITEM(' ',(#28),#21) ;
#28=PRESENTATION_STYLE_ASSIGNMENT((#27)) ;
#27=SURFACE_STYLE_USAGE(.BOTH.,#26) ;
#26=SURFACE_SIDE_STYLE(' ',(#25)) ;
#25=SURFACE_STYLE_FILL_AREA(#24) ;
#24=FILL_AREA_STYLE(' ',(#23)) ;
#23=FILL_AREA_STYLE_COLOUR(' ',#22) ;
#39=VECTOR('Line Direction',#38,1.) ;
#48=VECTOR('Line Direction',#47,1.) ;
#55=VECTOR('Line Direction',#54,1.) ;
#62=VECTOR('Line Direction',#61,1.) ;
#79=VECTOR('Line Direction',#78,1.) ;
#110=VECTOR('Line Direction',#109,1.) ;
#200=VECTOR('Line Direction',#199,1.) ;
#266=VECTOR('Line Direction',#265,1.) ;
#307=VECTOR('Line Direction',#306,1.) ;
#324=VECTOR('Line Direction',#323,1.) ;
#341=VECTOR('Line Direction',#340,1.) ;
#358=VECTOR('Line Direction',#357,1.) ;
#375=VECTOR('Line Direction',#374,1.) ;
#392=VECTOR('Line Direction',#391,1.) ;
#421=VECTOR('Line Direction',#420,1.) ;
#426=VECTOR('Line Direction',#425,1.) ;
#15=UNCERTAINTY_MEASURE_WITH_UNIT(LENGTH_MEASURE(0.005),#12,'distance_accuracy_value','CONFUSED CURVE UNCERTAINTY') ;
#444=SHAPE_REPRESENTATION_RELATIONSHIP(' ',' ',#19,#443) ;
#66=ORIENTED_EDGE('',*,*,#45,.F.) ;
#67=ORIENTED_EDGE('',*,*,#52,.T.) ;
#68=ORIENTED_EDGE('',*,*,#59,.T.) ;
#69=ORIENTED_EDGE('',*,*,#64,.F.) ;
#97=ORIENTED_EDGE('',*,*,#85,.F.) ;
#98=ORIENTED_EDGE('',*,*,#90,.T.) ;
#99=ORIENTED_EDGE('',*,*,#45,.T.) ;
#100=ORIENTED_EDGE('',*,*,#95,.F.) ;
#163=ORIENTED_EDGE('',*,*,#90,.F.) ;
#164=ORIENTED_EDGE('',*,*,#114,.F.) ;
#165=ORIENTED_EDGE('',*,*,#121,.F.) ;
#166=ORIENTED_EDGE('',*,*,#128,.F.) ;
#167=ORIENTED_EDGE('',*,*,#135,.F.) ;
#168=ORIENTED_EDGE('',*,*,#142,.F.) ;
#169=ORIENTED_EDGE('',*,*,#149,.F.) ;
#170=ORIENTED_EDGE('',*,*,#156,.F.) ;
#171=ORIENTED_EDGE('',*,*,#161,.F.) ;
#172=ORIENTED_EDGE('',*,*,#52,.F.) ;
#189=ORIENTED_EDGE('',*,*,#182,.T.) ;
#190=ORIENTED_EDGE('',*,*,#187,.T.) ;
#211=ORIENTED_EDGE('',*,*,#59,.F.) ;
#212=ORIENTED_EDGE('',*,*,#161,.T.) ;
#213=ORIENTED_EDGE('',*,*,#204,.T.) ;
#214=ORIENTED_EDGE('',*,*,#209,.F.) ;
#270=ORIENTED_EDGE('',*,*,#64,.T.) ;
#271=ORIENTED_EDGE('',*,*,#209,.T.) ;
#272=ORIENTED_EDGE('',*,*,#228,.T.) ;
#273=ORIENTED_EDGE('',*,*,#235,.T.) ;
#274=ORIENTED_EDGE('',*,*,#242,.T.) ;
#275=ORIENTED_EDGE('',*,*,#249,.T.) ;
#276=ORIENTED_EDGE('',*,*,#256,.T.) ;
#277=ORIENTED_EDGE('',*,*,#263,.T.) ;
#278=ORIENTED_EDGE('',*,*,#268,.T.) ;
#279=ORIENTED_EDGE('',*,*,#95,.T.) ;
#296=ORIENTED_EDGE('',*,*,#289,.F.) ;
#297=ORIENTED_EDGE('',*,*,#294,.F.) ;
#311=ORIENTED_EDGE('',*,*,#309,.F.) ;
#312=ORIENTED_EDGE('',*,*,#114,.T.) ;
#313=ORIENTED_EDGE('',*,*,#85,.T.) ;
#314=ORIENTED_EDGE('',*,*,#268,.F.) ;
#328=ORIENTED_EDGE('',*,*,#326,.F.) ;
#329=ORIENTED_EDGE('',*,*,#121,.T.) ;
#330=ORIENTED_EDGE('',*,*,#309,.T.) ;
#331=ORIENTED_EDGE('',*,*,#263,.F.) ;
#345=ORIENTED_EDGE('',*,*,#343,.F.) ;
#346=ORIENTED_EDGE('',*,*,#128,.T.) ;
#347=ORIENTED_EDGE('',*,*,#326,.T.) ;
#348=ORIENTED_EDGE('',*,*,#256,.F.) ;
#362=ORIENTED_EDGE('',*,*,#360,.F.) ;
#363=ORIENTED_EDGE('',*,*,#135,.T.) ;
#364=ORIENTED_EDGE('',*,*,#343,.T.) ;
#365=ORIENTED_EDGE('',*,*,#249,.F.) ;
#379=ORIENTED_EDGE('',*,*,#377,.F.) ;
#380=ORIENTED_EDGE('',*,*,#142,.T.) ;
#381=ORIENTED_EDGE('',*,*,#360,.T.) ;
#382=ORIENTED_EDGE('',*,*,#242,.F.) ;
#396=ORIENTED_EDGE('',*,*,#394,.F.) ;
#397=ORIENTED_EDGE('',*,*,#149,.T.) ;
#398=ORIENTED_EDGE('',*,*,#377,.T.) ;
#399=ORIENTED_EDGE('',*,*,#235,.F.) ;
#408=ORIENTED_EDGE('',*,*,#204,.F.) ;
#409=ORIENTED_EDGE('',*,*,#156,.T.) ;
#410=ORIENTED_EDGE('',*,*,#394,.T.) ;
#411=ORIENTED_EDGE('',*,*,#228,.F.) ;
#430=ORIENTED_EDGE('',*,*,#294,.T.) ;
#431=ORIENTED_EDGE('',*,*,#423,.F.) ;
#432=ORIENTED_EDGE('',*,*,#182,.F.) ;
#433=ORIENTED_EDGE('',*,*,#428,.T.) ;
#437=ORIENTED_EDGE('',*,*,#289,.T.) ;
#438=ORIENTED_EDGE('',*,*,#428,.F.) ;
#439=ORIENTED_EDGE('',*,*,#187,.F.) ;
#440=ORIENTED_EDGE('',*,*,#423,.T.) ;
#191=FACE_BOUND('',#188,.T.) ;
#298=FACE_BOUND('',#295,.T.) ;
#31=CLOSED_SHELL('Closed Shell',(#71,#102,#192,#216,#299,#316,#333,#350,#367,#384,#401,#413,#435,#442)) ;
#443=ADVANCED_BREP_SHAPE_REPRESENTATION('NONE',(#21),#16) ;
#71=ADVANCED_FACE('Koerper.2',(#70),#36,.T.) ;
#102=ADVANCED_FACE('Koerper.2',(#101),#76,.T.) ;
#192=ADVANCED_FACE('Koerper.2',(#173,#191),#107,.F.) ;
#216=ADVANCED_FACE('Koerper.2',(#215),#197,.T.) ;
#299=ADVANCED_FACE('Koerper.2',(#280,#298),#221,.T.) ;
#316=ADVANCED_FACE('Koerper.2',(#315),#304,.F.) ;
#333=ADVANCED_FACE('Koerper.2',(#332),#321,.T.) ;
#350=ADVANCED_FACE('Koerper.2',(#349),#338,.T.) ;
#367=ADVANCED_FACE('Koerper.2',(#366),#355,.F.) ;
#384=ADVANCED_FACE('Koerper.2',(#383),#372,.F.) ;
#401=ADVANCED_FACE('Koerper.2',(#400),#389,.T.) ;
#413=ADVANCED_FACE('Koerper.2',(#412),#406,.T.) ;
#435=ADVANCED_FACE('Koerper.2',(#434),#418,.F.) ;
#442=ADVANCED_FACE('Koerper.2',(#441),#418,.F.) ;
#4=APPLICATION_PROTOCOL_DEFINITION('international standard','automotive_design',2001,#1) ;
#21=MANIFOLD_SOLID_BREP('Koerper.2',#31) ;
#89=CIRCLE('generated circle',#88,4.) ;
#94=CIRCLE('generated circle',#93,4.) ;
#118=CIRCLE('generated circle',#117,1.00000000306) ;
#125=CIRCLE('generated circle',#124,9.90000006011) ;
#132=CIRCLE('generated circle',#131,2.09999999963) ;
#139=CIRCLE('generated circle',#138,14.1000001693) ;
#146=CIRCLE('generated circle',#145,0.950000000091) ;
#153=CIRCLE('generated circle',#152,15.9999999324) ;
#160=CIRCLE('generated circle',#159,3.99999999992) ;
#177=CIRCLE('generated circle',#176,2.09999999963) ;
#186=CIRCLE('generated circle',#185,2.09999999963) ;
#208=CIRCLE('generated circle',#207,4.) ;
#225=CIRCLE('generated circle',#224,15.9999999324) ;
#232=CIRCLE('generated circle',#231,0.950000000091) ;
#239=CIRCLE('generated circle',#238,14.1000001693) ;
#246=CIRCLE('generated circle',#245,2.09999999963) ;
#253=CIRCLE('generated circle',#252,9.90000006011) ;
#260=CIRCLE('generated circle',#259,1.00000000306) ;
#284=CIRCLE('generated circle',#283,2.09999999963) ;
#293=CIRCLE('generated circle',#292,2.09999999963) ;
#22=COLOUR_RGB('Colour',0.823529411765,0.823529411765,1.) ;
#76=CYLINDRICAL_SURFACE('generated cylinder',#75,4.) ;
#197=CYLINDRICAL_SURFACE('generated cylinder',#196,4.) ;
#321=CYLINDRICAL_SURFACE('generated cylinder',#320,1.) ;
#338=CYLINDRICAL_SURFACE('generated cylinder',#337,9.9) ;
#355=CYLINDRICAL_SURFACE('generated cylinder',#354,2.1) ;
#372=CYLINDRICAL_SURFACE('generated cylinder',#371,14.1) ;
#389=CYLINDRICAL_SURFACE('generated cylinder',#388,0.95) ;
#406=CYLINDRICAL_SURFACE('generated cylinder',#405,16.) ;
#418=CYLINDRICAL_SURFACE('generated cylinder',#417,2.1) ;
#45=EDGE_CURVE('',#42,#44,#40,.T.) ;
#52=EDGE_CURVE('',#42,#51,#49,.T.) ;
#59=EDGE_CURVE('',#51,#58,#56,.T.) ;
#64=EDGE_CURVE('',#44,#58,#63,.T.) ;
#85=EDGE_CURVE('',#82,#84,#80,.T.) ;
#90=EDGE_CURVE('',#82,#42,#89,.T.) ;
#95=EDGE_CURVE('',#84,#44,#94,.T.) ;
#114=EDGE_CURVE('',#113,#82,#111,.F.) ;
#121=EDGE_CURVE('',#120,#113,#118,.T.) ;
#128=EDGE_CURVE('',#127,#120,#125,.T.) ;
#135=EDGE_CURVE('',#134,#127,#132,.F.) ;
#142=EDGE_CURVE('',#141,#134,#139,.F.) ;
#149=EDGE_CURVE('',#148,#141,#146,.T.) ;
#156=EDGE_CURVE('',#155,#148,#153,.T.) ;
#161=EDGE_CURVE('',#51,#155,#160,.T.) ;
#182=EDGE_CURVE('',#179,#181,#177,.T.) ;
#187=EDGE_CURVE('',#181,#179,#186,.T.) ;
#204=EDGE_CURVE('',#155,#203,#201,.T.) ;
#209=EDGE_CURVE('',#58,#203,#208,.T.) ;
#228=EDGE_CURVE('',#203,#227,#225,.T.) ;
#235=EDGE_CURVE('',#227,#234,#232,.T.) ;
#242=EDGE_CURVE('',#234,#241,#239,.F.) ;
#249=EDGE_CURVE('',#241,#248,#246,.F.) ;
#256=EDGE_CURVE('',#248,#255,#253,.T.) ;
#263=EDGE_CURVE('',#255,#262,#260,.T.) ;
#268=EDGE_CURVE('',#262,#84,#267,.F.) ;
#289=EDGE_CURVE('',#286,#288,#284,.T.) ;
#294=EDGE_CURVE('',#288,#286,#293,.T.) ;
#309=EDGE_CURVE('',#113,#262,#308,.T.) ;
#326=EDGE_CURVE('',#120,#255,#325,.T.) ;
#343=EDGE_CURVE('',#127,#248,#342,.T.) ;
#360=EDGE_CURVE('',#134,#241,#359,.T.) ;
#377=EDGE_CURVE('',#141,#234,#376,.T.) ;
#394=EDGE_CURVE('',#148,#227,#393,.T.) ;
#423=EDGE_CURVE('',#181,#286,#422,.T.) ;
#428=EDGE_CURVE('',#179,#288,#427,.T.) ;
#65=EDGE_LOOP('',(#66,#67,#68,#69)) ;
#96=EDGE_LOOP('',(#97,#98,#99,#100)) ;
#162=EDGE_LOOP('',(#163,#164,#165,#166,#167,#168,#169,#170,#171,#172)) ;
#188=EDGE_LOOP('',(#189,#190)) ;
#210=EDGE_LOOP('',(#211,#212,#213,#214)) ;
#269=EDGE_LOOP('',(#270,#271,#272,#273,#274,#275,#276,#277,#278,#279)) ;
#295=EDGE_LOOP('',(#296,#297)) ;
#310=EDGE_LOOP('',(#311,#312,#313,#314)) ;
#327=EDGE_LOOP('',(#328,#329,#330,#331)) ;
#344=EDGE_LOOP('',(#345,#346,#347,#348)) ;
#361=EDGE_LOOP('',(#362,#363,#364,#365)) ;
#378=EDGE_LOOP('',(#379,#380,#381,#382)) ;
#395=EDGE_LOOP('',(#396,#397,#398,#399)) ;
#407=EDGE_LOOP('',(#408,#409,#410,#411)) ;
#429=EDGE_LOOP('',(#430,#431,#432,#433)) ;
#436=EDGE_LOOP('',(#437,#438,#439,#440)) ;
#70=FACE_OUTER_BOUND('',#65,.T.) ;
#101=FACE_OUTER_BOUND('',#96,.T.) ;
#173=FACE_OUTER_BOUND('',#162,.T.) ;
#215=FACE_OUTER_BOUND('',#210,.T.) ;
#280=FACE_OUTER_BOUND('',#269,.T.) ;
#315=FACE_OUTER_BOUND('',#310,.T.) ;
#332=FACE_OUTER_BOUND('',#327,.T.) ;
#349=FACE_OUTER_BOUND('',#344,.T.) ;
#366=FACE_OUTER_BOUND('',#361,.T.) ;
#383=FACE_OUTER_BOUND('',#378,.T.) ;
#400=FACE_OUTER_BOUND('',#395,.T.) ;
#412=FACE_OUTER_BOUND('',#407,.T.) ;
#434=FACE_OUTER_BOUND('',#429,.T.) ;
#441=FACE_OUTER_BOUND('',#436,.T.) ;
#40=LINE('Line',#37,#39) ;
#49=LINE('Line',#46,#48) ;
#56=LINE('Line',#53,#55) ;
#63=LINE('Line',#60,#62) ;
#80=LINE('Line',#77,#79) ;
#111=LINE('Line',#108,#110) ;
#201=LINE('Line',#198,#200) ;
#267=LINE('Line',#264,#266) ;
#308=LINE('Line',#305,#307) ;
#325=LINE('Line',#322,#324) ;
#342=LINE('Line',#339,#341) ;
#359=LINE('Line',#356,#358) ;
#376=LINE('Line',#373,#375) ;
#393=LINE('Line',#390,#392) ;
#422=LINE('Line',#419,#421) ;
#427=LINE('Line',#424,#426) ;
#36=PLANE('',#35) ;
#107=PLANE('',#106) ;
#221=PLANE('',#220) ;
#304=PLANE('',#303) ;
#9=PRODUCT_CATEGORY_RELATIONSHIP(' ',' ',#7,#8) ;
#6=PRODUCT_DEFINITION_FORMATION_WITH_SPECIFIED_SOURCE('',' ',#5,.NOT_KNOWN.) ;
#20=SHAPE_DEFINITION_REPRESENTATION(#11,#19) ;
#42=VERTEX_POINT('',#41) ;
#44=VERTEX_POINT('',#43) ;
#51=VERTEX_POINT('',#50) ;
#58=VERTEX_POINT('',#57) ;
#82=VERTEX_POINT('',#81) ;
#84=VERTEX_POINT('',#83) ;
#113=VERTEX_POINT('',#112) ;
#120=VERTEX_POINT('',#119) ;
#127=VERTEX_POINT('',#126) ;
#134=VERTEX_POINT('',#133) ;
#141=VERTEX_POINT('',#140) ;
#148=VERTEX_POINT('',#147) ;
#155=VERTEX_POINT('',#154) ;
#179=VERTEX_POINT('',#178) ;
#181=VERTEX_POINT('',#180) ;
#203=VERTEX_POINT('',#202) ;
#227=VERTEX_POINT('',#226) ;
#234=VERTEX_POINT('',#233) ;
#241=VERTEX_POINT('',#240) ;
#248=VERTEX_POINT('',#247) ;
#255=VERTEX_POINT('',#254) ;
#262=VERTEX_POINT('',#261) ;
#286=VERTEX_POINT('',#285) ;
#288=VERTEX_POINT('',#287) ;
#12=(LENGTH_UNIT()NAMED_UNIT(*)SI_UNIT(.MILLI.,.METRE.)) ;
#13=(NAMED_UNIT(*)PLANE_ANGLE_UNIT()SI_UNIT($,.RADIAN.)) ;
#14=(NAMED_UNIT(*)SI_UNIT($,.STERADIAN.)SOLID_ANGLE_UNIT()) ;
#16=(GEOMETRIC_REPRESENTATION_CONTEXT(3)GLOBAL_UNCERTAINTY_ASSIGNED_CONTEXT((#15))GLOBAL_UNIT_ASSIGNED_CONTEXT((#12,#13,#14))REPRESENTATION_CONTEXT(' ',' ')) ;
ENDSEC;
END-ISO-10303-21;
