ISO-10303-21;
HEADER;
FILE_DESCRIPTION(('CATIA V5R19 STEP'),'2;1');

FILE_NAME ('D1450994_0', '2015-02-20T08:21:00+00:00', ('Weidmueller Interface'), ('Weidmueller'), 'CATIA Version 5 Release 20 SP 5 (IN-10)', 'CATIA V5 STEP AP214', 'none');

FILE_SCHEMA(('AUTOMOTIVE_DESIGN { 1 0 10303 214 1 1 1 1 }'));

ENDSEC;
/* file written by CATIA V5R20 */
DATA;
#5=PRODUCT('SM 42/42-30','','GERAETEMARKIERER\X2\000D\X0\\X2\000A\X0\<Q-CHECKER_SEAL> Q-Checker Version 2.14.8  \X2\000D\X0\\X2\000A\X0\CATIA-Version         : Catia V5 R20 SP5 Build Date 01-14-2011.22.00\X2\000D\X0\\X2\000A\X0\Model size (in KByte) : 0\X2\000D\X0\\X2\000A\X0\Checking date         : 2011-12-12 07:45:28\X2\000D\X0\\X2\000A\X0\Checking profile      : ADMIN / Release_2D-3D [CATPart]\X2\000D\X0\\X2\000A\X0\Model assessment      : In Ordnung (IO)\X2\000D\X0\\X2\000A\X0\Total weight sum      : 0\X2\000D\X0\\X2\000A\X0\<CROSS_CHECK_SUM>\X2\000D\X0\\X2\000A\X0\  <CHKSUM_DATE> -1571068916 </CHKSUM_DATE>\X2\000D\X0\\X2\000A\X0\  <CHKSUM_ENTITIES> 719046476 </CHKSUM_ENTITIES>\X2\000D\X0\\X2\000A\X0\  <CHKSUM_PROFILE> 1594213346 </CHKSUM_PROFILE>\X2\000D\X0\\X2\000A\X0\  <CHKSUM_DIMENSION> -186917087 </CHKSUM_DIMENSION>\X2\000D\X0\\X2\000A\X0\  <CHKSUM_PROJINTERSEC> -896974048 </CHKSUM_PROJINTERSEC>\X2\000D\X0\\X2\000A\X0\  <CHKSUM_IDENTCRV> -896974048 </CHKSUM_IDENTCRV>\X2\000D\X0\\X2\000A\X0\  <CHKSUM_INFINITY> 138018827 </CHKSUM_INFINITY>\X2\000D\X0\\X2\000A\X0\</CROSS_CHECK_SUM>\X2\000D\X0\\X2\000A\X0\</Q-CHECKER_SEAL> \X2\000D\X0\\X2\000A\X0\ \X2\000D\X0\\X2\000A\X0\ \X2\000D\X0\\X2\000A\X0\ \X2\000D\X0\\X2\000A\X0\ \X2\000D\X0\\X2\000A\X0\ \X2\000D\X0\\X2\000A\X0\ \X2\000D\X0\\X2\000A\X0\ \X2\000D\X0\\X2\000A\X0\ \X2\000D\X0\\X2\000A\X0\',(#2)) ;
#2=PRODUCT_CONTEXT(' ',#1,'mechanical') ;
#1=APPLICATION_CONTEXT('automotive design') ;
#10=PRODUCT_DEFINITION('54569',' ',#6,#3) ;
#3=PRODUCT_DEFINITION_CONTEXT('part definition',#1,' ') ;
#11=PRODUCT_DEFINITION_SHAPE(' ',' ',#10) ;
#385=MECHANICAL_DESIGN_GEOMETRIC_PRESENTATION_REPRESENTATION(' ',(#30),#17) ;
#20=SHAPE_REPRESENTATION(' ',(#19),#17) ;
#19=AXIS2_PLACEMENT_3D(' ',#18,$,$) ;
#36=AXIS2_PLACEMENT_3D('Cylinder Axis2P3D',#33,#34,#35) ;
#40=AXIS2_PLACEMENT_3D('Circle Axis2P3D',#38,#39,$) ;
#56=AXIS2_PLACEMENT_3D('Circle Axis2P3D',#54,#55,$) ;
#76=AXIS2_PLACEMENT_3D('Plane Axis2P3D',#73,#74,#75) ;
#87=AXIS2_PLACEMENT_3D('Circle Axis2P3D',#85,#86,$) ;
#101=AXIS2_PLACEMENT_3D('Circle Axis2P3D',#99,#100,$) ;
#115=AXIS2_PLACEMENT_3D('Circle Axis2P3D',#113,#114,$) ;
#137=AXIS2_PLACEMENT_3D('Circle Axis2P3D',#135,#136,$) ;
#146=AXIS2_PLACEMENT_3D('Circle Axis2P3D',#144,#145,$) ;
#157=AXIS2_PLACEMENT_3D('Plane Axis2P3D',#154,#155,#156) ;
#181=AXIS2_PLACEMENT_3D('Plane Axis2P3D',#178,#179,#180) ;
#185=AXIS2_PLACEMENT_3D('Circle Axis2P3D',#183,#184,$) ;
#199=AXIS2_PLACEMENT_3D('Circle Axis2P3D',#197,#198,$) ;
#213=AXIS2_PLACEMENT_3D('Circle Axis2P3D',#211,#212,$) ;
#235=AXIS2_PLACEMENT_3D('Circle Axis2P3D',#233,#234,$) ;
#244=AXIS2_PLACEMENT_3D('Circle Axis2P3D',#242,#243,$) ;
#255=AXIS2_PLACEMENT_3D('Plane Axis2P3D',#252,#253,#254) ;
#272=AXIS2_PLACEMENT_3D('Cylinder Axis2P3D',#269,#270,#271) ;
#289=AXIS2_PLACEMENT_3D('Plane Axis2P3D',#286,#287,#288) ;
#306=AXIS2_PLACEMENT_3D('Cylinder Axis2P3D',#303,#304,#305) ;
#323=AXIS2_PLACEMENT_3D('Plane Axis2P3D',#320,#321,#322) ;
#340=AXIS2_PLACEMENT_3D('Cylinder Axis2P3D',#337,#338,#339) ;
#352=AXIS2_PLACEMENT_3D('Cylinder Axis2P3D',#349,#350,#351) ;
#374=AXIS2_PLACEMENT_3D('Cylinder Axis2P3D',#371,#372,#373) ;
#18=CARTESIAN_POINT(' ',(0.,0.,0.)) ;
#33=CARTESIAN_POINT('Axis2P3D Location',(39.5,2.5,0.6)) ;
#38=CARTESIAN_POINT('Axis2P3D Location',(39.5,2.5,3.72529007642E-010)) ;
#42=CARTESIAN_POINT('Vertex',(39.5,0.,3.72529160723E-010)) ;
#44=CARTESIAN_POINT('Vertex',(42.,2.5,3.72529007642E-010)) ;
#47=CARTESIAN_POINT('Line Origine',(42.,2.5,0.599999999627)) ;
#51=CARTESIAN_POINT('Vertex',(42.,2.5,1.19999999963)) ;
#54=CARTESIAN_POINT('Axis2P3D Location',(39.5,2.5,1.19999999963)) ;
#58=CARTESIAN_POINT('Vertex',(39.5,-9.37349864165E-033,1.19999999963)) ;
#61=CARTESIAN_POINT('Line Origine',(39.5,0.,0.599999999627)) ;
#73=CARTESIAN_POINT('Axis2P3D Location',(21.,21.,0.)) ;
#78=CARTESIAN_POINT('Line Origine',(21.,0.,1.28587913911E-015)) ;
#82=CARTESIAN_POINT('Vertex',(2.5,0.,3.72529160723E-010)) ;
#85=CARTESIAN_POINT('Axis2P3D Location',(2.50000000154,2.50000000154,1.13279828912E-015)) ;
#89=CARTESIAN_POINT('Vertex',(0.,2.5,7.4506023573E-010)) ;
#92=CARTESIAN_POINT('Line Origine',(0.,21.,0.)) ;
#96=CARTESIAN_POINT('Vertex',(0.,39.5,3.72529007642E-010)) ;
#99=CARTESIAN_POINT('Axis2P3D Location',(2.50000000154,39.4999999985,-1.13279828912E-015)) ;
#103=CARTESIAN_POINT('Vertex',(2.5,42.,7.45058015283E-010)) ;
#106=CARTESIAN_POINT('Line Origine',(21.,42.,-1.28587913911E-015)) ;
#110=CARTESIAN_POINT('Vertex',(39.5,42.,3.72528854561E-010)) ;
#113=CARTESIAN_POINT('Axis2P3D Location',(39.4999999985,39.4999999985,-1.13279828912E-015)) ;
#117=CARTESIAN_POINT('Vertex',(42.,39.5,7.45055794837E-010)) ;
#120=CARTESIAN_POINT('Line Origine',(42.,21.,0.)) ;
#135=CARTESIAN_POINT('Axis2P3D Location',(21.,21.,0.)) ;
#139=CARTESIAN_POINT('Vertex',(5.75,21.,-2.28713366856E-031)) ;
#141=CARTESIAN_POINT('Vertex',(36.25,21.,3.72529007642E-010)) ;
#144=CARTESIAN_POINT('Axis2P3D Location',(21.,21.,0.)) ;
#154=CARTESIAN_POINT('Axis2P3D Location',(42.,2.5,1.2)) ;
#159=CARTESIAN_POINT('Line Origine',(42.,39.5,0.600000000373)) ;
#163=CARTESIAN_POINT('Vertex',(42.,39.5,1.2)) ;
#166=CARTESIAN_POINT('Line Origine',(42.,21.,1.2)) ;
#178=CARTESIAN_POINT('Axis2P3D Location',(21.,21.,1.2)) ;
#183=CARTESIAN_POINT('Axis2P3D Location',(39.4999999985,39.4999999985,1.2)) ;
#187=CARTESIAN_POINT('Vertex',(39.5,42.,1.19999999963)) ;
#190=CARTESIAN_POINT('Line Origine',(21.,42.,1.2)) ;
#194=CARTESIAN_POINT('Vertex',(2.5,42.,1.2)) ;
#197=CARTESIAN_POINT('Axis2P3D Location',(2.50000000154,39.4999999985,1.2)) ;
#201=CARTESIAN_POINT('Vertex',(0.,39.5,1.19999999963)) ;
#204=CARTESIAN_POINT('Line Origine',(0.,21.,1.2)) ;
#208=CARTESIAN_POINT('Vertex',(0.,2.5,1.2)) ;
#211=CARTESIAN_POINT('Axis2P3D Location',(2.50000000154,2.50000000154,1.2)) ;
#215=CARTESIAN_POINT('Vertex',(2.5,0.,1.19999999963)) ;
#218=CARTESIAN_POINT('Line Origine',(21.,0.,1.2)) ;
#233=CARTESIAN_POINT('Axis2P3D Location',(21.,21.,1.2)) ;
#237=CARTESIAN_POINT('Vertex',(36.25,21.,1.2)) ;
#239=CARTESIAN_POINT('Vertex',(5.75,21.,1.19999999963)) ;
#242=CARTESIAN_POINT('Axis2P3D Location',(21.,21.,1.2)) ;
#252=CARTESIAN_POINT('Axis2P3D Location',(39.5,0.,1.2)) ;
#257=CARTESIAN_POINT('Line Origine',(2.5,-3.67394039516E-017,0.600000000373)) ;
#269=CARTESIAN_POINT('Axis2P3D Location',(2.5,2.5,0.6)) ;
#274=CARTESIAN_POINT('Line Origine',(0.,2.5,0.599999999627)) ;
#286=CARTESIAN_POINT('Axis2P3D Location',(0.,39.5,1.2)) ;
#291=CARTESIAN_POINT('Line Origine',(0.,39.5,0.600000000373)) ;
#303=CARTESIAN_POINT('Axis2P3D Location',(2.5,39.5,0.6)) ;
#308=CARTESIAN_POINT('Line Origine',(2.5,42.,0.599999999627)) ;
#320=CARTESIAN_POINT('Axis2P3D Location',(2.5,42.,1.2)) ;
#325=CARTESIAN_POINT('Line Origine',(39.5,42.,0.600000000373)) ;
#337=CARTESIAN_POINT('Axis2P3D Location',(39.5,39.5,0.6)) ;
#349=CARTESIAN_POINT('Axis2P3D Location',(21.,21.,0.6)) ;
#354=CARTESIAN_POINT('Line Origine',(5.75,21.,0.599999999627)) ;
#359=CARTESIAN_POINT('Line Origine',(36.25,21.,0.599999999627)) ;
#371=CARTESIAN_POINT('Axis2P3D Location',(21.,21.,0.6)) ;
#34=DIRECTION('Axis2P3D Direction',(0.,6.12323399574E-017,1.)) ;
#35=DIRECTION('Axis2P3D XDirection',(-6.12323399574E-017,-1.,6.12323399574E-017)) ;
#39=DIRECTION('Axis2P3D Direction',(0.,6.12323399574E-017,1.)) ;
#48=DIRECTION('Vector Direction',(0.,6.12323525218E-017,1.)) ;
#55=DIRECTION('Axis2P3D Direction',(0.,6.12323399574E-017,1.)) ;
#62=DIRECTION('Vector Direction',(0.,6.12323525218E-017,1.)) ;
#74=DIRECTION('Axis2P3D Direction',(0.,6.12323399574E-017,1.)) ;
#75=DIRECTION('Axis2P3D XDirection',(-1.,0.,0.)) ;
#79=DIRECTION('Vector Direction',(-1.,0.,0.)) ;
#86=DIRECTION('Axis2P3D Direction',(0.,6.12323399574E-017,1.)) ;
#93=DIRECTION('Vector Direction',(0.,-1.,6.12323399574E-017)) ;
#100=DIRECTION('Axis2P3D Direction',(0.,6.12323399574E-017,1.)) ;
#107=DIRECTION('Vector Direction',(1.,0.,0.)) ;
#114=DIRECTION('Axis2P3D Direction',(0.,6.12323399574E-017,1.)) ;
#121=DIRECTION('Vector Direction',(0.,1.,-6.12323399574E-017)) ;
#136=DIRECTION('Axis2P3D Direction',(0.,6.12323399574E-017,1.)) ;
#145=DIRECTION('Axis2P3D Direction',(0.,6.12323399574E-017,1.)) ;
#155=DIRECTION('Axis2P3D Direction',(-1.,0.,-0.)) ;
#156=DIRECTION('Axis2P3D XDirection',(0.,1.,-6.12323399574E-017)) ;
#160=DIRECTION('Vector Direction',(0.,0.,-1.)) ;
#167=DIRECTION('Vector Direction',(0.,1.,-6.00120553851E-017)) ;
#179=DIRECTION('Axis2P3D Direction',(0.,6.12323399574E-017,1.)) ;
#180=DIRECTION('Axis2P3D XDirection',(-1.,0.,0.)) ;
#184=DIRECTION('Axis2P3D Direction',(0.,6.12323399574E-017,1.)) ;
#191=DIRECTION('Vector Direction',(1.,0.,0.)) ;
#198=DIRECTION('Axis2P3D Direction',(0.,6.12323399574E-017,1.)) ;
#205=DIRECTION('Vector Direction',(0.,-1.,6.00120553851E-017)) ;
#212=DIRECTION('Axis2P3D Direction',(0.,6.12323399574E-017,1.)) ;
#219=DIRECTION('Vector Direction',(-1.,0.,0.)) ;
#234=DIRECTION('Axis2P3D Direction',(0.,6.12323399574E-017,1.)) ;
#243=DIRECTION('Axis2P3D Direction',(0.,6.12323399574E-017,1.)) ;
#253=DIRECTION('Axis2P3D Direction',(0.,-1.,6.12323399574E-017)) ;
#254=DIRECTION('Axis2P3D XDirection',(-1.,0.,0.)) ;
#258=DIRECTION('Vector Direction',(0.,6.12323399574E-017,1.)) ;
#270=DIRECTION('Axis2P3D Direction',(0.,6.12323399574E-017,1.)) ;
#271=DIRECTION('Axis2P3D XDirection',(-1.,0.,0.)) ;
#275=DIRECTION('Vector Direction',(0.,6.12323525218E-017,1.)) ;
#287=DIRECTION('Axis2P3D Direction',(1.,0.,0.)) ;
#288=DIRECTION('Axis2P3D XDirection',(0.,-1.,6.12323399574E-017)) ;
#292=DIRECTION('Vector Direction',(0.,0.,1.)) ;
#304=DIRECTION('Axis2P3D Direction',(0.,6.12323399574E-017,1.)) ;
#305=DIRECTION('Axis2P3D XDirection',(1.83697019872E-016,1.,-6.12323399574E-017)) ;
#309=DIRECTION('Vector Direction',(0.,6.12324413396E-017,1.)) ;
#321=DIRECTION('Axis2P3D Direction',(0.,1.,-6.12323399574E-017)) ;
#322=DIRECTION('Axis2P3D XDirection',(1.,0.,0.)) ;
#326=DIRECTION('Vector Direction',(0.,0.,1.)) ;
#338=DIRECTION('Axis2P3D Direction',(1.94567007478E-044,6.12323399574E-017,1.)) ;
#339=DIRECTION('Axis2P3D XDirection',(1.,-1.22464679915E-016,7.49879891331E-033)) ;
#350=DIRECTION('Axis2P3D Direction',(0.,6.12323399574E-017,1.)) ;
#351=DIRECTION('Axis2P3D XDirection',(-1.,0.,0.)) ;
#355=DIRECTION('Vector Direction',(0.,6.12324413396E-017,1.)) ;
#360=DIRECTION('Vector Direction',(0.,6.12324413396E-017,1.)) ;
#372=DIRECTION('Axis2P3D Direction',(0.,6.12323399574E-017,1.)) ;
#373=DIRECTION('Axis2P3D XDirection',(1.,-1.22464679915E-016,7.49879891331E-033)) ;
#31=PRESENTATION_LAYER_ASSIGNMENT('1',' ',(#22)) ;
#8=PRODUCT_RELATED_PRODUCT_CATEGORY('part',$,(#5)) ;
#7=PRODUCT_CATEGORY('part','specification') ;
#30=STYLED_ITEM(' ',(#29),#22) ;
#29=PRESENTATION_STYLE_ASSIGNMENT((#28)) ;
#28=SURFACE_STYLE_USAGE(.BOTH.,#27) ;
#27=SURFACE_SIDE_STYLE(' ',(#26)) ;
#26=SURFACE_STYLE_FILL_AREA(#25) ;
#25=FILL_AREA_STYLE(' ',(#24)) ;
#24=FILL_AREA_STYLE_COLOUR(' ',#23) ;
#49=VECTOR('Line Direction',#48,1.) ;
#63=VECTOR('Line Direction',#62,1.) ;
#80=VECTOR('Line Direction',#79,1.) ;
#94=VECTOR('Line Direction',#93,1.) ;
#108=VECTOR('Line Direction',#107,1.) ;
#122=VECTOR('Line Direction',#121,1.) ;
#161=VECTOR('Line Direction',#160,1.) ;
#168=VECTOR('Line Direction',#167,1.) ;
#192=VECTOR('Line Direction',#191,1.) ;
#206=VECTOR('Line Direction',#205,1.) ;
#220=VECTOR('Line Direction',#219,1.) ;
#259=VECTOR('Line Direction',#258,1.) ;
#276=VECTOR('Line Direction',#275,1.) ;
#293=VECTOR('Line Direction',#292,1.) ;
#310=VECTOR('Line Direction',#309,1.) ;
#327=VECTOR('Line Direction',#326,1.) ;
#356=VECTOR('Line Direction',#355,1.) ;
#361=VECTOR('Line Direction',#360,1.) ;
#16=UNCERTAINTY_MEASURE_WITH_UNIT(LENGTH_MEASURE(0.005),#12,'distance_accuracy_value','CONFUSED CURVE UNCERTAINTY') ;
#384=SHAPE_REPRESENTATION_RELATIONSHIP(' ',' ',#20,#383) ;
#67=ORIENTED_EDGE('',*,*,#46,.T.) ;
#68=ORIENTED_EDGE('',*,*,#53,.F.) ;
#69=ORIENTED_EDGE('',*,*,#60,.F.) ;
#70=ORIENTED_EDGE('',*,*,#65,.T.) ;
#126=ORIENTED_EDGE('',*,*,#84,.F.) ;
#127=ORIENTED_EDGE('',*,*,#91,.F.) ;
#128=ORIENTED_EDGE('',*,*,#98,.F.) ;
#129=ORIENTED_EDGE('',*,*,#105,.F.) ;
#130=ORIENTED_EDGE('',*,*,#112,.F.) ;
#131=ORIENTED_EDGE('',*,*,#119,.F.) ;
#132=ORIENTED_EDGE('',*,*,#124,.F.) ;
#133=ORIENTED_EDGE('',*,*,#46,.F.) ;
#150=ORIENTED_EDGE('',*,*,#143,.T.) ;
#151=ORIENTED_EDGE('',*,*,#148,.T.) ;
#172=ORIENTED_EDGE('',*,*,#124,.T.) ;
#173=ORIENTED_EDGE('',*,*,#165,.F.) ;
#174=ORIENTED_EDGE('',*,*,#170,.F.) ;
#175=ORIENTED_EDGE('',*,*,#53,.T.) ;
#224=ORIENTED_EDGE('',*,*,#60,.T.) ;
#225=ORIENTED_EDGE('',*,*,#170,.T.) ;
#226=ORIENTED_EDGE('',*,*,#189,.T.) ;
#227=ORIENTED_EDGE('',*,*,#196,.T.) ;
#228=ORIENTED_EDGE('',*,*,#203,.T.) ;
#229=ORIENTED_EDGE('',*,*,#210,.T.) ;
#230=ORIENTED_EDGE('',*,*,#217,.T.) ;
#231=ORIENTED_EDGE('',*,*,#222,.T.) ;
#248=ORIENTED_EDGE('',*,*,#241,.F.) ;
#249=ORIENTED_EDGE('',*,*,#246,.F.) ;
#263=ORIENTED_EDGE('',*,*,#84,.T.) ;
#264=ORIENTED_EDGE('',*,*,#65,.F.) ;
#265=ORIENTED_EDGE('',*,*,#222,.F.) ;
#266=ORIENTED_EDGE('',*,*,#261,.T.) ;
#280=ORIENTED_EDGE('',*,*,#91,.T.) ;
#281=ORIENTED_EDGE('',*,*,#261,.F.) ;
#282=ORIENTED_EDGE('',*,*,#217,.F.) ;
#283=ORIENTED_EDGE('',*,*,#278,.T.) ;
#297=ORIENTED_EDGE('',*,*,#98,.T.) ;
#298=ORIENTED_EDGE('',*,*,#278,.F.) ;
#299=ORIENTED_EDGE('',*,*,#210,.F.) ;
#300=ORIENTED_EDGE('',*,*,#295,.T.) ;
#314=ORIENTED_EDGE('',*,*,#105,.T.) ;
#315=ORIENTED_EDGE('',*,*,#295,.F.) ;
#316=ORIENTED_EDGE('',*,*,#203,.F.) ;
#317=ORIENTED_EDGE('',*,*,#312,.T.) ;
#331=ORIENTED_EDGE('',*,*,#112,.T.) ;
#332=ORIENTED_EDGE('',*,*,#312,.F.) ;
#333=ORIENTED_EDGE('',*,*,#196,.F.) ;
#334=ORIENTED_EDGE('',*,*,#329,.T.) ;
#343=ORIENTED_EDGE('',*,*,#119,.T.) ;
#344=ORIENTED_EDGE('',*,*,#329,.F.) ;
#345=ORIENTED_EDGE('',*,*,#189,.F.) ;
#346=ORIENTED_EDGE('',*,*,#165,.T.) ;
#365=ORIENTED_EDGE('',*,*,#358,.F.) ;
#366=ORIENTED_EDGE('',*,*,#246,.T.) ;
#367=ORIENTED_EDGE('',*,*,#363,.T.) ;
#368=ORIENTED_EDGE('',*,*,#143,.F.) ;
#377=ORIENTED_EDGE('',*,*,#363,.F.) ;
#378=ORIENTED_EDGE('',*,*,#241,.T.) ;
#379=ORIENTED_EDGE('',*,*,#358,.T.) ;
#380=ORIENTED_EDGE('',*,*,#148,.F.) ;
#152=FACE_BOUND('',#149,.T.) ;
#250=FACE_BOUND('',#247,.T.) ;
#32=CLOSED_SHELL('Closed Shell',(#72,#153,#177,#251,#268,#285,#302,#319,#336,#348,#370,#382)) ;
#383=ADVANCED_BREP_SHAPE_REPRESENTATION('NONE',(#22),#17) ;
#72=ADVANCED_FACE('S3D gedreht',(#71),#37,.T.) ;
#153=ADVANCED_FACE('S3D gedreht',(#134,#152),#77,.F.) ;
#177=ADVANCED_FACE('S3D gedreht',(#176),#158,.F.) ;
#251=ADVANCED_FACE('S3D gedreht',(#232,#250),#182,.T.) ;
#268=ADVANCED_FACE('S3D gedreht',(#267),#256,.T.) ;
#285=ADVANCED_FACE('S3D gedreht',(#284),#273,.T.) ;
#302=ADVANCED_FACE('S3D gedreht',(#301),#290,.F.) ;
#319=ADVANCED_FACE('S3D gedreht',(#318),#307,.T.) ;
#336=ADVANCED_FACE('S3D gedreht',(#335),#324,.T.) ;
#348=ADVANCED_FACE('S3D gedreht',(#347),#341,.T.) ;
#370=ADVANCED_FACE('S3D gedreht',(#369),#353,.F.) ;
#382=ADVANCED_FACE('S3D gedreht',(#381),#375,.F.) ;
#4=APPLICATION_PROTOCOL_DEFINITION('international standard','automotive_design',2001,#1) ;
#22=MANIFOLD_SOLID_BREP('S3D gedreht',#32) ;
#41=CIRCLE('generated circle',#40,2.5) ;
#57=CIRCLE('generated circle',#56,2.5) ;
#88=CIRCLE('generated circle',#87,2.50000000154) ;
#102=CIRCLE('generated circle',#101,2.50000000154) ;
#116=CIRCLE('generated circle',#115,2.50000000154) ;
#138=CIRCLE('generated circle',#137,15.25) ;
#147=CIRCLE('generated circle',#146,15.25) ;
#186=CIRCLE('generated circle',#185,2.50000000154) ;
#200=CIRCLE('generated circle',#199,2.50000000154) ;
#214=CIRCLE('generated circle',#213,2.50000000154) ;
#236=CIRCLE('generated circle',#235,15.25) ;
#245=CIRCLE('generated circle',#244,15.25) ;
#23=COLOUR_RGB('Colour',0.647058823529,0.647058823529,0.647058823529) ;
#37=CYLINDRICAL_SURFACE('generated cylinder',#36,2.5) ;
#273=CYLINDRICAL_SURFACE('generated cylinder',#272,2.5) ;
#307=CYLINDRICAL_SURFACE('generated cylinder',#306,2.5) ;
#341=CYLINDRICAL_SURFACE('generated cylinder',#340,2.5) ;
#353=CYLINDRICAL_SURFACE('generated cylinder',#352,15.25) ;
#375=CYLINDRICAL_SURFACE('generated cylinder',#374,15.25) ;
#46=EDGE_CURVE('',#43,#45,#41,.T.) ;
#53=EDGE_CURVE('',#52,#45,#50,.F.) ;
#60=EDGE_CURVE('',#59,#52,#57,.T.) ;
#65=EDGE_CURVE('',#59,#43,#64,.F.) ;
#84=EDGE_CURVE('',#83,#43,#81,.F.) ;
#91=EDGE_CURVE('',#90,#83,#88,.T.) ;
#98=EDGE_CURVE('',#97,#90,#95,.T.) ;
#105=EDGE_CURVE('',#104,#97,#102,.T.) ;
#112=EDGE_CURVE('',#111,#104,#109,.F.) ;
#119=EDGE_CURVE('',#118,#111,#116,.T.) ;
#124=EDGE_CURVE('',#45,#118,#123,.T.) ;
#143=EDGE_CURVE('',#140,#142,#138,.T.) ;
#148=EDGE_CURVE('',#142,#140,#147,.T.) ;
#165=EDGE_CURVE('',#164,#118,#162,.T.) ;
#170=EDGE_CURVE('',#52,#164,#169,.T.) ;
#189=EDGE_CURVE('',#164,#188,#186,.T.) ;
#196=EDGE_CURVE('',#188,#195,#193,.F.) ;
#203=EDGE_CURVE('',#195,#202,#200,.T.) ;
#210=EDGE_CURVE('',#202,#209,#207,.T.) ;
#217=EDGE_CURVE('',#209,#216,#214,.T.) ;
#222=EDGE_CURVE('',#216,#59,#221,.F.) ;
#241=EDGE_CURVE('',#238,#240,#236,.T.) ;
#246=EDGE_CURVE('',#240,#238,#245,.T.) ;
#261=EDGE_CURVE('',#216,#83,#260,.F.) ;
#278=EDGE_CURVE('',#209,#90,#277,.F.) ;
#295=EDGE_CURVE('',#202,#97,#294,.F.) ;
#312=EDGE_CURVE('',#195,#104,#311,.F.) ;
#329=EDGE_CURVE('',#188,#111,#328,.F.) ;
#358=EDGE_CURVE('',#240,#140,#357,.F.) ;
#363=EDGE_CURVE('',#238,#142,#362,.F.) ;
#66=EDGE_LOOP('',(#67,#68,#69,#70)) ;
#125=EDGE_LOOP('',(#126,#127,#128,#129,#130,#131,#132,#133)) ;
#149=EDGE_LOOP('',(#150,#151)) ;
#171=EDGE_LOOP('',(#172,#173,#174,#175)) ;
#223=EDGE_LOOP('',(#224,#225,#226,#227,#228,#229,#230,#231)) ;
#247=EDGE_LOOP('',(#248,#249)) ;
#262=EDGE_LOOP('',(#263,#264,#265,#266)) ;
#279=EDGE_LOOP('',(#280,#281,#282,#283)) ;
#296=EDGE_LOOP('',(#297,#298,#299,#300)) ;
#313=EDGE_LOOP('',(#314,#315,#316,#317)) ;
#330=EDGE_LOOP('',(#331,#332,#333,#334)) ;
#342=EDGE_LOOP('',(#343,#344,#345,#346)) ;
#364=EDGE_LOOP('',(#365,#366,#367,#368)) ;
#376=EDGE_LOOP('',(#377,#378,#379,#380)) ;
#71=FACE_OUTER_BOUND('',#66,.T.) ;
#134=FACE_OUTER_BOUND('',#125,.T.) ;
#176=FACE_OUTER_BOUND('',#171,.T.) ;
#232=FACE_OUTER_BOUND('',#223,.T.) ;
#267=FACE_OUTER_BOUND('',#262,.T.) ;
#284=FACE_OUTER_BOUND('',#279,.T.) ;
#301=FACE_OUTER_BOUND('',#296,.T.) ;
#318=FACE_OUTER_BOUND('',#313,.T.) ;
#335=FACE_OUTER_BOUND('',#330,.T.) ;
#347=FACE_OUTER_BOUND('',#342,.T.) ;
#369=FACE_OUTER_BOUND('',#364,.T.) ;
#381=FACE_OUTER_BOUND('',#376,.T.) ;
#50=LINE('Line',#47,#49) ;
#64=LINE('Line',#61,#63) ;
#81=LINE('Line',#78,#80) ;
#95=LINE('Line',#92,#94) ;
#109=LINE('Line',#106,#108) ;
#123=LINE('Line',#120,#122) ;
#162=LINE('Line',#159,#161) ;
#169=LINE('Line',#166,#168) ;
#193=LINE('Line',#190,#192) ;
#207=LINE('Line',#204,#206) ;
#221=LINE('Line',#218,#220) ;
#260=LINE('Line',#257,#259) ;
#277=LINE('Line',#274,#276) ;
#294=LINE('Line',#291,#293) ;
#311=LINE('Line',#308,#310) ;
#328=LINE('Line',#325,#327) ;
#357=LINE('Line',#354,#356) ;
#362=LINE('Line',#359,#361) ;
#77=PLANE('',#76) ;
#158=PLANE('',#157) ;
#182=PLANE('',#181) ;
#256=PLANE('',#255) ;
#290=PLANE('',#289) ;
#324=PLANE('',#323) ;
#14=PLANE_ANGLE_MEASURE_WITH_UNIT(PLANE_ANGLE_MEASURE(0.0174532925199),#13) ;
#9=PRODUCT_CATEGORY_RELATIONSHIP(' ',' ',#7,#8) ;
#6=PRODUCT_DEFINITION_FORMATION_WITH_SPECIFIED_SOURCE('',' ',#5,.NOT_KNOWN.) ;
#21=SHAPE_DEFINITION_REPRESENTATION(#11,#20) ;
#43=VERTEX_POINT('',#42) ;
#45=VERTEX_POINT('',#44) ;
#52=VERTEX_POINT('',#51) ;
#59=VERTEX_POINT('',#58) ;
#83=VERTEX_POINT('',#82) ;
#90=VERTEX_POINT('',#89) ;
#97=VERTEX_POINT('',#96) ;
#104=VERTEX_POINT('',#103) ;
#111=VERTEX_POINT('',#110) ;
#118=VERTEX_POINT('',#117) ;
#140=VERTEX_POINT('',#139) ;
#142=VERTEX_POINT('',#141) ;
#164=VERTEX_POINT('',#163) ;
#188=VERTEX_POINT('',#187) ;
#195=VERTEX_POINT('',#194) ;
#202=VERTEX_POINT('',#201) ;
#209=VERTEX_POINT('',#208) ;
#216=VERTEX_POINT('',#215) ;
#238=VERTEX_POINT('',#237) ;
#240=VERTEX_POINT('',#239) ;
#12=(LENGTH_UNIT()NAMED_UNIT(*)SI_UNIT(.MILLI.,.METRE.)) ;
#13=(NAMED_UNIT(*)PLANE_ANGLE_UNIT()SI_UNIT($,.RADIAN.)) ;
#15=(NAMED_UNIT(*)SI_UNIT($,.STERADIAN.)SOLID_ANGLE_UNIT()) ;
#17=(GEOMETRIC_REPRESENTATION_CONTEXT(3)GLOBAL_UNCERTAINTY_ASSIGNED_CONTEXT((#16))GLOBAL_UNIT_ASSIGNED_CONTEXT((#12,#13,#15))REPRESENTATION_CONTEXT(' ',' ')) ;
ENDSEC;
END-ISO-10303-21;
