ISO-10303-21;
HEADER;
FILE_DESCRIPTION(('CATIA V5 STEP Exchange','CAx-IF Rec.Pracs.--- Model Styling and Organization---1.4--- 2014-01-23'),'2;1');

FILE_NAME ('029481-1_2', '2020-08-07T09:14:49+00:00', ('none'), ('Weidmueller'), 'CATIA Version 5-6 Release 2016 SP3 HF44', 'CATIA V5 STEP AP214', 'none');

FILE_SCHEMA(('AUTOMOTIVE_DESIGN { 1 0 10303 214 1 1 1 1 }'));

ENDSEC;
DATA;
#5=PRODUCT('1987470000','','',(#2)) ;
#2=PRODUCT_CONTEXT(' ',#1,'mechanical') ;
#1=APPLICATION_CONTEXT('automotive design') ;
#10=PRODUCT_DEFINITION('',' ',#6,#3) ;
#3=PRODUCT_DEFINITION_CONTEXT('part definition',#1,' ') ;
#11=PRODUCT_DEFINITION_SHAPE(' ',' ',#10) ;
#585=MECHANICAL_DESIGN_GEOMETRIC_PRESENTATION_REPRESENTATION(' ',(#29),#16) ;
#19=SHAPE_REPRESENTATION(' ',(#18),#16) ;
#18=AXIS2_PLACEMENT_3D(' ',#17,$,$) ;
#35=AXIS2_PLACEMENT_3D('Cylinder Axis2P3D',#32,#33,#34) ;
#48=AXIS2_PLACEMENT_3D('Circle Axis2P3D',#46,#47,$) ;
#62=AXIS2_PLACEMENT_3D('Circle Axis2P3D',#60,#61,$) ;
#75=AXIS2_PLACEMENT_3D('Plane Axis2P3D',#72,#73,#74) ;
#106=AXIS2_PLACEMENT_3D('Cylinder Axis2P3D',#103,#104,#105) ;
#119=AXIS2_PLACEMENT_3D('Circle Axis2P3D',#117,#118,$) ;
#124=AXIS2_PLACEMENT_3D('Circle Axis2P3D',#122,#123,$) ;
#137=AXIS2_PLACEMENT_3D('Plane Axis2P3D',#134,#135,#136) ;
#168=AXIS2_PLACEMENT_3D('Cylinder Axis2P3D',#165,#166,#167) ;
#181=AXIS2_PLACEMENT_3D('Circle Axis2P3D',#179,#180,$) ;
#186=AXIS2_PLACEMENT_3D('Circle Axis2P3D',#184,#185,$) ;
#199=AXIS2_PLACEMENT_3D('Plane Axis2P3D',#196,#197,#198) ;
#221=AXIS2_PLACEMENT_3D('Torus Axis2P3D',#218,#219,#220) ;
#225=AXIS2_PLACEMENT_3D('Circle Axis2P3D',#223,#224,$) ;
#232=AXIS2_PLACEMENT_3D('Circle Axis2P3D',#230,#231,$) ;
#239=AXIS2_PLACEMENT_3D('Circle Axis2P3D',#237,#238,$) ;
#252=AXIS2_PLACEMENT_3D('Cylinder Axis2P3D',#249,#250,#251) ;
#256=AXIS2_PLACEMENT_3D('Circle Axis2P3D',#254,#255,$) ;
#276=AXIS2_PLACEMENT_3D('Torus Axis2P3D',#273,#274,#275) ;
#280=AXIS2_PLACEMENT_3D('Circle Axis2P3D',#278,#279,$) ;
#287=AXIS2_PLACEMENT_3D('Circle Axis2P3D',#285,#286,$) ;
#300=AXIS2_PLACEMENT_3D('Cylinder Axis2P3D',#297,#298,#299) ;
#304=AXIS2_PLACEMENT_3D('Circle Axis2P3D',#302,#303,$) ;
#324=AXIS2_PLACEMENT_3D('Torus Axis2P3D',#321,#322,#323) ;
#328=AXIS2_PLACEMENT_3D('Circle Axis2P3D',#326,#327,$) ;
#335=AXIS2_PLACEMENT_3D('Circle Axis2P3D',#333,#334,$) ;
#348=AXIS2_PLACEMENT_3D('Cylinder Axis2P3D',#345,#346,#347) ;
#365=AXIS2_PLACEMENT_3D('Cylinder Axis2P3D',#362,#363,#364) ;
#376=AXIS2_PLACEMENT_3D('Circle Axis2P3D',#374,#375,$) ;
#396=AXIS2_PLACEMENT_3D('Plane Axis2P3D',#393,#394,#395) ;
#420=AXIS2_PLACEMENT_3D('Cylinder Axis2P3D',#417,#418,#419) ;
#431=AXIS2_PLACEMENT_3D('Circle Axis2P3D',#429,#430,$) ;
#444=AXIS2_PLACEMENT_3D('Plane Axis2P3D',#441,#442,#443) ;
#468=AXIS2_PLACEMENT_3D('Cylinder Axis2P3D',#465,#466,#467) ;
#479=AXIS2_PLACEMENT_3D('Circle Axis2P3D',#477,#478,$) ;
#492=AXIS2_PLACEMENT_3D('Plane Axis2P3D',#489,#490,#491) ;
#509=AXIS2_PLACEMENT_3D('Plane Axis2P3D',#506,#507,#508) ;
#17=CARTESIAN_POINT(' ',(0.,0.,0.)) ;
#32=CARTESIAN_POINT('Axis2P3D Location',(23.5,25.9,6.88338275268E-015)) ;
#37=CARTESIAN_POINT('Line Origine',(41.9290969651,14.8266813894,0.6)) ;
#41=CARTESIAN_POINT('Vertex',(41.9290969651,14.8266813894,9.10382880193E-015)) ;
#43=CARTESIAN_POINT('Vertex',(41.9290969651,14.8266813894,1.2)) ;
#46=CARTESIAN_POINT('Axis2P3D Location',(23.5,25.9,1.2)) ;
#50=CARTESIAN_POINT('Vertex',(5.0709030349,14.8266813894,1.2)) ;
#53=CARTESIAN_POINT('Line Origine',(5.0709030349,14.8266813894,0.6)) ;
#57=CARTESIAN_POINT('Vertex',(5.0709030349,14.8266813894,9.10382880193E-015)) ;
#60=CARTESIAN_POINT('Axis2P3D Location',(23.5,25.9,9.10382880193E-015)) ;
#72=CARTESIAN_POINT('Axis2P3D Location',(41.9290969651,14.8266813894,9.10382880193E-015)) ;
#77=CARTESIAN_POINT('Line Origine',(35.3876273354,3.93984770036,0.6)) ;
#81=CARTESIAN_POINT('Vertex',(35.3876273354,3.93984770036,9.10382880193E-015)) ;
#83=CARTESIAN_POINT('Vertex',(35.3876273354,3.93984770036,1.2)) ;
#86=CARTESIAN_POINT('Line Origine',(38.6583621503,9.3832645449,1.2)) ;
#91=CARTESIAN_POINT('Line Origine',(38.6583621503,9.3832645449,9.10382880193E-015)) ;
#103=CARTESIAN_POINT('Axis2P3D Location',(31.9589581326,6.,6.88338275268E-015)) ;
#108=CARTESIAN_POINT('Line Origine',(31.9589581326,2.,0.6)) ;
#112=CARTESIAN_POINT('Vertex',(31.9589581326,2.,9.10382880193E-015)) ;
#114=CARTESIAN_POINT('Vertex',(31.9589581326,2.,1.2)) ;
#117=CARTESIAN_POINT('Axis2P3D Location',(31.9589581326,6.,1.2)) ;
#122=CARTESIAN_POINT('Axis2P3D Location',(31.9589581326,6.,9.10382880193E-015)) ;
#134=CARTESIAN_POINT('Axis2P3D Location',(31.9589581326,2.,9.10382880193E-015)) ;
#139=CARTESIAN_POINT('Line Origine',(15.0410418674,2.,0.6)) ;
#143=CARTESIAN_POINT('Vertex',(15.0410418674,2.,9.10382880193E-015)) ;
#145=CARTESIAN_POINT('Vertex',(15.0410418674,2.,1.2)) ;
#148=CARTESIAN_POINT('Line Origine',(23.5,2.,1.2)) ;
#153=CARTESIAN_POINT('Line Origine',(23.5,2.,9.10382880193E-015)) ;
#165=CARTESIAN_POINT('Axis2P3D Location',(15.0410418674,6.,6.88338275268E-015)) ;
#170=CARTESIAN_POINT('Line Origine',(11.6123726646,3.93984770036,0.6)) ;
#174=CARTESIAN_POINT('Vertex',(11.6123726646,3.93984770036,9.10382880193E-015)) ;
#176=CARTESIAN_POINT('Vertex',(11.6123726646,3.93984770036,1.2)) ;
#179=CARTESIAN_POINT('Axis2P3D Location',(15.0410418674,6.,1.2)) ;
#184=CARTESIAN_POINT('Axis2P3D Location',(15.0410418674,6.,9.10382880193E-015)) ;
#196=CARTESIAN_POINT('Axis2P3D Location',(11.6123726646,3.93984770036,9.10382880193E-015)) ;
#201=CARTESIAN_POINT('Line Origine',(8.34163784974,9.3832645449,1.2)) ;
#206=CARTESIAN_POINT('Line Origine',(8.34163784974,9.3832645449,9.10382880193E-015)) ;
#218=CARTESIAN_POINT('Axis2P3D Location',(23.5,25.9,1.2)) ;
#223=CARTESIAN_POINT('Axis2P3D Location',(42.7862642658,14.3116433145,1.2)) ;
#227=CARTESIAN_POINT('Vertex',(43.6434315665,13.7966052396,1.2)) ;
#230=CARTESIAN_POINT('Axis2P3D Location',(23.5,25.9,1.2)) ;
#234=CARTESIAN_POINT('Vertex',(3.3565684335,13.7966052396,1.2)) ;
#237=CARTESIAN_POINT('Axis2P3D Location',(4.2137357342,14.3116433145,1.2)) ;
#249=CARTESIAN_POINT('Axis2P3D Location',(39.515529451,8.86822646999,1.2)) ;
#254=CARTESIAN_POINT('Axis2P3D Location',(36.2447946361,3.42480962545,1.2)) ;
#258=CARTESIAN_POINT('Vertex',(37.1019619368,2.90977155054,1.2)) ;
#261=CARTESIAN_POINT('Line Origine',(40.3726967517,8.35318839508,1.2)) ;
#273=CARTESIAN_POINT('Axis2P3D Location',(31.9589581326,6.,1.2)) ;
#278=CARTESIAN_POINT('Axis2P3D Location',(31.9589581326,1.,1.2)) ;
#282=CARTESIAN_POINT('Vertex',(31.9589581326,8.881784197E-015,1.2)) ;
#285=CARTESIAN_POINT('Axis2P3D Location',(31.9589581326,6.,1.2)) ;
#297=CARTESIAN_POINT('Axis2P3D Location',(23.5,1.,1.2)) ;
#302=CARTESIAN_POINT('Axis2P3D Location',(15.0410418674,1.,1.2)) ;
#306=CARTESIAN_POINT('Vertex',(15.0410418674,3.10862446895E-015,1.2)) ;
#309=CARTESIAN_POINT('Line Origine',(23.5,0.,1.2)) ;
#321=CARTESIAN_POINT('Axis2P3D Location',(15.0410418674,6.,1.2)) ;
#326=CARTESIAN_POINT('Axis2P3D Location',(10.7552053639,3.42480962545,1.2)) ;
#330=CARTESIAN_POINT('Vertex',(9.89803806317,2.90977155054,1.2)) ;
#333=CARTESIAN_POINT('Axis2P3D Location',(15.0410418674,6.,1.2)) ;
#345=CARTESIAN_POINT('Axis2P3D Location',(7.48447054904,8.86822646999,1.2)) ;
#350=CARTESIAN_POINT('Line Origine',(6.62730324833,8.35318839508,1.2)) ;
#362=CARTESIAN_POINT('Axis2P3D Location',(23.5,25.9,6.88338275268E-015)) ;
#367=CARTESIAN_POINT('Line Origine',(43.6434315665,13.7966052396,0.6)) ;
#371=CARTESIAN_POINT('Vertex',(43.6434315665,13.7966052396,1.06504666324E-016)) ;
#374=CARTESIAN_POINT('Axis2P3D Location',(23.5,25.9,1.06504666324E-016)) ;
#378=CARTESIAN_POINT('Vertex',(3.3565684335,13.7966052396,1.06504666324E-016)) ;
#381=CARTESIAN_POINT('Line Origine',(3.3565684335,13.7966052396,0.6)) ;
#393=CARTESIAN_POINT('Axis2P3D Location',(43.6434315665,13.7966052396,1.2)) ;
#398=CARTESIAN_POINT('Line Origine',(37.1019619368,2.90977155054,0.6)) ;
#402=CARTESIAN_POINT('Vertex',(37.1019619368,2.90977155054,0.)) ;
#405=CARTESIAN_POINT('Line Origine',(40.3726967517,8.35318839508,0.)) ;
#417=CARTESIAN_POINT('Axis2P3D Location',(31.9589581326,6.,6.88338275268E-015)) ;
#422=CARTESIAN_POINT('Line Origine',(31.9589581326,9.7699626167E-015,0.6)) ;
#426=CARTESIAN_POINT('Vertex',(31.9589581326,9.7699626167E-015,1.06504666324E-016)) ;
#429=CARTESIAN_POINT('Axis2P3D Location',(31.9589581326,6.,1.06504666324E-016)) ;
#441=CARTESIAN_POINT('Axis2P3D Location',(31.9589581326,0.,1.2)) ;
#446=CARTESIAN_POINT('Line Origine',(15.0410418674,0.,0.6)) ;
#450=CARTESIAN_POINT('Vertex',(15.0410418674,0.,0.)) ;
#453=CARTESIAN_POINT('Line Origine',(23.5,0.,0.)) ;
#465=CARTESIAN_POINT('Axis2P3D Location',(15.0410418674,6.,6.88338275268E-015)) ;
#470=CARTESIAN_POINT('Line Origine',(9.89803806317,2.90977155054,0.6)) ;
#474=CARTESIAN_POINT('Vertex',(9.89803806317,2.90977155054,1.06504666324E-016)) ;
#477=CARTESIAN_POINT('Axis2P3D Location',(15.0410418674,6.,1.06504666324E-016)) ;
#489=CARTESIAN_POINT('Axis2P3D Location',(9.89803806317,2.90977155054,1.2)) ;
#494=CARTESIAN_POINT('Line Origine',(6.62730324833,8.35318839508,0.)) ;
#506=CARTESIAN_POINT('Axis2P3D Location',(5.0709030349,14.8266813894,6.88338275268E-015)) ;
#511=CARTESIAN_POINT('Line Origine',(42.7862642658,14.3116433145,6.88338275268E-015)) ;
#516=CARTESIAN_POINT('Line Origine',(4.2137357342,14.3116433145,6.88338275268E-015)) ;
#528=CARTESIAN_POINT('Line Origine',(36.2447946361,3.42480962545,6.88338275268E-015)) ;
#540=CARTESIAN_POINT('Line Origine',(31.9589581326,1.,6.88338275268E-015)) ;
#552=CARTESIAN_POINT('Line Origine',(15.0410418674,1.,6.88338275268E-015)) ;
#564=CARTESIAN_POINT('Line Origine',(10.7552053639,3.42480962545,6.88338275268E-015)) ;
#33=DIRECTION('Axis2P3D Direction',(-0.,0.,-1.)) ;
#34=DIRECTION('Axis2P3D XDirection',(-0.857167300702,-0.51503807491,0.)) ;
#38=DIRECTION('Vector Direction',(0.,0.,-1.)) ;
#47=DIRECTION('Axis2P3D Direction',(-0.,0.,-1.)) ;
#54=DIRECTION('Vector Direction',(0.,0.,-1.)) ;
#61=DIRECTION('Axis2P3D Direction',(-0.,0.,-1.)) ;
#73=DIRECTION('Axis2P3D Direction',(0.857167300702,-0.51503807491,0.)) ;
#74=DIRECTION('Axis2P3D XDirection',(0.,0.,1.)) ;
#78=DIRECTION('Vector Direction',(0.,0.,1.)) ;
#87=DIRECTION('Vector Direction',(-0.51503807491,-0.857167300702,0.)) ;
#92=DIRECTION('Vector Direction',(-0.51503807491,-0.857167300702,0.)) ;
#104=DIRECTION('Axis2P3D Direction',(0.,-0.,-1.)) ;
#105=DIRECTION('Axis2P3D XDirection',(0.857167300702,-0.51503807491,0.)) ;
#109=DIRECTION('Vector Direction',(0.,0.,-1.)) ;
#118=DIRECTION('Axis2P3D Direction',(0.,-0.,-1.)) ;
#123=DIRECTION('Axis2P3D Direction',(0.,-0.,-1.)) ;
#135=DIRECTION('Axis2P3D Direction',(0.,-1.,0.)) ;
#136=DIRECTION('Axis2P3D XDirection',(0.,0.,1.)) ;
#140=DIRECTION('Vector Direction',(0.,0.,1.)) ;
#149=DIRECTION('Vector Direction',(-1.,0.,0.)) ;
#154=DIRECTION('Vector Direction',(-1.,0.,0.)) ;
#166=DIRECTION('Axis2P3D Direction',(0.,-0.,-1.)) ;
#167=DIRECTION('Axis2P3D XDirection',(-8.881784197E-016,-1.,0.)) ;
#171=DIRECTION('Vector Direction',(0.,0.,-1.)) ;
#180=DIRECTION('Axis2P3D Direction',(0.,-0.,-1.)) ;
#185=DIRECTION('Axis2P3D Direction',(0.,-0.,-1.)) ;
#197=DIRECTION('Axis2P3D Direction',(-0.857167300702,-0.51503807491,0.)) ;
#198=DIRECTION('Axis2P3D XDirection',(0.,0.,1.)) ;
#202=DIRECTION('Vector Direction',(-0.51503807491,0.857167300702,0.)) ;
#207=DIRECTION('Vector Direction',(-0.51503807491,0.857167300702,0.)) ;
#219=DIRECTION('Axis2P3D Direction',(0.,0.,-1.)) ;
#220=DIRECTION('Axis2P3D XDirection',(-0.857167300702,-0.51503807491,0.)) ;
#224=DIRECTION('Axis2P3D Direction',(0.51503807491,0.857167300702,0.)) ;
#231=DIRECTION('Axis2P3D Direction',(-0.,0.,-1.)) ;
#238=DIRECTION('Axis2P3D Direction',(0.51503807491,-0.857167300702,0.)) ;
#250=DIRECTION('Axis2P3D Direction',(0.51503807491,0.857167300702,0.)) ;
#251=DIRECTION('Axis2P3D XDirection',(-0.857167300702,0.51503807491,-1.22464679915E-016)) ;
#255=DIRECTION('Axis2P3D Direction',(0.51503807491,0.857167300702,0.)) ;
#262=DIRECTION('Vector Direction',(0.51503807491,0.857167300702,0.)) ;
#274=DIRECTION('Axis2P3D Direction',(0.,0.,-1.)) ;
#275=DIRECTION('Axis2P3D XDirection',(0.857167300702,-0.51503807491,0.)) ;
#279=DIRECTION('Axis2P3D Direction',(1.,-1.99840144433E-015,0.)) ;
#286=DIRECTION('Axis2P3D Direction',(0.,-0.,-1.)) ;
#298=DIRECTION('Axis2P3D Direction',(1.,-3.67381906147E-016,0.)) ;
#299=DIRECTION('Axis2P3D XDirection',(3.67381906147E-016,1.,-1.45473230946E-015)) ;
#303=DIRECTION('Axis2P3D Direction',(1.,-3.67381906147E-016,0.)) ;
#310=DIRECTION('Vector Direction',(1.,-3.67494958624E-016,0.)) ;
#322=DIRECTION('Axis2P3D Direction',(0.,0.,-1.)) ;
#323=DIRECTION('Axis2P3D XDirection',(-8.881784197E-016,-1.,0.)) ;
#327=DIRECTION('Axis2P3D Direction',(0.51503807491,-0.857167300702,0.)) ;
#334=DIRECTION('Axis2P3D Direction',(0.,-0.,-1.)) ;
#346=DIRECTION('Axis2P3D Direction',(0.51503807491,-0.857167300702,0.)) ;
#347=DIRECTION('Axis2P3D XDirection',(0.857167300702,0.51503807491,-1.01064309961E-015)) ;
#351=DIRECTION('Vector Direction',(0.51503807491,-0.857167300702,0.)) ;
#363=DIRECTION('Axis2P3D Direction',(-0.,0.,-1.)) ;
#364=DIRECTION('Axis2P3D XDirection',(-0.857167300702,-0.51503807491,0.)) ;
#368=DIRECTION('Vector Direction',(0.,0.,-1.)) ;
#375=DIRECTION('Axis2P3D Direction',(-0.,0.,-1.)) ;
#382=DIRECTION('Vector Direction',(0.,0.,-1.)) ;
#394=DIRECTION('Axis2P3D Direction',(-0.857167300702,0.51503807491,0.)) ;
#395=DIRECTION('Axis2P3D XDirection',(0.,0.,-1.)) ;
#399=DIRECTION('Vector Direction',(0.,0.,-1.)) ;
#406=DIRECTION('Vector Direction',(-0.51503807491,-0.857167300702,0.)) ;
#418=DIRECTION('Axis2P3D Direction',(0.,-0.,-1.)) ;
#419=DIRECTION('Axis2P3D XDirection',(0.857167300702,-0.51503807491,0.)) ;
#423=DIRECTION('Vector Direction',(0.,0.,-1.)) ;
#430=DIRECTION('Axis2P3D Direction',(0.,-0.,-1.)) ;
#442=DIRECTION('Axis2P3D Direction',(0.,1.,0.)) ;
#443=DIRECTION('Axis2P3D XDirection',(0.,0.,-1.)) ;
#447=DIRECTION('Vector Direction',(0.,0.,-1.)) ;
#454=DIRECTION('Vector Direction',(-1.,0.,0.)) ;
#466=DIRECTION('Axis2P3D Direction',(0.,-0.,-1.)) ;
#467=DIRECTION('Axis2P3D XDirection',(-8.881784197E-016,-1.,0.)) ;
#471=DIRECTION('Vector Direction',(0.,0.,-1.)) ;
#478=DIRECTION('Axis2P3D Direction',(0.,-0.,-1.)) ;
#490=DIRECTION('Axis2P3D Direction',(0.857167300702,0.51503807491,0.)) ;
#491=DIRECTION('Axis2P3D XDirection',(0.,0.,-1.)) ;
#495=DIRECTION('Vector Direction',(-0.51503807491,0.857167300702,0.)) ;
#507=DIRECTION('Axis2P3D Direction',(-0.,0.,-1.)) ;
#508=DIRECTION('Axis2P3D XDirection',(-0.857167300702,-0.51503807491,0.)) ;
#512=DIRECTION('Vector Direction',(0.857167300702,-0.51503807491,0.)) ;
#517=DIRECTION('Vector Direction',(-0.857167300702,-0.51503807491,0.)) ;
#529=DIRECTION('Vector Direction',(0.857167300702,-0.51503807491,0.)) ;
#541=DIRECTION('Vector Direction',(0.,-1.,0.)) ;
#553=DIRECTION('Vector Direction',(0.,-1.,0.)) ;
#565=DIRECTION('Vector Direction',(-0.857167300702,-0.51503807491,0.)) ;
#30=PRESENTATION_LAYER_ASSIGNMENT('1',' ',(#21)) ;
#8=PRODUCT_RELATED_PRODUCT_CATEGORY('part',$,(#5)) ;
#7=PRODUCT_CATEGORY('part','specification') ;
#29=STYLED_ITEM(' ',(#28),#21) ;
#28=PRESENTATION_STYLE_ASSIGNMENT((#27)) ;
#27=SURFACE_STYLE_USAGE(.BOTH.,#26) ;
#26=SURFACE_SIDE_STYLE(' ',(#25)) ;
#25=SURFACE_STYLE_FILL_AREA(#24) ;
#24=FILL_AREA_STYLE(' ',(#23)) ;
#23=FILL_AREA_STYLE_COLOUR(' ',#22) ;
#39=VECTOR('Line Direction',#38,1.) ;
#55=VECTOR('Line Direction',#54,1.) ;
#79=VECTOR('Line Direction',#78,1.) ;
#88=VECTOR('Line Direction',#87,1.) ;
#93=VECTOR('Line Direction',#92,1.) ;
#110=VECTOR('Line Direction',#109,1.) ;
#141=VECTOR('Line Direction',#140,1.) ;
#150=VECTOR('Line Direction',#149,1.) ;
#155=VECTOR('Line Direction',#154,1.) ;
#172=VECTOR('Line Direction',#171,1.) ;
#203=VECTOR('Line Direction',#202,1.) ;
#208=VECTOR('Line Direction',#207,1.) ;
#263=VECTOR('Line Direction',#262,1.) ;
#311=VECTOR('Line Direction',#310,1.) ;
#352=VECTOR('Line Direction',#351,1.) ;
#369=VECTOR('Line Direction',#368,1.) ;
#383=VECTOR('Line Direction',#382,1.) ;
#400=VECTOR('Line Direction',#399,1.) ;
#407=VECTOR('Line Direction',#406,1.) ;
#424=VECTOR('Line Direction',#423,1.) ;
#448=VECTOR('Line Direction',#447,1.) ;
#455=VECTOR('Line Direction',#454,1.) ;
#472=VECTOR('Line Direction',#471,1.) ;
#496=VECTOR('Line Direction',#495,1.) ;
#513=VECTOR('Line Direction',#512,1.) ;
#518=VECTOR('Line Direction',#517,1.) ;
#530=VECTOR('Line Direction',#529,1.) ;
#542=VECTOR('Line Direction',#541,1.) ;
#554=VECTOR('Line Direction',#553,1.) ;
#566=VECTOR('Line Direction',#565,1.) ;
#15=UNCERTAINTY_MEASURE_WITH_UNIT(LENGTH_MEASURE(0.005),#12,'distance_accuracy_value','CONFUSED CURVE UNCERTAINTY') ;
#584=SHAPE_REPRESENTATION_RELATIONSHIP(' ',' ',#19,#583) ;
#66=ORIENTED_EDGE('',*,*,#45,.T.) ;
#67=ORIENTED_EDGE('',*,*,#52,.F.) ;
#68=ORIENTED_EDGE('',*,*,#59,.F.) ;
#69=ORIENTED_EDGE('',*,*,#64,.T.) ;
#97=ORIENTED_EDGE('',*,*,#85,.T.) ;
#98=ORIENTED_EDGE('',*,*,#90,.F.) ;
#99=ORIENTED_EDGE('',*,*,#45,.F.) ;
#100=ORIENTED_EDGE('',*,*,#95,.T.) ;
#128=ORIENTED_EDGE('',*,*,#116,.T.) ;
#129=ORIENTED_EDGE('',*,*,#121,.F.) ;
#130=ORIENTED_EDGE('',*,*,#85,.F.) ;
#131=ORIENTED_EDGE('',*,*,#126,.T.) ;
#159=ORIENTED_EDGE('',*,*,#147,.T.) ;
#160=ORIENTED_EDGE('',*,*,#152,.F.) ;
#161=ORIENTED_EDGE('',*,*,#116,.F.) ;
#162=ORIENTED_EDGE('',*,*,#157,.T.) ;
#190=ORIENTED_EDGE('',*,*,#178,.T.) ;
#191=ORIENTED_EDGE('',*,*,#183,.F.) ;
#192=ORIENTED_EDGE('',*,*,#147,.F.) ;
#193=ORIENTED_EDGE('',*,*,#188,.T.) ;
#212=ORIENTED_EDGE('',*,*,#59,.T.) ;
#213=ORIENTED_EDGE('',*,*,#205,.F.) ;
#214=ORIENTED_EDGE('',*,*,#178,.F.) ;
#215=ORIENTED_EDGE('',*,*,#210,.T.) ;
#243=ORIENTED_EDGE('',*,*,#229,.T.) ;
#244=ORIENTED_EDGE('',*,*,#236,.F.) ;
#245=ORIENTED_EDGE('',*,*,#241,.F.) ;
#246=ORIENTED_EDGE('',*,*,#52,.T.) ;
#267=ORIENTED_EDGE('',*,*,#260,.T.) ;
#268=ORIENTED_EDGE('',*,*,#265,.F.) ;
#269=ORIENTED_EDGE('',*,*,#229,.F.) ;
#270=ORIENTED_EDGE('',*,*,#90,.T.) ;
#291=ORIENTED_EDGE('',*,*,#284,.T.) ;
#292=ORIENTED_EDGE('',*,*,#289,.F.) ;
#293=ORIENTED_EDGE('',*,*,#260,.F.) ;
#294=ORIENTED_EDGE('',*,*,#121,.T.) ;
#315=ORIENTED_EDGE('',*,*,#308,.T.) ;
#316=ORIENTED_EDGE('',*,*,#313,.F.) ;
#317=ORIENTED_EDGE('',*,*,#284,.F.) ;
#318=ORIENTED_EDGE('',*,*,#152,.T.) ;
#339=ORIENTED_EDGE('',*,*,#332,.T.) ;
#340=ORIENTED_EDGE('',*,*,#337,.F.) ;
#341=ORIENTED_EDGE('',*,*,#308,.F.) ;
#342=ORIENTED_EDGE('',*,*,#183,.T.) ;
#356=ORIENTED_EDGE('',*,*,#241,.T.) ;
#357=ORIENTED_EDGE('',*,*,#354,.F.) ;
#358=ORIENTED_EDGE('',*,*,#332,.F.) ;
#359=ORIENTED_EDGE('',*,*,#205,.T.) ;
#387=ORIENTED_EDGE('',*,*,#373,.T.) ;
#388=ORIENTED_EDGE('',*,*,#380,.F.) ;
#389=ORIENTED_EDGE('',*,*,#385,.F.) ;
#390=ORIENTED_EDGE('',*,*,#236,.T.) ;
#411=ORIENTED_EDGE('',*,*,#404,.T.) ;
#412=ORIENTED_EDGE('',*,*,#409,.F.) ;
#413=ORIENTED_EDGE('',*,*,#373,.F.) ;
#414=ORIENTED_EDGE('',*,*,#265,.T.) ;
#435=ORIENTED_EDGE('',*,*,#428,.T.) ;
#436=ORIENTED_EDGE('',*,*,#433,.F.) ;
#437=ORIENTED_EDGE('',*,*,#404,.F.) ;
#438=ORIENTED_EDGE('',*,*,#289,.T.) ;
#459=ORIENTED_EDGE('',*,*,#452,.T.) ;
#460=ORIENTED_EDGE('',*,*,#457,.F.) ;
#461=ORIENTED_EDGE('',*,*,#428,.F.) ;
#462=ORIENTED_EDGE('',*,*,#313,.T.) ;
#483=ORIENTED_EDGE('',*,*,#476,.T.) ;
#484=ORIENTED_EDGE('',*,*,#481,.F.) ;
#485=ORIENTED_EDGE('',*,*,#452,.F.) ;
#486=ORIENTED_EDGE('',*,*,#337,.T.) ;
#500=ORIENTED_EDGE('',*,*,#385,.T.) ;
#501=ORIENTED_EDGE('',*,*,#498,.F.) ;
#502=ORIENTED_EDGE('',*,*,#476,.F.) ;
#503=ORIENTED_EDGE('',*,*,#354,.T.) ;
#522=ORIENTED_EDGE('',*,*,#515,.T.) ;
#523=ORIENTED_EDGE('',*,*,#64,.F.) ;
#524=ORIENTED_EDGE('',*,*,#520,.F.) ;
#525=ORIENTED_EDGE('',*,*,#380,.T.) ;
#534=ORIENTED_EDGE('',*,*,#532,.T.) ;
#535=ORIENTED_EDGE('',*,*,#95,.F.) ;
#536=ORIENTED_EDGE('',*,*,#515,.F.) ;
#537=ORIENTED_EDGE('',*,*,#409,.T.) ;
#546=ORIENTED_EDGE('',*,*,#544,.T.) ;
#547=ORIENTED_EDGE('',*,*,#126,.F.) ;
#548=ORIENTED_EDGE('',*,*,#532,.F.) ;
#549=ORIENTED_EDGE('',*,*,#433,.T.) ;
#558=ORIENTED_EDGE('',*,*,#556,.T.) ;
#559=ORIENTED_EDGE('',*,*,#157,.F.) ;
#560=ORIENTED_EDGE('',*,*,#544,.F.) ;
#561=ORIENTED_EDGE('',*,*,#457,.T.) ;
#570=ORIENTED_EDGE('',*,*,#568,.T.) ;
#571=ORIENTED_EDGE('',*,*,#188,.F.) ;
#572=ORIENTED_EDGE('',*,*,#556,.F.) ;
#573=ORIENTED_EDGE('',*,*,#481,.T.) ;
#577=ORIENTED_EDGE('',*,*,#520,.T.) ;
#578=ORIENTED_EDGE('',*,*,#210,.F.) ;
#579=ORIENTED_EDGE('',*,*,#568,.F.) ;
#580=ORIENTED_EDGE('',*,*,#498,.T.) ;
#31=CLOSED_SHELL('Closed Shell',(#71,#102,#133,#164,#195,#217,#248,#272,#296,#320,#344,#361,#392,#416,#440,#464,#488,#505,#527,#539,#551,#563,#575,#582)) ;
#583=ADVANCED_BREP_SHAPE_REPRESENTATION('NONE',(#21),#16) ;
#71=ADVANCED_FACE('Koerper.2',(#70),#36,.F.) ;
#102=ADVANCED_FACE('Koerper.2',(#101),#76,.F.) ;
#133=ADVANCED_FACE('Koerper.2',(#132),#107,.F.) ;
#164=ADVANCED_FACE('Koerper.2',(#163),#138,.F.) ;
#195=ADVANCED_FACE('Koerper.2',(#194),#169,.F.) ;
#217=ADVANCED_FACE('Koerper.2',(#216),#200,.F.) ;
#248=ADVANCED_FACE('Koerper.2',(#247),#222,.T.) ;
#272=ADVANCED_FACE('Koerper.2',(#271),#253,.T.) ;
#296=ADVANCED_FACE('Koerper.2',(#295),#277,.T.) ;
#320=ADVANCED_FACE('Koerper.2',(#319),#301,.T.) ;
#344=ADVANCED_FACE('Koerper.2',(#343),#325,.T.) ;
#361=ADVANCED_FACE('Koerper.2',(#360),#349,.T.) ;
#392=ADVANCED_FACE('Koerper.2',(#391),#366,.T.) ;
#416=ADVANCED_FACE('Koerper.2',(#415),#397,.F.) ;
#440=ADVANCED_FACE('Koerper.2',(#439),#421,.T.) ;
#464=ADVANCED_FACE('Koerper.2',(#463),#445,.F.) ;
#488=ADVANCED_FACE('Koerper.2',(#487),#469,.T.) ;
#505=ADVANCED_FACE('Koerper.2',(#504),#493,.F.) ;
#527=ADVANCED_FACE('Koerper.2',(#526),#510,.T.) ;
#539=ADVANCED_FACE('Koerper.2',(#538),#510,.T.) ;
#551=ADVANCED_FACE('Koerper.2',(#550),#510,.T.) ;
#563=ADVANCED_FACE('Koerper.2',(#562),#510,.T.) ;
#575=ADVANCED_FACE('Koerper.2',(#574),#510,.T.) ;
#582=ADVANCED_FACE('Koerper.2',(#581),#510,.T.) ;
#4=APPLICATION_PROTOCOL_DEFINITION('international standard','automotive_design',2001,#1) ;
#21=MANIFOLD_SOLID_BREP('Koerper.2',#31) ;
#49=CIRCLE('generated circle',#48,21.5) ;
#63=CIRCLE('generated circle',#62,21.5) ;
#120=CIRCLE('generated circle',#119,4.) ;
#125=CIRCLE('generated circle',#124,4.) ;
#182=CIRCLE('generated circle',#181,4.) ;
#187=CIRCLE('generated circle',#186,4.) ;
#226=CIRCLE('generated circle',#225,1.) ;
#233=CIRCLE('generated circle',#232,23.5) ;
#240=CIRCLE('generated circle',#239,1.) ;
#257=CIRCLE('generated circle',#256,1.) ;
#281=CIRCLE('generated circle',#280,1.) ;
#288=CIRCLE('generated circle',#287,6.) ;
#305=CIRCLE('generated circle',#304,1.) ;
#329=CIRCLE('generated circle',#328,1.) ;
#336=CIRCLE('generated circle',#335,6.) ;
#377=CIRCLE('generated circle',#376,23.5) ;
#432=CIRCLE('generated circle',#431,6.) ;
#480=CIRCLE('generated circle',#479,6.) ;
#22=COLOUR_RGB('Colour',1.,0.501960784314,0.) ;
#36=CYLINDRICAL_SURFACE('generated cylinder',#35,21.5) ;
#107=CYLINDRICAL_SURFACE('generated cylinder',#106,4.) ;
#169=CYLINDRICAL_SURFACE('generated cylinder',#168,4.) ;
#253=CYLINDRICAL_SURFACE('generated cylinder',#252,1.) ;
#301=CYLINDRICAL_SURFACE('generated cylinder',#300,1.) ;
#349=CYLINDRICAL_SURFACE('generated cylinder',#348,1.) ;
#366=CYLINDRICAL_SURFACE('generated cylinder',#365,23.5) ;
#421=CYLINDRICAL_SURFACE('generated cylinder',#420,6.) ;
#469=CYLINDRICAL_SURFACE('generated cylinder',#468,6.) ;
#222=TOROIDAL_SURFACE('homeo Torus',#221,22.5,1.) ;
#277=TOROIDAL_SURFACE('homeo Torus',#276,5.,1.) ;
#325=TOROIDAL_SURFACE('homeo Torus',#324,5.,1.) ;
#45=EDGE_CURVE('',#42,#44,#40,.F.) ;
#52=EDGE_CURVE('',#51,#44,#49,.T.) ;
#59=EDGE_CURVE('',#58,#51,#56,.F.) ;
#64=EDGE_CURVE('',#58,#42,#63,.T.) ;
#85=EDGE_CURVE('',#82,#84,#80,.T.) ;
#90=EDGE_CURVE('',#44,#84,#89,.T.) ;
#95=EDGE_CURVE('',#42,#82,#94,.T.) ;
#116=EDGE_CURVE('',#113,#115,#111,.F.) ;
#121=EDGE_CURVE('',#84,#115,#120,.T.) ;
#126=EDGE_CURVE('',#82,#113,#125,.T.) ;
#147=EDGE_CURVE('',#144,#146,#142,.T.) ;
#152=EDGE_CURVE('',#115,#146,#151,.T.) ;
#157=EDGE_CURVE('',#113,#144,#156,.T.) ;
#178=EDGE_CURVE('',#175,#177,#173,.F.) ;
#183=EDGE_CURVE('',#146,#177,#182,.T.) ;
#188=EDGE_CURVE('',#144,#175,#187,.T.) ;
#205=EDGE_CURVE('',#177,#51,#204,.T.) ;
#210=EDGE_CURVE('',#175,#58,#209,.T.) ;
#229=EDGE_CURVE('',#44,#228,#226,.T.) ;
#236=EDGE_CURVE('',#235,#228,#233,.T.) ;
#241=EDGE_CURVE('',#51,#235,#240,.T.) ;
#260=EDGE_CURVE('',#84,#259,#257,.T.) ;
#265=EDGE_CURVE('',#228,#259,#264,.F.) ;
#284=EDGE_CURVE('',#115,#283,#281,.T.) ;
#289=EDGE_CURVE('',#259,#283,#288,.T.) ;
#308=EDGE_CURVE('',#146,#307,#305,.T.) ;
#313=EDGE_CURVE('',#283,#307,#312,.F.) ;
#332=EDGE_CURVE('',#177,#331,#329,.T.) ;
#337=EDGE_CURVE('',#307,#331,#336,.T.) ;
#354=EDGE_CURVE('',#331,#235,#353,.F.) ;
#373=EDGE_CURVE('',#228,#372,#370,.T.) ;
#380=EDGE_CURVE('',#379,#372,#377,.T.) ;
#385=EDGE_CURVE('',#235,#379,#384,.T.) ;
#404=EDGE_CURVE('',#259,#403,#401,.T.) ;
#409=EDGE_CURVE('',#372,#403,#408,.T.) ;
#428=EDGE_CURVE('',#283,#427,#425,.T.) ;
#433=EDGE_CURVE('',#403,#427,#432,.T.) ;
#452=EDGE_CURVE('',#307,#451,#449,.T.) ;
#457=EDGE_CURVE('',#427,#451,#456,.T.) ;
#476=EDGE_CURVE('',#331,#475,#473,.T.) ;
#481=EDGE_CURVE('',#451,#475,#480,.T.) ;
#498=EDGE_CURVE('',#475,#379,#497,.T.) ;
#515=EDGE_CURVE('',#372,#42,#514,.F.) ;
#520=EDGE_CURVE('',#379,#58,#519,.F.) ;
#532=EDGE_CURVE('',#403,#82,#531,.F.) ;
#544=EDGE_CURVE('',#427,#113,#543,.F.) ;
#556=EDGE_CURVE('',#451,#144,#555,.F.) ;
#568=EDGE_CURVE('',#475,#175,#567,.F.) ;
#65=EDGE_LOOP('',(#66,#67,#68,#69)) ;
#96=EDGE_LOOP('',(#97,#98,#99,#100)) ;
#127=EDGE_LOOP('',(#128,#129,#130,#131)) ;
#158=EDGE_LOOP('',(#159,#160,#161,#162)) ;
#189=EDGE_LOOP('',(#190,#191,#192,#193)) ;
#211=EDGE_LOOP('',(#212,#213,#214,#215)) ;
#242=EDGE_LOOP('',(#243,#244,#245,#246)) ;
#266=EDGE_LOOP('',(#267,#268,#269,#270)) ;
#290=EDGE_LOOP('',(#291,#292,#293,#294)) ;
#314=EDGE_LOOP('',(#315,#316,#317,#318)) ;
#338=EDGE_LOOP('',(#339,#340,#341,#342)) ;
#355=EDGE_LOOP('',(#356,#357,#358,#359)) ;
#386=EDGE_LOOP('',(#387,#388,#389,#390)) ;
#410=EDGE_LOOP('',(#411,#412,#413,#414)) ;
#434=EDGE_LOOP('',(#435,#436,#437,#438)) ;
#458=EDGE_LOOP('',(#459,#460,#461,#462)) ;
#482=EDGE_LOOP('',(#483,#484,#485,#486)) ;
#499=EDGE_LOOP('',(#500,#501,#502,#503)) ;
#521=EDGE_LOOP('',(#522,#523,#524,#525)) ;
#533=EDGE_LOOP('',(#534,#535,#536,#537)) ;
#545=EDGE_LOOP('',(#546,#547,#548,#549)) ;
#557=EDGE_LOOP('',(#558,#559,#560,#561)) ;
#569=EDGE_LOOP('',(#570,#571,#572,#573)) ;
#576=EDGE_LOOP('',(#577,#578,#579,#580)) ;
#70=FACE_OUTER_BOUND('',#65,.T.) ;
#101=FACE_OUTER_BOUND('',#96,.T.) ;
#132=FACE_OUTER_BOUND('',#127,.T.) ;
#163=FACE_OUTER_BOUND('',#158,.T.) ;
#194=FACE_OUTER_BOUND('',#189,.T.) ;
#216=FACE_OUTER_BOUND('',#211,.T.) ;
#247=FACE_OUTER_BOUND('',#242,.T.) ;
#271=FACE_OUTER_BOUND('',#266,.T.) ;
#295=FACE_OUTER_BOUND('',#290,.T.) ;
#319=FACE_OUTER_BOUND('',#314,.T.) ;
#343=FACE_OUTER_BOUND('',#338,.T.) ;
#360=FACE_OUTER_BOUND('',#355,.T.) ;
#391=FACE_OUTER_BOUND('',#386,.T.) ;
#415=FACE_OUTER_BOUND('',#410,.T.) ;
#439=FACE_OUTER_BOUND('',#434,.T.) ;
#463=FACE_OUTER_BOUND('',#458,.T.) ;
#487=FACE_OUTER_BOUND('',#482,.T.) ;
#504=FACE_OUTER_BOUND('',#499,.T.) ;
#526=FACE_OUTER_BOUND('',#521,.T.) ;
#538=FACE_OUTER_BOUND('',#533,.T.) ;
#550=FACE_OUTER_BOUND('',#545,.T.) ;
#562=FACE_OUTER_BOUND('',#557,.T.) ;
#574=FACE_OUTER_BOUND('',#569,.T.) ;
#581=FACE_OUTER_BOUND('',#576,.T.) ;
#40=LINE('Line',#37,#39) ;
#56=LINE('Line',#53,#55) ;
#80=LINE('Line',#77,#79) ;
#89=LINE('Line',#86,#88) ;
#94=LINE('Line',#91,#93) ;
#111=LINE('Line',#108,#110) ;
#142=LINE('Line',#139,#141) ;
#151=LINE('Line',#148,#150) ;
#156=LINE('Line',#153,#155) ;
#173=LINE('Line',#170,#172) ;
#204=LINE('Line',#201,#203) ;
#209=LINE('Line',#206,#208) ;
#264=LINE('Line',#261,#263) ;
#312=LINE('Line',#309,#311) ;
#353=LINE('Line',#350,#352) ;
#370=LINE('Line',#367,#369) ;
#384=LINE('Line',#381,#383) ;
#401=LINE('Line',#398,#400) ;
#408=LINE('Line',#405,#407) ;
#425=LINE('Line',#422,#424) ;
#449=LINE('Line',#446,#448) ;
#456=LINE('Line',#453,#455) ;
#473=LINE('Line',#470,#472) ;
#497=LINE('Line',#494,#496) ;
#514=LINE('Line',#511,#513) ;
#519=LINE('Line',#516,#518) ;
#531=LINE('Line',#528,#530) ;
#543=LINE('Line',#540,#542) ;
#555=LINE('Line',#552,#554) ;
#567=LINE('Line',#564,#566) ;
#76=PLANE('',#75) ;
#138=PLANE('',#137) ;
#200=PLANE('',#199) ;
#397=PLANE('',#396) ;
#445=PLANE('',#444) ;
#493=PLANE('',#492) ;
#510=PLANE('',#509) ;
#9=PRODUCT_CATEGORY_RELATIONSHIP(' ',' ',#7,#8) ;
#6=PRODUCT_DEFINITION_FORMATION_WITH_SPECIFIED_SOURCE('',' ',#5,.NOT_KNOWN.) ;
#20=SHAPE_DEFINITION_REPRESENTATION(#11,#19) ;
#42=VERTEX_POINT('',#41) ;
#44=VERTEX_POINT('',#43) ;
#51=VERTEX_POINT('',#50) ;
#58=VERTEX_POINT('',#57) ;
#82=VERTEX_POINT('',#81) ;
#84=VERTEX_POINT('',#83) ;
#113=VERTEX_POINT('',#112) ;
#115=VERTEX_POINT('',#114) ;
#144=VERTEX_POINT('',#143) ;
#146=VERTEX_POINT('',#145) ;
#175=VERTEX_POINT('',#174) ;
#177=VERTEX_POINT('',#176) ;
#228=VERTEX_POINT('',#227) ;
#235=VERTEX_POINT('',#234) ;
#259=VERTEX_POINT('',#258) ;
#283=VERTEX_POINT('',#282) ;
#307=VERTEX_POINT('',#306) ;
#331=VERTEX_POINT('',#330) ;
#372=VERTEX_POINT('',#371) ;
#379=VERTEX_POINT('',#378) ;
#403=VERTEX_POINT('',#402) ;
#427=VERTEX_POINT('',#426) ;
#451=VERTEX_POINT('',#450) ;
#475=VERTEX_POINT('',#474) ;
#12=(LENGTH_UNIT()NAMED_UNIT(*)SI_UNIT(.MILLI.,.METRE.)) ;
#13=(NAMED_UNIT(*)PLANE_ANGLE_UNIT()SI_UNIT($,.RADIAN.)) ;
#14=(NAMED_UNIT(*)SI_UNIT($,.STERADIAN.)SOLID_ANGLE_UNIT()) ;
#16=(GEOMETRIC_REPRESENTATION_CONTEXT(3)GLOBAL_UNCERTAINTY_ASSIGNED_CONTEXT((#15))GLOBAL_UNIT_ASSIGNED_CONTEXT((#12,#13,#14))REPRESENTATION_CONTEXT(' ',' ')) ;
ENDSEC;
END-ISO-10303-21;
