ISO-10303-21;
HEADER;
FILE_DESCRIPTION(('CATIA V5 STEP Exchange','CAx-IF Rec.Pracs.--- Model Styling and Organization---1.5--- 2016-08-15','CAx-IF Rec.Pracs.---Supplemental Geometry---1.0---2011-11-01','CAx-IF Rec.Pracs.--- Composite Materials ---1.1---2010-07-15'),'2;1');

FILE_NAME ('2159609-2_0', '2025-03-11T11:48:16+00:00', ('none'), ('Weidmueller'), 'CATIA Version 5-6 Release 2022 SP4 HF5', 'CATIA V5 STEP AP214 v3', 'none');

FILE_SCHEMA(('AUTOMOTIVE_DESIGN { 1 0 10303 214 1 1 1 1 }'));

ENDSEC;
DATA;
#5=PRODUCT('3142030000','','',(#2)) ;
#2=PRODUCT_CONTEXT(' ',#1,'mechanical') ;
#1=APPLICATION_CONTEXT('automotive design') ;
#10=PRODUCT_DEFINITION('',' ',#6,#3) ;
#3=PRODUCT_DEFINITION_CONTEXT('part definition',#1,' ') ;
#11=PRODUCT_DEFINITION_SHAPE(' ',' ',#10) ;
#525=MECHANICAL_DESIGN_GEOMETRIC_PRESENTATION_REPRESENTATION(' ',(#29),#16) ;
#19=SHAPE_REPRESENTATION(' ',(#18),#16) ;
#18=AXIS2_PLACEMENT_3D(' ',#17,$,$) ;
#34=AXIS2_PLACEMENT_3D('Cylinder Axis2P3D',#31,#32,#33) ;
#47=AXIS2_PLACEMENT_3D('Circle Axis2P3D',#45,#46,$) ;
#54=AXIS2_PLACEMENT_3D('Circle Axis2P3D',#52,#53,$) ;
#68=AXIS2_PLACEMENT_3D('Circle Axis2P3D',#66,#67,$) ;
#81=AXIS2_PLACEMENT_3D('Circle Axis2P3D',#79,#80,$) ;
#95=AXIS2_PLACEMENT_3D('Circle Axis2P3D',#93,#94,$) ;
#102=AXIS2_PLACEMENT_3D('Circle Axis2P3D',#100,#101,$) ;
#117=AXIS2_PLACEMENT_3D('Plane Axis2P3D',#114,#115,#116) ;
#127=AXIS2_PLACEMENT_3D('Plane Axis2P3D',#124,#125,#126) ;
#183=AXIS2_PLACEMENT_3D('Plane Axis2P3D',#180,#181,#182) ;
#230=AXIS2_PLACEMENT_3D('Plane Axis2P3D',#227,#228,#229) ;
#261=AXIS2_PLACEMENT_3D('Plane Axis2P3D',#258,#259,#260) ;
#284=AXIS2_PLACEMENT_3D('Plane Axis2P3D',#281,#282,#283) ;
#300=AXIS2_PLACEMENT_3D('Plane Axis2P3D',#297,#298,#299) ;
#312=AXIS2_PLACEMENT_3D('Plane Axis2P3D',#309,#310,#311) ;
#329=AXIS2_PLACEMENT_3D('Plane Axis2P3D',#326,#327,#328) ;
#416=AXIS2_PLACEMENT_3D('Circle Axis2P3D',#414,#415,$) ;
#423=AXIS2_PLACEMENT_3D('Circle Axis2P3D',#421,#422,$) ;
#436=AXIS2_PLACEMENT_3D('Circle Axis2P3D',#434,#435,$) ;
#443=AXIS2_PLACEMENT_3D('Circle Axis2P3D',#441,#442,$) ;
#468=AXIS2_PLACEMENT_3D('Torus Axis2P3D',#465,#466,#467) ;
#472=AXIS2_PLACEMENT_3D('Circle Axis2P3D',#470,#471,$) ;
#479=AXIS2_PLACEMENT_3D('Circle Axis2P3D',#477,#478,$) ;
#486=AXIS2_PLACEMENT_3D('Circle Axis2P3D',#484,#485,$) ;
#491=AXIS2_PLACEMENT_3D('Circle Axis2P3D',#489,#490,$) ;
#508=AXIS2_PLACEMENT_3D('Torus Axis2P3D',#505,#506,#507) ;
#17=CARTESIAN_POINT(' ',(0.,0.,0.)) ;
#31=CARTESIAN_POINT('Axis2P3D Location',(1.8,1.8,5.)) ;
#36=CARTESIAN_POINT('Line Origine',(3.45,1.8,5.)) ;
#40=CARTESIAN_POINT('Vertex',(3.45,1.8,2.71458980255)) ;
#42=CARTESIAN_POINT('Vertex',(3.45000000037,1.8,1.9179350319E-15)) ;
#45=CARTESIAN_POINT('Axis2P3D Location',(1.8,1.8,2.71458980255)) ;
#49=CARTESIAN_POINT('Vertex',(2.96672618896,0.633273811042,2.71458980255)) ;
#52=CARTESIAN_POINT('Axis2P3D Location',(1.8,1.8,2.71458980255)) ;
#56=CARTESIAN_POINT('Vertex',(0.15,1.8,2.71458980255)) ;
#59=CARTESIAN_POINT('Line Origine',(0.15,1.8,5.)) ;
#63=CARTESIAN_POINT('Vertex',(0.149999999627,1.8,1.63216953328E-15)) ;
#66=CARTESIAN_POINT('Axis2P3D Location',(1.8,1.8,8.881784197E-16)) ;
#79=CARTESIAN_POINT('Axis2P3D Location',(1.8,1.8,8.881784197E-16)) ;
#85=CARTESIAN_POINT('Control Point',(0.15,1.8,2.71458980338)) ;
#86=CARTESIAN_POINT('Control Point',(0.15,2.1239767424,2.71458980317)) ;
#87=CARTESIAN_POINT('Control Point',(0.234927852907,2.44827410942,2.71458980296)) ;
#88=CARTESIAN_POINT('Control Point',(0.404187659543,2.73764003746,2.71458980275)) ;
#89=CARTESIAN_POINT('Control Point',(0.633273811042,2.96672618896,2.71458980255)) ;
#90=CARTESIAN_POINT('Vertex',(0.633273811042,2.96672618896,2.71458980338)) ;
#93=CARTESIAN_POINT('Axis2P3D Location',(1.8,1.8,2.71458980255)) ;
#97=CARTESIAN_POINT('Vertex',(2.02092877848,3.43514234085,2.71458980255)) ;
#100=CARTESIAN_POINT('Axis2P3D Location',(1.8,1.8,2.71458980255)) ;
#114=CARTESIAN_POINT('Axis2P3D Location',(1.8,1.8,1.77505228259E-15)) ;
#124=CARTESIAN_POINT('Axis2P3D Location',(0.025,0.025,6.5)) ;
#129=CARTESIAN_POINT('Line Origine',(0.025,3.5207106784,6.5)) ;
#133=CARTESIAN_POINT('Vertex',(0.025,3.57500000075,6.5)) ;
#135=CARTESIAN_POINT('Vertex',(0.0250000002635,3.46642135597,6.5)) ;
#138=CARTESIAN_POINT('Line Origine',(0.025,3.57500000075,5.75)) ;
#142=CARTESIAN_POINT('Vertex',(0.025,3.57500000075,5.)) ;
#145=CARTESIAN_POINT('Line Origine',(0.025,1.80000000037,5.)) ;
#149=CARTESIAN_POINT('Vertex',(0.0249999992549,0.025,5.)) ;
#152=CARTESIAN_POINT('Line Origine',(0.025,0.025,11.25)) ;
#156=CARTESIAN_POINT('Vertex',(0.0249999992549,0.025,17.5)) ;
#159=CARTESIAN_POINT('Line Origine',(0.025,1.74571067803,17.5)) ;
#163=CARTESIAN_POINT('Vertex',(0.0250000002635,3.46642135597,17.5)) ;
#166=CARTESIAN_POINT('Line Origine',(0.025,3.46642135605,12.)) ;
#180=CARTESIAN_POINT('Axis2P3D Location',(3.325,0.025,6.5)) ;
#185=CARTESIAN_POINT('Line Origine',(3.46642135531,0.025,12.)) ;
#189=CARTESIAN_POINT('Vertex',(3.46642135531,0.025,17.5)) ;
#191=CARTESIAN_POINT('Vertex',(3.46642135531,0.025,6.5)) ;
#194=CARTESIAN_POINT('Line Origine',(1.74571067728,0.025,17.5)) ;
#199=CARTESIAN_POINT('Line Origine',(1.79999999963,0.025,5.)) ;
#203=CARTESIAN_POINT('Vertex',(3.575,0.025,5.)) ;
#206=CARTESIAN_POINT('Line Origine',(3.575,0.025,5.75)) ;
#210=CARTESIAN_POINT('Vertex',(3.575,0.025,6.5)) ;
#213=CARTESIAN_POINT('Line Origine',(3.52071067765,0.025,6.5)) ;
#227=CARTESIAN_POINT('Axis2P3D Location',(0.025,3.575,6.5)) ;
#232=CARTESIAN_POINT('Line Origine',(1.80000000037,3.575,6.5)) ;
#236=CARTESIAN_POINT('Vertex',(3.575,3.575,6.5)) ;
#239=CARTESIAN_POINT('Line Origine',(3.57500000075,3.575,5.75)) ;
#243=CARTESIAN_POINT('Vertex',(3.575,3.575,5.)) ;
#246=CARTESIAN_POINT('Line Origine',(1.80000000037,3.575,5.)) ;
#258=CARTESIAN_POINT('Axis2P3D Location',(-0.766,2.596,6.5)) ;
#263=CARTESIAN_POINT('Line Origine',(3.57500000001,1.79999999991,6.5)) ;
#268=CARTESIAN_POINT('Line Origine',(1.7457106773,1.74571067756,6.5)) ;
#281=CARTESIAN_POINT('Axis2P3D Location',(-0.766,2.596,17.5)) ;
#286=CARTESIAN_POINT('Line Origine',(1.7457106773,1.74571067756,17.5)) ;
#297=CARTESIAN_POINT('Axis2P3D Location',(0.0957106781187,3.39571067812,6.5)) ;
#309=CARTESIAN_POINT('Axis2P3D Location',(3.575,3.575,6.5)) ;
#314=CARTESIAN_POINT('Line Origine',(3.575,1.79999999963,5.)) ;
#326=CARTESIAN_POINT('Axis2P3D Location',(-0.766,2.596,5.)) ;
#338=CARTESIAN_POINT('Control Point',(0.14999999927,1.79999999991,5.)) ;
#339=CARTESIAN_POINT('Control Point',(0.14999999927,1.98878200168,5.)) ;
#340=CARTESIAN_POINT('Control Point',(0.176998972134,2.17756342493,5.)) ;
#341=CARTESIAN_POINT('Control Point',(0.231010464318,2.36121224898,5.)) ;
#342=CARTESIAN_POINT('Control Point',(0.390016395694,2.70789415423,5.)) ;
#343=CARTESIAN_POINT('Control Point',(0.639821649348,2.99610730018,5.)) ;
#344=CARTESIAN_POINT('Control Point',(0.784657119134,3.12127445379,5.)) ;
#345=CARTESIAN_POINT('Control Point',(1.10290453088,3.32467521651,5.)) ;
#346=CARTESIAN_POINT('Control Point',(1.46497454089,3.43166429218,5.)) ;
#347=CARTESIAN_POINT('Control Point',(1.65057179578,3.45898838371,5.)) ;
#348=CARTESIAN_POINT('Control Point',(1.83748840767,3.45992749659,5.)) ;
#349=CARTESIAN_POINT('Control Point',(2.02092877851,3.43514234117,5.)) ;
#350=CARTESIAN_POINT('Vertex',(0.15,1.8,5.)) ;
#352=CARTESIAN_POINT('Vertex',(2.02092877848,3.43514234085,5.)) ;
#356=CARTESIAN_POINT('Control Point',(3.45000000001,1.79999999991,5.)) ;
#357=CARTESIAN_POINT('Control Point',(3.45000000001,1.61121799487,5.)) ;
#358=CARTESIAN_POINT('Control Point',(3.42300102621,1.42243656834,5.)) ;
#359=CARTESIAN_POINT('Control Point',(3.36898953773,1.23878775872,5.)) ;
#360=CARTESIAN_POINT('Control Point',(3.2099836051,0.892105848532,5.)) ;
#361=CARTESIAN_POINT('Control Point',(2.96017834788,0.603892699131,5.)) ;
#362=CARTESIAN_POINT('Control Point',(2.81534288466,0.478725547725,5.)) ;
#363=CARTESIAN_POINT('Control Point',(2.49396754317,0.273325637677,5.)) ;
#364=CARTESIAN_POINT('Control Point',(2.12790393957,0.16624191409,5.)) ;
#365=CARTESIAN_POINT('Control Point',(1.9383664721,0.139415142682,5.)) ;
#366=CARTESIAN_POINT('Control Point',(1.55696174103,0.140705583015,5.)) ;
#367=CARTESIAN_POINT('Control Point',(1.19121051522,0.248851445374,5.)) ;
#368=CARTESIAN_POINT('Control Point',(1.01732810036,0.328907872558,5.)) ;
#369=CARTESIAN_POINT('Control Point',(0.697349994397,0.536477731034,5.)) ;
#370=CARTESIAN_POINT('Control Point',(0.448382398057,0.825414788136,5.)) ;
#371=CARTESIAN_POINT('Control Point',(0.345526828795,0.986860932996,5.)) ;
#372=CARTESIAN_POINT('Control Point',(0.228758963239,1.2460652531,5.)) ;
#373=CARTESIAN_POINT('Control Point',(0.169635609127,1.52191938782,5.)) ;
#374=CARTESIAN_POINT('Control Point',(0.156502346515,1.61470983531,5.)) ;
#375=CARTESIAN_POINT('Control Point',(0.14999999927,1.70735498728,5.)) ;
#376=CARTESIAN_POINT('Control Point',(0.14999999927,1.79999999991,5.)) ;
#377=CARTESIAN_POINT('Vertex',(3.45,1.8,5.)) ;
#381=CARTESIAN_POINT('Control Point',(2.02092877851,3.43514234117,5.)) ;
#382=CARTESIAN_POINT('Control Point',(2.20801086732,3.40986514277,5.)) ;
#383=CARTESIAN_POINT('Control Point',(2.39147732209,3.35783216467,5.)) ;
#384=CARTESIAN_POINT('Control Point',(2.56624051299,3.27971714428,5.)) ;
#385=CARTESIAN_POINT('Control Point',(2.88851037851,3.07572360408,5.)) ;
#386=CARTESIAN_POINT('Control Point',(3.14068028761,2.78957710283,5.)) ;
#387=CARTESIAN_POINT('Control Point',(3.24532743427,2.6292864153,5.)) ;
#388=CARTESIAN_POINT('Control Point',(3.36652914857,2.3680480834,5.)) ;
#389=CARTESIAN_POINT('Control Point',(3.42877272735,2.08906680936,5.)) ;
#390=CARTESIAN_POINT('Control Point',(3.4429742863,1.99260276842,5.)) ;
#391=CARTESIAN_POINT('Control Point',(3.45000000001,1.89630130889,5.)) ;
#392=CARTESIAN_POINT('Control Point',(3.45000000001,1.79999999991,5.)) ;
#400=CARTESIAN_POINT('Line Origine',(3.45,1.8,5.)) ;
#404=CARTESIAN_POINT('Vertex',(3.45,1.8,3.38541019708)) ;
#407=CARTESIAN_POINT('Line Origine',(0.15,1.8,5.)) ;
#411=CARTESIAN_POINT('Vertex',(0.15,1.8,3.38541019662)) ;
#414=CARTESIAN_POINT('Axis2P3D Location',(1.8,1.8,3.38541019708)) ;
#418=CARTESIAN_POINT('Vertex',(2.96672618896,0.633273811042,3.38541019708)) ;
#421=CARTESIAN_POINT('Axis2P3D Location',(1.8,1.8,3.38541019708)) ;
#434=CARTESIAN_POINT('Axis2P3D Location',(1.8,1.8,3.38541019708)) ;
#438=CARTESIAN_POINT('Vertex',(2.02092877848,3.43514234085,3.38541019708)) ;
#441=CARTESIAN_POINT('Axis2P3D Location',(1.8,1.8,3.38541019708)) ;
#445=CARTESIAN_POINT('Vertex',(0.633273811042,2.96672618896,3.38541019708)) ;
#449=CARTESIAN_POINT('Control Point',(0.15,1.8,3.38541019662)) ;
#450=CARTESIAN_POINT('Control Point',(0.15,2.1239767424,3.38541019674)) ;
#451=CARTESIAN_POINT('Control Point',(0.234927852907,2.44827410942,3.38541019685)) ;
#452=CARTESIAN_POINT('Control Point',(0.404187659543,2.73764003746,3.38541019697)) ;
#453=CARTESIAN_POINT('Control Point',(0.633273811042,2.96672618896,3.38541019708)) ;
#465=CARTESIAN_POINT('Axis2P3D Location',(1.8,1.8,3.05)) ;
#470=CARTESIAN_POINT('Axis2P3D Location',(2.7545941546,0.845405845398,3.05)) ;
#474=CARTESIAN_POINT('Vertex',(3.07279220614,0.527207793864,3.05)) ;
#477=CARTESIAN_POINT('Axis2P3D Location',(0.845405845398,2.7545941546,3.05)) ;
#481=CARTESIAN_POINT('Vertex',(0.527207793864,3.07279220614,3.05)) ;
#484=CARTESIAN_POINT('Axis2P3D Location',(0.845405845398,2.7545941546,3.05)) ;
#489=CARTESIAN_POINT('Axis2P3D Location',(2.7545941546,0.845405845398,3.05)) ;
#505=CARTESIAN_POINT('Axis2P3D Location',(1.8,1.8,3.05)) ;
#32=DIRECTION('Axis2P3D Direction',(8.65956056235E-17,-8.65956056235E-17,-1.)) ;
#33=DIRECTION('Axis2P3D XDirection',(1.,-1.2111523905E-15,8.65956056235E-17)) ;
#37=DIRECTION('Vector Direction',(8.65956195639E-17,-8.65955973595E-17,-1.)) ;
#46=DIRECTION('Axis2P3D Direction',(8.65956056235E-17,-8.65956056235E-17,-1.)) ;
#53=DIRECTION('Axis2P3D Direction',(8.65956056235E-17,-8.65956056235E-17,-1.)) ;
#60=DIRECTION('Vector Direction',(8.65955973595E-17,-8.65955973595E-17,-1.)) ;
#67=DIRECTION('Axis2P3D Direction',(8.65956056235E-17,-8.65956056235E-17,-1.)) ;
#80=DIRECTION('Axis2P3D Direction',(8.65956056235E-17,-8.65956056235E-17,-1.)) ;
#94=DIRECTION('Axis2P3D Direction',(8.65956056235E-17,-8.65956056235E-17,-1.)) ;
#101=DIRECTION('Axis2P3D Direction',(8.65956056235E-17,-8.65956056235E-17,-1.)) ;
#115=DIRECTION('Axis2P3D Direction',(8.65956056235E-17,-8.65956056235E-17,-1.)) ;
#116=DIRECTION('Axis2P3D XDirection',(1.,-1.2111523905E-15,8.65956056235E-17)) ;
#125=DIRECTION('Axis2P3D Direction',(-1.,1.11022302463E-15,-8.65956056235E-17)) ;
#126=DIRECTION('Axis2P3D XDirection',(1.11022302463E-15,1.,-8.65956056235E-17)) ;
#130=DIRECTION('Vector Direction',(-1.11836580445E-15,-1.,0.)) ;
#139=DIRECTION('Vector Direction',(8.55796914815E-17,0.,-1.)) ;
#146=DIRECTION('Vector Direction',(-1.11022302439E-15,-1.,0.)) ;
#153=DIRECTION('Vector Direction',(8.65973959208E-17,-8.65973959208E-17,-1.)) ;
#160=DIRECTION('Vector Direction',(-1.10996611542E-15,-1.,0.)) ;
#167=DIRECTION('Vector Direction',(8.67361737988E-17,-8.07434927E-17,-1.)) ;
#181=DIRECTION('Axis2P3D Direction',(-1.2111523905E-15,-1.,8.65956056235E-17)) ;
#182=DIRECTION('Axis2P3D XDirection',(-1.,1.2111523905E-15,-8.65956056235E-17)) ;
#186=DIRECTION('Vector Direction',(8.07434927E-17,-8.67361737988E-17,-1.)) ;
#195=DIRECTION('Vector Direction',(1.,-1.21078047649E-15,0.)) ;
#200=DIRECTION('Vector Direction',(1.,-1.21088585143E-15,0.)) ;
#207=DIRECTION('Vector Direction',(0.,-8.55796914815E-17,-1.)) ;
#214=DIRECTION('Vector Direction',(-1.,1.21422573055E-15,0.)) ;
#228=DIRECTION('Axis2P3D Direction',(-9.27167532702E-16,-1.,8.65956056235E-17)) ;
#229=DIRECTION('Axis2P3D XDirection',(-1.,9.27167532702E-16,-8.65956056235E-17)) ;
#233=DIRECTION('Vector Direction',(-1.,8.75668864309E-16,0.)) ;
#240=DIRECTION('Vector Direction',(0.,0.,1.)) ;
#247=DIRECTION('Vector Direction',(-1.,8.75668864309E-16,0.)) ;
#259=DIRECTION('Axis2P3D Direction',(-8.65956056235E-17,8.65956056235E-17,1.)) ;
#260=DIRECTION('Axis2P3D XDirection',(1.,-1.2111523905E-15,8.65956056235E-17)) ;
#264=DIRECTION('Vector Direction',(-1.25095552044E-15,-1.,0.)) ;
#269=DIRECTION('Vector Direction',(0.707106781187,-0.707106781187,0.)) ;
#282=DIRECTION('Axis2P3D Direction',(-8.65956056235E-17,8.65956056235E-17,1.)) ;
#283=DIRECTION('Axis2P3D XDirection',(1.,-1.2111523905E-15,8.65956056235E-17)) ;
#287=DIRECTION('Vector Direction',(-0.707106781187,0.707106781187,0.)) ;
#298=DIRECTION('Axis2P3D Direction',(0.707106781187,0.707106781187,0.)) ;
#299=DIRECTION('Axis2P3D XDirection',(0.707106781187,-0.707106781187,1.22464679915E-16)) ;
#310=DIRECTION('Axis2P3D Direction',(-1.,2.97614906946E-15,-8.65956056235E-17)) ;
#311=DIRECTION('Axis2P3D XDirection',(2.97614906946E-15,1.,-8.65956056235E-17)) ;
#315=DIRECTION('Vector Direction',(-3.00229324906E-15,-1.,0.)) ;
#327=DIRECTION('Axis2P3D Direction',(-8.65956056235E-17,8.65956056235E-17,1.)) ;
#328=DIRECTION('Axis2P3D XDirection',(1.,-1.2111523905E-15,8.65956056235E-17)) ;
#401=DIRECTION('Vector Direction',(8.65956195639E-17,-8.65955973595E-17,-1.)) ;
#408=DIRECTION('Vector Direction',(8.65955973595E-17,-8.65955973595E-17,-1.)) ;
#415=DIRECTION('Axis2P3D Direction',(8.65956056235E-17,-8.65956056235E-17,-1.)) ;
#422=DIRECTION('Axis2P3D Direction',(8.65956056235E-17,-8.65956056235E-17,-1.)) ;
#435=DIRECTION('Axis2P3D Direction',(8.65956056235E-17,-8.65956056235E-17,-1.)) ;
#442=DIRECTION('Axis2P3D Direction',(8.65956056235E-17,-8.65956056235E-17,-1.)) ;
#466=DIRECTION('Axis2P3D Direction',(8.65956056235E-17,-8.65956056235E-17,-1.)) ;
#467=DIRECTION('Axis2P3D XDirection',(0.707106781187,-0.707106781187,0.)) ;
#471=DIRECTION('Axis2P3D Direction',(0.707106781187,0.707106781187,7.76534953577E-31)) ;
#478=DIRECTION('Axis2P3D Direction',(-0.707106781187,-0.707106781187,-7.51883050289E-31)) ;
#485=DIRECTION('Axis2P3D Direction',(-0.707106781187,-0.707106781187,-7.51883050289E-31)) ;
#490=DIRECTION('Axis2P3D Direction',(0.707106781187,0.707106781187,7.76534953577E-31)) ;
#506=DIRECTION('Axis2P3D Direction',(8.65956056235E-17,-8.65956056235E-17,-1.)) ;
#507=DIRECTION('Axis2P3D XDirection',(-0.707106781187,0.707106781187,0.)) ;
#8=PRODUCT_RELATED_PRODUCT_CATEGORY('part',$,(#5)) ;
#7=PRODUCT_CATEGORY('part','specification') ;
#29=STYLED_ITEM(' ',(#28),#21) ;
#28=PRESENTATION_STYLE_ASSIGNMENT((#27)) ;
#27=SURFACE_STYLE_USAGE(.BOTH.,#26) ;
#26=SURFACE_SIDE_STYLE(' ',(#25)) ;
#25=SURFACE_STYLE_FILL_AREA(#24) ;
#24=FILL_AREA_STYLE(' ',(#23)) ;
#23=FILL_AREA_STYLE_COLOUR(' ',#22) ;
#38=VECTOR('Line Direction',#37,1.) ;
#61=VECTOR('Line Direction',#60,1.) ;
#131=VECTOR('Line Direction',#130,1.) ;
#140=VECTOR('Line Direction',#139,1.) ;
#147=VECTOR('Line Direction',#146,1.) ;
#154=VECTOR('Line Direction',#153,1.) ;
#161=VECTOR('Line Direction',#160,1.) ;
#168=VECTOR('Line Direction',#167,1.) ;
#187=VECTOR('Line Direction',#186,1.) ;
#196=VECTOR('Line Direction',#195,1.) ;
#201=VECTOR('Line Direction',#200,1.) ;
#208=VECTOR('Line Direction',#207,1.) ;
#215=VECTOR('Line Direction',#214,1.) ;
#234=VECTOR('Line Direction',#233,1.) ;
#241=VECTOR('Line Direction',#240,1.) ;
#248=VECTOR('Line Direction',#247,1.) ;
#265=VECTOR('Line Direction',#264,1.) ;
#270=VECTOR('Line Direction',#269,1.) ;
#288=VECTOR('Line Direction',#287,1.) ;
#316=VECTOR('Line Direction',#315,1.) ;
#402=VECTOR('Line Direction',#401,1.) ;
#409=VECTOR('Line Direction',#408,1.) ;
#15=UNCERTAINTY_MEASURE_WITH_UNIT(LENGTH_MEASURE(0.005),#12,'distance_accuracy_value','CONFUSED CURVE UNCERTAINTY') ;
#524=SHAPE_REPRESENTATION_RELATIONSHIP(' ',' ',#19,#523) ;
#72=ORIENTED_EDGE('',*,*,#44,.F.) ;
#73=ORIENTED_EDGE('',*,*,#51,.T.) ;
#74=ORIENTED_EDGE('',*,*,#58,.T.) ;
#75=ORIENTED_EDGE('',*,*,#65,.T.) ;
#76=ORIENTED_EDGE('',*,*,#70,.F.) ;
#106=ORIENTED_EDGE('',*,*,#83,.F.) ;
#107=ORIENTED_EDGE('',*,*,#65,.F.) ;
#108=ORIENTED_EDGE('',*,*,#92,.T.) ;
#109=ORIENTED_EDGE('',*,*,#99,.T.) ;
#110=ORIENTED_EDGE('',*,*,#104,.T.) ;
#111=ORIENTED_EDGE('',*,*,#44,.T.) ;
#120=ORIENTED_EDGE('',*,*,#83,.T.) ;
#121=ORIENTED_EDGE('',*,*,#70,.T.) ;
#172=ORIENTED_EDGE('',*,*,#137,.F.) ;
#173=ORIENTED_EDGE('',*,*,#144,.T.) ;
#174=ORIENTED_EDGE('',*,*,#151,.T.) ;
#175=ORIENTED_EDGE('',*,*,#158,.F.) ;
#176=ORIENTED_EDGE('',*,*,#165,.F.) ;
#177=ORIENTED_EDGE('',*,*,#170,.T.) ;
#219=ORIENTED_EDGE('',*,*,#193,.F.) ;
#220=ORIENTED_EDGE('',*,*,#198,.F.) ;
#221=ORIENTED_EDGE('',*,*,#158,.T.) ;
#222=ORIENTED_EDGE('',*,*,#205,.T.) ;
#223=ORIENTED_EDGE('',*,*,#212,.F.) ;
#224=ORIENTED_EDGE('',*,*,#217,.T.) ;
#252=ORIENTED_EDGE('',*,*,#238,.F.) ;
#253=ORIENTED_EDGE('',*,*,#245,.F.) ;
#254=ORIENTED_EDGE('',*,*,#250,.T.) ;
#255=ORIENTED_EDGE('',*,*,#144,.F.) ;
#274=ORIENTED_EDGE('',*,*,#217,.F.) ;
#275=ORIENTED_EDGE('',*,*,#267,.F.) ;
#276=ORIENTED_EDGE('',*,*,#238,.T.) ;
#277=ORIENTED_EDGE('',*,*,#137,.T.) ;
#278=ORIENTED_EDGE('',*,*,#272,.T.) ;
#292=ORIENTED_EDGE('',*,*,#290,.T.) ;
#293=ORIENTED_EDGE('',*,*,#165,.T.) ;
#294=ORIENTED_EDGE('',*,*,#198,.T.) ;
#303=ORIENTED_EDGE('',*,*,#272,.F.) ;
#304=ORIENTED_EDGE('',*,*,#170,.F.) ;
#305=ORIENTED_EDGE('',*,*,#290,.F.) ;
#306=ORIENTED_EDGE('',*,*,#193,.T.) ;
#320=ORIENTED_EDGE('',*,*,#212,.T.) ;
#321=ORIENTED_EDGE('',*,*,#318,.F.) ;
#322=ORIENTED_EDGE('',*,*,#245,.T.) ;
#323=ORIENTED_EDGE('',*,*,#267,.T.) ;
#332=ORIENTED_EDGE('',*,*,#250,.F.) ;
#333=ORIENTED_EDGE('',*,*,#318,.T.) ;
#334=ORIENTED_EDGE('',*,*,#205,.F.) ;
#335=ORIENTED_EDGE('',*,*,#151,.F.) ;
#395=ORIENTED_EDGE('',*,*,#354,.F.) ;
#396=ORIENTED_EDGE('',*,*,#379,.F.) ;
#397=ORIENTED_EDGE('',*,*,#393,.F.) ;
#427=ORIENTED_EDGE('',*,*,#406,.F.) ;
#428=ORIENTED_EDGE('',*,*,#379,.T.) ;
#429=ORIENTED_EDGE('',*,*,#413,.T.) ;
#430=ORIENTED_EDGE('',*,*,#420,.F.) ;
#431=ORIENTED_EDGE('',*,*,#425,.F.) ;
#456=ORIENTED_EDGE('',*,*,#354,.T.) ;
#457=ORIENTED_EDGE('',*,*,#393,.T.) ;
#458=ORIENTED_EDGE('',*,*,#406,.T.) ;
#459=ORIENTED_EDGE('',*,*,#440,.F.) ;
#460=ORIENTED_EDGE('',*,*,#447,.F.) ;
#461=ORIENTED_EDGE('',*,*,#454,.F.) ;
#462=ORIENTED_EDGE('',*,*,#413,.F.) ;
#495=ORIENTED_EDGE('',*,*,#476,.T.) ;
#496=ORIENTED_EDGE('',*,*,#420,.T.) ;
#497=ORIENTED_EDGE('',*,*,#454,.T.) ;
#498=ORIENTED_EDGE('',*,*,#483,.F.) ;
#499=ORIENTED_EDGE('',*,*,#488,.F.) ;
#500=ORIENTED_EDGE('',*,*,#92,.F.) ;
#501=ORIENTED_EDGE('',*,*,#58,.F.) ;
#502=ORIENTED_EDGE('',*,*,#493,.T.) ;
#511=ORIENTED_EDGE('',*,*,#483,.T.) ;
#512=ORIENTED_EDGE('',*,*,#447,.T.) ;
#513=ORIENTED_EDGE('',*,*,#440,.T.) ;
#514=ORIENTED_EDGE('',*,*,#425,.T.) ;
#515=ORIENTED_EDGE('',*,*,#476,.F.) ;
#516=ORIENTED_EDGE('',*,*,#493,.F.) ;
#517=ORIENTED_EDGE('',*,*,#51,.F.) ;
#518=ORIENTED_EDGE('',*,*,#104,.F.) ;
#519=ORIENTED_EDGE('',*,*,#99,.F.) ;
#520=ORIENTED_EDGE('',*,*,#488,.T.) ;
#398=FACE_BOUND('',#394,.T.) ;
#30=CLOSED_SHELL('Closed Shell',(#78,#113,#123,#179,#226,#257,#280,#296,#308,#325,#399,#433,#464,#504,#522)) ;
#523=ADVANCED_BREP_SHAPE_REPRESENTATION('NONE',(#21),#16) ;
#78=ADVANCED_FACE('Hauptk\X2\00F6\X0\rper',(#77),#35,.T.) ;
#113=ADVANCED_FACE('Hauptk\X2\00F6\X0\rper',(#112),#35,.T.) ;
#123=ADVANCED_FACE('Hauptk\X2\00F6\X0\rper',(#122),#118,.T.) ;
#179=ADVANCED_FACE('Hauptk\X2\00F6\X0\rper',(#178),#128,.T.) ;
#226=ADVANCED_FACE('Hauptk\X2\00F6\X0\rper',(#225),#184,.T.) ;
#257=ADVANCED_FACE('Hauptk\X2\00F6\X0\rper',(#256),#231,.F.) ;
#280=ADVANCED_FACE('Hauptk\X2\00F6\X0\rper',(#279),#262,.T.) ;
#296=ADVANCED_FACE('Hauptk\X2\00F6\X0\rper',(#295),#285,.T.) ;
#308=ADVANCED_FACE('Hauptk\X2\00F6\X0\rper',(#307),#301,.T.) ;
#325=ADVANCED_FACE('Hauptk\X2\00F6\X0\rper',(#324),#313,.F.) ;
#399=ADVANCED_FACE('Hauptk\X2\00F6\X0\rper',(#336,#398),#330,.F.) ;
#433=ADVANCED_FACE('Hauptk\X2\00F6\X0\rper',(#432),#35,.T.) ;
#464=ADVANCED_FACE('Hauptk\X2\00F6\X0\rper',(#463),#35,.T.) ;
#504=ADVANCED_FACE('Hauptk\X2\00F6\X0\rper',(#503),#469,.T.) ;
#522=ADVANCED_FACE('Hauptk\X2\00F6\X0\rper',(#521),#509,.T.) ;
#4=APPLICATION_PROTOCOL_DEFINITION('international standard','automotive_design',2001,#1) ;
#84=B_SPLINE_CURVE_WITH_KNOTS('',4,(#85,#86,#87,#88,#89),.UNSPECIFIED.,.F.,.U.,(5,5),(-0.647953484803,0.647953484803),.UNSPECIFIED.) ;
#337=B_SPLINE_CURVE_WITH_KNOTS('',5,(#338,#339,#340,#341,#342,#343,#344,#345,#346,#347,#348,#349),.UNSPECIFIED.,.F.,.U.,(6,3,3,6),(0.,1.33489033616,2.66978068164,3.97868620885),.UNSPECIFIED.) ;
#355=B_SPLINE_CURVE_WITH_KNOTS('',5,(#356,#357,#358,#359,#360,#361,#362,#363,#364,#365,#366,#367,#368,#369,#370,#371,#372,#373,#374,#375,#376),.UNSPECIFIED.,.F.,.U.,(6,3,3,3,3,3,6),(0.,1.33489035933,2.66978071581,4.00467107251,5.33956143771,6.67445179709,7.32955096386),.UNSPECIFIED.) ;
#380=B_SPLINE_CURVE_WITH_KNOTS('',5,(#381,#382,#383,#384,#385,#386,#387,#388,#389,#390,#391,#392),.UNSPECIFIED.,.F.,.U.,(6,3,3,6),(0.,1.33489034586,2.66978069068,3.35073377687),.UNSPECIFIED.) ;
#448=B_SPLINE_CURVE_WITH_KNOTS('',4,(#449,#450,#451,#452,#453),.UNSPECIFIED.,.F.,.U.,(5,5),(-0.647953484803,0.647953484803),.UNSPECIFIED.) ;
#21=MANIFOLD_SOLID_BREP('Hauptk\X2\00F6\X0\rper',#30) ;
#48=CIRCLE('generated circle',#47,1.65) ;
#55=CIRCLE('generated circle',#54,1.65) ;
#69=CIRCLE('generated circle',#68,1.65) ;
#82=CIRCLE('generated circle',#81,1.65) ;
#96=CIRCLE('generated circle',#95,1.65) ;
#103=CIRCLE('generated circle',#102,1.65) ;
#417=CIRCLE('generated circle',#416,1.65) ;
#424=CIRCLE('generated circle',#423,1.65) ;
#437=CIRCLE('generated circle',#436,1.65) ;
#444=CIRCLE('generated circle',#443,1.65) ;
#473=CIRCLE('generated circle',#472,0.45) ;
#480=CIRCLE('generated circle',#479,0.45) ;
#487=CIRCLE('generated circle',#486,0.45) ;
#492=CIRCLE('generated circle',#491,0.45) ;
#22=COLOUR_RGB('Colour',0.607843137255,0.141176470588,0.137254901961) ;
#35=CYLINDRICAL_SURFACE('generated cylinder',#34,1.65) ;
#469=TOROIDAL_SURFACE('homeo Torus',#468,1.35,0.45) ;
#509=TOROIDAL_SURFACE('homeo Torus',#508,1.35,0.45) ;
#44=EDGE_CURVE('',#41,#43,#39,.T.) ;
#51=EDGE_CURVE('',#41,#50,#48,.T.) ;
#58=EDGE_CURVE('',#50,#57,#55,.T.) ;
#65=EDGE_CURVE('',#57,#64,#62,.T.) ;
#70=EDGE_CURVE('',#43,#64,#69,.T.) ;
#83=EDGE_CURVE('',#64,#43,#82,.T.) ;
#92=EDGE_CURVE('',#57,#91,#84,.T.) ;
#99=EDGE_CURVE('',#91,#98,#96,.T.) ;
#104=EDGE_CURVE('',#98,#41,#103,.T.) ;
#137=EDGE_CURVE('',#134,#136,#132,.T.) ;
#144=EDGE_CURVE('',#134,#143,#141,.T.) ;
#151=EDGE_CURVE('',#143,#150,#148,.T.) ;
#158=EDGE_CURVE('',#157,#150,#155,.T.) ;
#165=EDGE_CURVE('',#164,#157,#162,.T.) ;
#170=EDGE_CURVE('',#164,#136,#169,.T.) ;
#193=EDGE_CURVE('',#190,#192,#188,.T.) ;
#198=EDGE_CURVE('',#157,#190,#197,.T.) ;
#205=EDGE_CURVE('',#150,#204,#202,.T.) ;
#212=EDGE_CURVE('',#211,#204,#209,.T.) ;
#217=EDGE_CURVE('',#211,#192,#216,.T.) ;
#238=EDGE_CURVE('',#237,#134,#235,.T.) ;
#245=EDGE_CURVE('',#244,#237,#242,.T.) ;
#250=EDGE_CURVE('',#244,#143,#249,.T.) ;
#267=EDGE_CURVE('',#237,#211,#266,.T.) ;
#272=EDGE_CURVE('',#136,#192,#271,.T.) ;
#290=EDGE_CURVE('',#190,#164,#289,.T.) ;
#318=EDGE_CURVE('',#244,#204,#317,.T.) ;
#354=EDGE_CURVE('',#351,#353,#337,.T.) ;
#379=EDGE_CURVE('',#378,#351,#355,.T.) ;
#393=EDGE_CURVE('',#353,#378,#380,.T.) ;
#406=EDGE_CURVE('',#378,#405,#403,.T.) ;
#413=EDGE_CURVE('',#351,#412,#410,.T.) ;
#420=EDGE_CURVE('',#419,#412,#417,.T.) ;
#425=EDGE_CURVE('',#405,#419,#424,.T.) ;
#440=EDGE_CURVE('',#439,#405,#437,.T.) ;
#447=EDGE_CURVE('',#446,#439,#444,.T.) ;
#454=EDGE_CURVE('',#412,#446,#448,.T.) ;
#476=EDGE_CURVE('',#475,#419,#473,.F.) ;
#483=EDGE_CURVE('',#482,#446,#480,.F.) ;
#488=EDGE_CURVE('',#91,#482,#487,.F.) ;
#493=EDGE_CURVE('',#50,#475,#492,.F.) ;
#71=EDGE_LOOP('',(#72,#73,#74,#75,#76)) ;
#105=EDGE_LOOP('',(#106,#107,#108,#109,#110,#111)) ;
#119=EDGE_LOOP('',(#120,#121)) ;
#171=EDGE_LOOP('',(#172,#173,#174,#175,#176,#177)) ;
#218=EDGE_LOOP('',(#219,#220,#221,#222,#223,#224)) ;
#251=EDGE_LOOP('',(#252,#253,#254,#255)) ;
#273=EDGE_LOOP('',(#274,#275,#276,#277,#278)) ;
#291=EDGE_LOOP('',(#292,#293,#294)) ;
#302=EDGE_LOOP('',(#303,#304,#305,#306)) ;
#319=EDGE_LOOP('',(#320,#321,#322,#323)) ;
#331=EDGE_LOOP('',(#332,#333,#334,#335)) ;
#394=EDGE_LOOP('',(#395,#396,#397)) ;
#426=EDGE_LOOP('',(#427,#428,#429,#430,#431)) ;
#455=EDGE_LOOP('',(#456,#457,#458,#459,#460,#461,#462)) ;
#494=EDGE_LOOP('',(#495,#496,#497,#498,#499,#500,#501,#502)) ;
#510=EDGE_LOOP('',(#511,#512,#513,#514,#515,#516,#517,#518,#519,#520)) ;
#77=FACE_OUTER_BOUND('',#71,.T.) ;
#112=FACE_OUTER_BOUND('',#105,.T.) ;
#122=FACE_OUTER_BOUND('',#119,.T.) ;
#178=FACE_OUTER_BOUND('',#171,.T.) ;
#225=FACE_OUTER_BOUND('',#218,.T.) ;
#256=FACE_OUTER_BOUND('',#251,.T.) ;
#279=FACE_OUTER_BOUND('',#273,.T.) ;
#295=FACE_OUTER_BOUND('',#291,.T.) ;
#307=FACE_OUTER_BOUND('',#302,.T.) ;
#324=FACE_OUTER_BOUND('',#319,.T.) ;
#336=FACE_OUTER_BOUND('',#331,.T.) ;
#432=FACE_OUTER_BOUND('',#426,.T.) ;
#463=FACE_OUTER_BOUND('',#455,.T.) ;
#503=FACE_OUTER_BOUND('',#494,.T.) ;
#521=FACE_OUTER_BOUND('',#510,.T.) ;
#39=LINE('Line',#36,#38) ;
#62=LINE('Line',#59,#61) ;
#132=LINE('Line',#129,#131) ;
#141=LINE('Line',#138,#140) ;
#148=LINE('Line',#145,#147) ;
#155=LINE('Line',#152,#154) ;
#162=LINE('Line',#159,#161) ;
#169=LINE('Line',#166,#168) ;
#188=LINE('Line',#185,#187) ;
#197=LINE('Line',#194,#196) ;
#202=LINE('Line',#199,#201) ;
#209=LINE('Line',#206,#208) ;
#216=LINE('Line',#213,#215) ;
#235=LINE('Line',#232,#234) ;
#242=LINE('Line',#239,#241) ;
#249=LINE('Line',#246,#248) ;
#266=LINE('Line',#263,#265) ;
#271=LINE('Line',#268,#270) ;
#289=LINE('Line',#286,#288) ;
#317=LINE('Line',#314,#316) ;
#403=LINE('Line',#400,#402) ;
#410=LINE('Line',#407,#409) ;
#118=PLANE('',#117) ;
#128=PLANE('',#127) ;
#184=PLANE('',#183) ;
#231=PLANE('',#230) ;
#262=PLANE('',#261) ;
#285=PLANE('',#284) ;
#301=PLANE('',#300) ;
#313=PLANE('',#312) ;
#330=PLANE('',#329) ;
#9=PRODUCT_CATEGORY_RELATIONSHIP(' ',' ',#7,#8) ;
#6=PRODUCT_DEFINITION_FORMATION_WITH_SPECIFIED_SOURCE('',' ',#5,.NOT_KNOWN.) ;
#20=SHAPE_DEFINITION_REPRESENTATION(#11,#19) ;
#41=VERTEX_POINT('',#40) ;
#43=VERTEX_POINT('',#42) ;
#50=VERTEX_POINT('',#49) ;
#57=VERTEX_POINT('',#56) ;
#64=VERTEX_POINT('',#63) ;
#91=VERTEX_POINT('',#90) ;
#98=VERTEX_POINT('',#97) ;
#134=VERTEX_POINT('',#133) ;
#136=VERTEX_POINT('',#135) ;
#143=VERTEX_POINT('',#142) ;
#150=VERTEX_POINT('',#149) ;
#157=VERTEX_POINT('',#156) ;
#164=VERTEX_POINT('',#163) ;
#190=VERTEX_POINT('',#189) ;
#192=VERTEX_POINT('',#191) ;
#204=VERTEX_POINT('',#203) ;
#211=VERTEX_POINT('',#210) ;
#237=VERTEX_POINT('',#236) ;
#244=VERTEX_POINT('',#243) ;
#351=VERTEX_POINT('',#350) ;
#353=VERTEX_POINT('',#352) ;
#378=VERTEX_POINT('',#377) ;
#405=VERTEX_POINT('',#404) ;
#412=VERTEX_POINT('',#411) ;
#419=VERTEX_POINT('',#418) ;
#439=VERTEX_POINT('',#438) ;
#446=VERTEX_POINT('',#445) ;
#475=VERTEX_POINT('',#474) ;
#482=VERTEX_POINT('',#481) ;
#12=(LENGTH_UNIT()NAMED_UNIT(*)SI_UNIT(.MILLI.,.METRE.)) ;
#13=(NAMED_UNIT(*)PLANE_ANGLE_UNIT()SI_UNIT($,.RADIAN.)) ;
#14=(NAMED_UNIT(*)SI_UNIT($,.STERADIAN.)SOLID_ANGLE_UNIT()) ;
#16=(GEOMETRIC_REPRESENTATION_CONTEXT(3)GLOBAL_UNCERTAINTY_ASSIGNED_CONTEXT((#15))GLOBAL_UNIT_ASSIGNED_CONTEXT((#12,#13,#14))REPRESENTATION_CONTEXT(' ',' ')) ;
ENDSEC;
END-ISO-10303-21;
