ISO-10303-21;
HEADER;
FILE_DESCRIPTION(('CATIA V5R24 STEP','CAx-IF Rec.Pracs.--- Model Styling and Organization---1.2---2011-12-15'),'2;1');

FILE_NAME ('035202-1_1', '2018-08-13T09:56:07+00:00', ('Weidmueller Interface'), ('Weidmueller'), 'CATIA Version 5-6 Release 2014 SP4 HF52', 'CATIA V5 STEP AP214', 'none');

FILE_SCHEMA(('AUTOMOTIVE_DESIGN { 1 0 10303 214 1 1 1 1 }'));

ENDSEC;
DATA;
#5=PRODUCT('0266800000','','',(#2)) ;
#2=PRODUCT_CONTEXT(' ',#1,'mechanical') ;
#1=APPLICATION_CONTEXT('automotive design') ;
#10=PRODUCT_DEFINITION('',' ',#6,#3) ;
#3=PRODUCT_DEFINITION_CONTEXT('part definition',#1,' ') ;
#11=PRODUCT_DEFINITION_SHAPE(' ',' ',#10) ;
#336=MECHANICAL_DESIGN_GEOMETRIC_PRESENTATION_REPRESENTATION(' ',(#46),#16) ;
#19=SHAPE_REPRESENTATION(' ',(#18),#16) ;
#18=AXIS2_PLACEMENT_3D(' ',#17,$,$) ;
#24=AXIS2_PLACEMENT_3D('Plane Axis2P3D',#21,#22,#23) ;
#31=AXIS2_PLACEMENT_3D('Plane Axis2P3D',#28,#29,#30) ;
#36=AXIS2_PLACEMENT_3D('Plane Axis2P3D',#33,#34,#35) ;
#52=AXIS2_PLACEMENT_3D('Plane Axis2P3D',#49,#50,#51) ;
#56=AXIS2_PLACEMENT_3D('Circle Axis2P3D',#54,#55,$) ;
#65=AXIS2_PLACEMENT_3D('Circle Axis2P3D',#63,#64,$) ;
#76=AXIS2_PLACEMENT_3D('Cylinder Axis2P3D',#73,#74,#75) ;
#94=AXIS2_PLACEMENT_3D('Circle Axis2P3D',#92,#93,$) ;
#107=AXIS2_PLACEMENT_3D('Cylinder Axis2P3D',#104,#105,#106) ;
#111=AXIS2_PLACEMENT_3D('Circle Axis2P3D',#109,#110,$) ;
#124=AXIS2_PLACEMENT_3D('Plane Axis2P3D',#121,#122,#123) ;
#128=AXIS2_PLACEMENT_3D('Circle Axis2P3D',#126,#127,$) ;
#137=AXIS2_PLACEMENT_3D('Circle Axis2P3D',#135,#136,$) ;
#152=AXIS2_PLACEMENT_3D('Cylinder Axis2P3D',#149,#150,#151) ;
#156=AXIS2_PLACEMENT_3D('Circle Axis2P3D',#154,#155,$) ;
#177=AXIS2_PLACEMENT_3D('Circle Axis2P3D',#175,#176,$) ;
#191=AXIS2_PLACEMENT_3D('Circle Axis2P3D',#189,#190,$) ;
#215=AXIS2_PLACEMENT_3D('Cylinder Axis2P3D',#212,#213,#214) ;
#219=AXIS2_PLACEMENT_3D('Circle Axis2P3D',#217,#218,$) ;
#226=AXIS2_PLACEMENT_3D('Circle Axis2P3D',#224,#225,$) ;
#240=AXIS2_PLACEMENT_3D('Circle Axis2P3D',#238,#239,$) ;
#264=AXIS2_PLACEMENT_3D('Plane Axis2P3D',#261,#262,#263) ;
#291=AXIS2_PLACEMENT_3D('Plane Axis2P3D',#288,#289,#290) ;
#308=AXIS2_PLACEMENT_3D('Plane Axis2P3D',#305,#306,#307) ;
#325=AXIS2_PLACEMENT_3D('Plane Axis2P3D',#322,#323,#324) ;
#17=CARTESIAN_POINT(' ',(0.,0.,0.)) ;
#21=CARTESIAN_POINT('Axis2P3D Location',(0.,0.,0.)) ;
#28=CARTESIAN_POINT('Axis2P3D Location',(0.,0.,0.)) ;
#33=CARTESIAN_POINT('Axis2P3D Location',(0.,0.,0.)) ;
#49=CARTESIAN_POINT('Axis2P3D Location',(1.9,1.9,-1.16341445919E-016)) ;
#54=CARTESIAN_POINT('Axis2P3D Location',(1.9,1.9,-1.16341445919E-016)) ;
#58=CARTESIAN_POINT('Vertex',(2.99697820246,2.49928192385,-1.5303688041E-016)) ;
#60=CARTESIAN_POINT('Vertex',(0.803021797538,1.30071807615,-7.96460114278E-017)) ;
#63=CARTESIAN_POINT('Axis2P3D Location',(1.9,1.9,-1.16341445919E-016)) ;
#73=CARTESIAN_POINT('Axis2P3D Location',(1.9,1.9,8.)) ;
#78=CARTESIAN_POINT('Line Origine',(2.99697820236,2.49928192326,8.)) ;
#82=CARTESIAN_POINT('Vertex',(2.99697820236,2.49928192326,14.)) ;
#85=CARTESIAN_POINT('Line Origine',(0.803021797637,1.30071807674,8.)) ;
#89=CARTESIAN_POINT('Vertex',(0.803021797637,1.30071807674,14.)) ;
#92=CARTESIAN_POINT('Axis2P3D Location',(1.9,1.9,14.)) ;
#104=CARTESIAN_POINT('Axis2P3D Location',(1.9,1.9,8.)) ;
#109=CARTESIAN_POINT('Axis2P3D Location',(1.9,1.9,14.)) ;
#121=CARTESIAN_POINT('Axis2P3D Location',(3.15,1.9,14.)) ;
#126=CARTESIAN_POINT('Axis2P3D Location',(1.9,1.9,14.)) ;
#130=CARTESIAN_POINT('Vertex',(3.56740686819,2.81090852395,14.)) ;
#132=CARTESIAN_POINT('Vertex',(0.23259313181,0.989091476053,14.)) ;
#135=CARTESIAN_POINT('Axis2P3D Location',(1.9,1.9,14.)) ;
#149=CARTESIAN_POINT('Axis2P3D Location',(1.9,1.9,8.)) ;
#154=CARTESIAN_POINT('Axis2P3D Location',(1.9,1.9,16.)) ;
#158=CARTESIAN_POINT('Vertex',(3.56740686759,2.81090852335,16.)) ;
#160=CARTESIAN_POINT('Vertex',(2.2,3.77616630393,16.)) ;
#163=CARTESIAN_POINT('Line Origine',(3.56740686759,2.81090852335,8.)) ;
#168=CARTESIAN_POINT('Line Origine',(0.232593132408,0.989091476652,8.)) ;
#172=CARTESIAN_POINT('Vertex',(0.232593132408,0.989091476652,16.)) ;
#175=CARTESIAN_POINT('Axis2P3D Location',(1.9,1.9,16.)) ;
#179=CARTESIAN_POINT('Vertex',(1.6,3.77616630457,16.)) ;
#182=CARTESIAN_POINT('Line Origine',(1.6,3.77616630393,8.)) ;
#186=CARTESIAN_POINT('Vertex',(1.6,3.77616630457,15.0999999996)) ;
#189=CARTESIAN_POINT('Axis2P3D Location',(1.9,1.9,15.0999999996)) ;
#193=CARTESIAN_POINT('Vertex',(2.2,3.77616630393,15.0999999996)) ;
#196=CARTESIAN_POINT('Line Origine',(2.2,3.77616630393,8.)) ;
#212=CARTESIAN_POINT('Axis2P3D Location',(1.9,1.9,8.)) ;
#217=CARTESIAN_POINT('Axis2P3D Location',(1.9,1.9,16.)) ;
#221=CARTESIAN_POINT('Vertex',(1.6,0.0238336960706,16.)) ;
#224=CARTESIAN_POINT('Axis2P3D Location',(1.9,1.9,16.)) ;
#228=CARTESIAN_POINT('Vertex',(2.2,0.0238336960706,16.)) ;
#231=CARTESIAN_POINT('Line Origine',(2.2,0.0238336960706,8.)) ;
#235=CARTESIAN_POINT('Vertex',(2.2,0.0238336960706,15.0999999996)) ;
#238=CARTESIAN_POINT('Axis2P3D Location',(1.9,1.9,15.0999999996)) ;
#242=CARTESIAN_POINT('Vertex',(1.6,0.0238336960706,15.0999999996)) ;
#245=CARTESIAN_POINT('Line Origine',(1.6,0.0238336960706,8.)) ;
#261=CARTESIAN_POINT('Axis2P3D Location',(3.8,1.9,16.)) ;
#266=CARTESIAN_POINT('Line Origine',(2.20000000037,1.9,16.)) ;
#277=CARTESIAN_POINT('Line Origine',(1.60000000075,1.9,16.)) ;
#288=CARTESIAN_POINT('Axis2P3D Location',(1.6,1.9,16.)) ;
#293=CARTESIAN_POINT('Line Origine',(1.6,1.9,15.0999999996)) ;
#305=CARTESIAN_POINT('Axis2P3D Location',(2.2,1.9,15.1)) ;
#310=CARTESIAN_POINT('Line Origine',(2.2,1.9,15.1)) ;
#322=CARTESIAN_POINT('Axis2P3D Location',(2.2,1.9,15.1)) ;
#22=DIRECTION('Axis2P3D Direction',(0.,0.,1.)) ;
#23=DIRECTION('Axis2P3D XDirection',(1.,0.,0.)) ;
#29=DIRECTION('Axis2P3D Direction',(1.,0.,0.)) ;
#30=DIRECTION('Axis2P3D XDirection',(0.,1.,0.)) ;
#34=DIRECTION('Axis2P3D Direction',(0.,1.,0.)) ;
#35=DIRECTION('Axis2P3D XDirection',(0.,0.,1.)) ;
#50=DIRECTION('Axis2P3D Direction',(-0.,6.12323399574E-017,1.)) ;
#51=DIRECTION('Axis2P3D XDirection',(1.,0.,0.)) ;
#55=DIRECTION('Axis2P3D Direction',(-0.,6.12323399574E-017,1.)) ;
#64=DIRECTION('Axis2P3D Direction',(-0.,6.12323399574E-017,1.)) ;
#74=DIRECTION('Axis2P3D Direction',(0.,6.12323399574E-017,1.)) ;
#75=DIRECTION('Axis2P3D XDirection',(0.87758256189,0.479425538604,-2.93563475641E-017)) ;
#79=DIRECTION('Vector Direction',(0.,6.12323525218E-017,1.)) ;
#86=DIRECTION('Vector Direction',(0.,6.12323525218E-017,1.)) ;
#93=DIRECTION('Axis2P3D Direction',(0.,6.12323399574E-017,1.)) ;
#105=DIRECTION('Axis2P3D Direction',(0.,6.12323399574E-017,1.)) ;
#106=DIRECTION('Axis2P3D XDirection',(-0.87758256189,-0.479425538604,2.93563475641E-017)) ;
#110=DIRECTION('Axis2P3D Direction',(0.,6.12323399574E-017,1.)) ;
#122=DIRECTION('Axis2P3D Direction',(-0.,6.12323399574E-017,1.)) ;
#123=DIRECTION('Axis2P3D XDirection',(1.,0.,0.)) ;
#127=DIRECTION('Axis2P3D Direction',(-0.,6.12323399574E-017,1.)) ;
#136=DIRECTION('Axis2P3D Direction',(-0.,6.12323399574E-017,1.)) ;
#150=DIRECTION('Axis2P3D Direction',(0.,6.12323399574E-017,1.)) ;
#151=DIRECTION('Axis2P3D XDirection',(0.87758256189,0.479425538604,-2.93563475641E-017)) ;
#155=DIRECTION('Axis2P3D Direction',(0.,6.12323399574E-017,1.)) ;
#164=DIRECTION('Vector Direction',(0.,6.12323525218E-017,1.)) ;
#169=DIRECTION('Vector Direction',(0.,6.12323525218E-017,1.)) ;
#176=DIRECTION('Axis2P3D Direction',(0.,6.12323399574E-017,1.)) ;
#183=DIRECTION('Vector Direction',(0.,6.12323525218E-017,1.)) ;
#190=DIRECTION('Axis2P3D Direction',(0.,6.12323399574E-017,1.)) ;
#197=DIRECTION('Vector Direction',(0.,6.12323525218E-017,1.)) ;
#213=DIRECTION('Axis2P3D Direction',(0.,6.12323399574E-017,1.)) ;
#214=DIRECTION('Axis2P3D XDirection',(-0.87758256189,-0.479425538604,2.93563475641E-017)) ;
#218=DIRECTION('Axis2P3D Direction',(0.,6.12323399574E-017,1.)) ;
#225=DIRECTION('Axis2P3D Direction',(0.,6.12323399574E-017,1.)) ;
#232=DIRECTION('Vector Direction',(0.,6.12323525218E-017,1.)) ;
#239=DIRECTION('Axis2P3D Direction',(0.,6.12323399574E-017,1.)) ;
#246=DIRECTION('Vector Direction',(0.,6.12323525218E-017,1.)) ;
#262=DIRECTION('Axis2P3D Direction',(-0.,6.12323399574E-017,1.)) ;
#263=DIRECTION('Axis2P3D XDirection',(1.,0.,0.)) ;
#267=DIRECTION('Vector Direction',(0.,1.,0.)) ;
#278=DIRECTION('Vector Direction',(0.,1.,0.)) ;
#289=DIRECTION('Axis2P3D Direction',(1.,0.,0.)) ;
#290=DIRECTION('Axis2P3D XDirection',(0.,-6.12323399574E-017,-1.)) ;
#294=DIRECTION('Vector Direction',(0.,1.,0.)) ;
#306=DIRECTION('Axis2P3D Direction',(-0.,-6.12323399574E-017,-1.)) ;
#307=DIRECTION('Axis2P3D XDirection',(-1.,0.,0.)) ;
#311=DIRECTION('Vector Direction',(0.,1.,0.)) ;
#323=DIRECTION('Axis2P3D Direction',(-1.,0.,0.)) ;
#324=DIRECTION('Axis2P3D XDirection',(0.,6.12323399574E-017,1.)) ;
#47=PRESENTATION_LAYER_ASSIGNMENT('1',' ',(#38)) ;
#8=PRODUCT_RELATED_PRODUCT_CATEGORY('part',$,(#5)) ;
#7=PRODUCT_CATEGORY('part','specification') ;
#46=STYLED_ITEM(' ',(#45),#38) ;
#45=PRESENTATION_STYLE_ASSIGNMENT((#44)) ;
#44=SURFACE_STYLE_USAGE(.BOTH.,#43) ;
#43=SURFACE_SIDE_STYLE(' ',(#42)) ;
#42=SURFACE_STYLE_FILL_AREA(#41) ;
#41=FILL_AREA_STYLE(' ',(#40)) ;
#40=FILL_AREA_STYLE_COLOUR(' ',#39) ;
#80=VECTOR('Line Direction',#79,1.) ;
#87=VECTOR('Line Direction',#86,1.) ;
#165=VECTOR('Line Direction',#164,1.) ;
#170=VECTOR('Line Direction',#169,1.) ;
#184=VECTOR('Line Direction',#183,1.) ;
#198=VECTOR('Line Direction',#197,1.) ;
#233=VECTOR('Line Direction',#232,1.) ;
#247=VECTOR('Line Direction',#246,1.) ;
#268=VECTOR('Line Direction',#267,1.) ;
#279=VECTOR('Line Direction',#278,1.) ;
#295=VECTOR('Line Direction',#294,1.) ;
#312=VECTOR('Line Direction',#311,1.) ;
#15=UNCERTAINTY_MEASURE_WITH_UNIT(LENGTH_MEASURE(0.005),#12,'distance_accuracy_value','CONFUSED CURVE UNCERTAINTY') ;
#335=SHAPE_REPRESENTATION_RELATIONSHIP(' ',' ',#19,#334) ;
#69=ORIENTED_EDGE('',*,*,#62,.F.) ;
#70=ORIENTED_EDGE('',*,*,#67,.F.) ;
#98=ORIENTED_EDGE('',*,*,#84,.F.) ;
#99=ORIENTED_EDGE('',*,*,#62,.T.) ;
#100=ORIENTED_EDGE('',*,*,#91,.T.) ;
#101=ORIENTED_EDGE('',*,*,#96,.T.) ;
#115=ORIENTED_EDGE('',*,*,#67,.T.) ;
#116=ORIENTED_EDGE('',*,*,#84,.T.) ;
#117=ORIENTED_EDGE('',*,*,#113,.T.) ;
#118=ORIENTED_EDGE('',*,*,#91,.F.) ;
#141=ORIENTED_EDGE('',*,*,#134,.F.) ;
#142=ORIENTED_EDGE('',*,*,#139,.F.) ;
#145=ORIENTED_EDGE('',*,*,#113,.F.) ;
#146=ORIENTED_EDGE('',*,*,#96,.F.) ;
#202=ORIENTED_EDGE('',*,*,#162,.F.) ;
#203=ORIENTED_EDGE('',*,*,#167,.F.) ;
#204=ORIENTED_EDGE('',*,*,#134,.T.) ;
#205=ORIENTED_EDGE('',*,*,#174,.T.) ;
#206=ORIENTED_EDGE('',*,*,#181,.F.) ;
#207=ORIENTED_EDGE('',*,*,#188,.T.) ;
#208=ORIENTED_EDGE('',*,*,#195,.T.) ;
#209=ORIENTED_EDGE('',*,*,#200,.F.) ;
#251=ORIENTED_EDGE('',*,*,#223,.F.) ;
#252=ORIENTED_EDGE('',*,*,#174,.F.) ;
#253=ORIENTED_EDGE('',*,*,#139,.T.) ;
#254=ORIENTED_EDGE('',*,*,#167,.T.) ;
#255=ORIENTED_EDGE('',*,*,#230,.F.) ;
#256=ORIENTED_EDGE('',*,*,#237,.T.) ;
#257=ORIENTED_EDGE('',*,*,#244,.T.) ;
#258=ORIENTED_EDGE('',*,*,#249,.F.) ;
#272=ORIENTED_EDGE('',*,*,#230,.T.) ;
#273=ORIENTED_EDGE('',*,*,#162,.T.) ;
#274=ORIENTED_EDGE('',*,*,#270,.F.) ;
#283=ORIENTED_EDGE('',*,*,#181,.T.) ;
#284=ORIENTED_EDGE('',*,*,#223,.T.) ;
#285=ORIENTED_EDGE('',*,*,#281,.T.) ;
#299=ORIENTED_EDGE('',*,*,#249,.T.) ;
#300=ORIENTED_EDGE('',*,*,#297,.T.) ;
#301=ORIENTED_EDGE('',*,*,#188,.F.) ;
#302=ORIENTED_EDGE('',*,*,#281,.F.) ;
#316=ORIENTED_EDGE('',*,*,#314,.T.) ;
#317=ORIENTED_EDGE('',*,*,#195,.F.) ;
#318=ORIENTED_EDGE('',*,*,#297,.F.) ;
#319=ORIENTED_EDGE('',*,*,#244,.F.) ;
#328=ORIENTED_EDGE('',*,*,#237,.F.) ;
#329=ORIENTED_EDGE('',*,*,#270,.T.) ;
#330=ORIENTED_EDGE('',*,*,#200,.T.) ;
#331=ORIENTED_EDGE('',*,*,#314,.F.) ;
#147=FACE_BOUND('',#144,.T.) ;
#48=CLOSED_SHELL('Closed Shell',(#72,#103,#120,#148,#211,#260,#276,#287,#304,#321,#333)) ;
#334=ADVANCED_BREP_SHAPE_REPRESENTATION('NONE',(#38),#16) ;
#72=ADVANCED_FACE('K\X2\00F6\X0\rper.4',(#71),#53,.F.) ;
#103=ADVANCED_FACE('K\X2\00F6\X0\rper.4',(#102),#77,.T.) ;
#120=ADVANCED_FACE('K\X2\00F6\X0\rper.4',(#119),#108,.T.) ;
#148=ADVANCED_FACE('K\X2\00F6\X0\rper.4',(#143,#147),#125,.F.) ;
#211=ADVANCED_FACE('K\X2\00F6\X0\rper.4',(#210),#153,.T.) ;
#260=ADVANCED_FACE('K\X2\00F6\X0\rper.4',(#259),#216,.T.) ;
#276=ADVANCED_FACE('K\X2\00F6\X0\rper.4',(#275),#265,.T.) ;
#287=ADVANCED_FACE('K\X2\00F6\X0\rper.4',(#286),#265,.T.) ;
#304=ADVANCED_FACE('K\X2\00F6\X0\rper.4',(#303),#292,.T.) ;
#321=ADVANCED_FACE('K\X2\00F6\X0\rper.4',(#320),#309,.F.) ;
#333=ADVANCED_FACE('K\X2\00F6\X0\rper.4',(#332),#326,.T.) ;
#4=APPLICATION_PROTOCOL_DEFINITION('international standard','automotive_design',2001,#1) ;
#38=MANIFOLD_SOLID_BREP('K\X2\00F6\X0\rper.4',#48) ;
#57=CIRCLE('generated circle',#56,1.25000000037) ;
#66=CIRCLE('generated circle',#65,1.25000000037) ;
#95=CIRCLE('generated circle',#94,1.25) ;
#112=CIRCLE('generated circle',#111,1.25) ;
#129=CIRCLE('generated circle',#128,1.90000000081) ;
#138=CIRCLE('generated circle',#137,1.90000000081) ;
#157=CIRCLE('generated circle',#156,1.9) ;
#178=CIRCLE('generated circle',#177,1.9) ;
#192=CIRCLE('generated circle',#191,1.9) ;
#220=CIRCLE('generated circle',#219,1.9) ;
#227=CIRCLE('generated circle',#226,1.9) ;
#241=CIRCLE('generated circle',#240,1.9) ;
#39=COLOUR_RGB('Colour',0.823529411765,0.823529411765,1.) ;
#26=CONSTRUCTIVE_GEOMETRY_REPRESENTATION('supplemental geometry',(#25,#32,#37),#16) ;
#27=CONSTRUCTIVE_GEOMETRY_REPRESENTATION_RELATIONSHIP('supplemental geometry','',#19,#26) ;
#77=CYLINDRICAL_SURFACE('generated cylinder',#76,1.25) ;
#108=CYLINDRICAL_SURFACE('generated cylinder',#107,1.25) ;
#153=CYLINDRICAL_SURFACE('generated cylinder',#152,1.9) ;
#216=CYLINDRICAL_SURFACE('generated cylinder',#215,1.9) ;
#62=EDGE_CURVE('',#59,#61,#57,.T.) ;
#67=EDGE_CURVE('',#61,#59,#66,.T.) ;
#84=EDGE_CURVE('',#59,#83,#81,.T.) ;
#91=EDGE_CURVE('',#61,#90,#88,.T.) ;
#96=EDGE_CURVE('',#90,#83,#95,.F.) ;
#113=EDGE_CURVE('',#83,#90,#112,.F.) ;
#134=EDGE_CURVE('',#131,#133,#129,.T.) ;
#139=EDGE_CURVE('',#133,#131,#138,.T.) ;
#162=EDGE_CURVE('',#159,#161,#157,.T.) ;
#167=EDGE_CURVE('',#131,#159,#166,.T.) ;
#174=EDGE_CURVE('',#133,#173,#171,.T.) ;
#181=EDGE_CURVE('',#180,#173,#178,.T.) ;
#188=EDGE_CURVE('',#180,#187,#185,.F.) ;
#195=EDGE_CURVE('',#187,#194,#192,.F.) ;
#200=EDGE_CURVE('',#161,#194,#199,.F.) ;
#223=EDGE_CURVE('',#173,#222,#220,.T.) ;
#230=EDGE_CURVE('',#229,#159,#227,.T.) ;
#237=EDGE_CURVE('',#229,#236,#234,.F.) ;
#244=EDGE_CURVE('',#236,#243,#241,.F.) ;
#249=EDGE_CURVE('',#222,#243,#248,.F.) ;
#270=EDGE_CURVE('',#229,#161,#269,.T.) ;
#281=EDGE_CURVE('',#222,#180,#280,.T.) ;
#297=EDGE_CURVE('',#243,#187,#296,.T.) ;
#314=EDGE_CURVE('',#236,#194,#313,.T.) ;
#68=EDGE_LOOP('',(#69,#70)) ;
#97=EDGE_LOOP('',(#98,#99,#100,#101)) ;
#114=EDGE_LOOP('',(#115,#116,#117,#118)) ;
#140=EDGE_LOOP('',(#141,#142)) ;
#144=EDGE_LOOP('',(#145,#146)) ;
#201=EDGE_LOOP('',(#202,#203,#204,#205,#206,#207,#208,#209)) ;
#250=EDGE_LOOP('',(#251,#252,#253,#254,#255,#256,#257,#258)) ;
#271=EDGE_LOOP('',(#272,#273,#274)) ;
#282=EDGE_LOOP('',(#283,#284,#285)) ;
#298=EDGE_LOOP('',(#299,#300,#301,#302)) ;
#315=EDGE_LOOP('',(#316,#317,#318,#319)) ;
#327=EDGE_LOOP('',(#328,#329,#330,#331)) ;
#71=FACE_OUTER_BOUND('',#68,.T.) ;
#102=FACE_OUTER_BOUND('',#97,.T.) ;
#119=FACE_OUTER_BOUND('',#114,.T.) ;
#143=FACE_OUTER_BOUND('',#140,.T.) ;
#210=FACE_OUTER_BOUND('',#201,.T.) ;
#259=FACE_OUTER_BOUND('',#250,.T.) ;
#275=FACE_OUTER_BOUND('',#271,.T.) ;
#286=FACE_OUTER_BOUND('',#282,.T.) ;
#303=FACE_OUTER_BOUND('',#298,.T.) ;
#320=FACE_OUTER_BOUND('',#315,.T.) ;
#332=FACE_OUTER_BOUND('',#327,.T.) ;
#81=LINE('Line',#78,#80) ;
#88=LINE('Line',#85,#87) ;
#166=LINE('Line',#163,#165) ;
#171=LINE('Line',#168,#170) ;
#185=LINE('Line',#182,#184) ;
#199=LINE('Line',#196,#198) ;
#234=LINE('Line',#231,#233) ;
#248=LINE('Line',#245,#247) ;
#269=LINE('Line',#266,#268) ;
#280=LINE('Line',#277,#279) ;
#296=LINE('Line',#293,#295) ;
#313=LINE('Line',#310,#312) ;
#25=PLANE('Referenz_xy',#24) ;
#32=PLANE('Referenz_yz',#31) ;
#37=PLANE('Referenz_zx',#36) ;
#53=PLANE('',#52) ;
#125=PLANE('',#124) ;
#265=PLANE('',#264) ;
#292=PLANE('',#291) ;
#309=PLANE('',#308) ;
#326=PLANE('',#325) ;
#9=PRODUCT_CATEGORY_RELATIONSHIP(' ',' ',#7,#8) ;
#6=PRODUCT_DEFINITION_FORMATION_WITH_SPECIFIED_SOURCE('',' ',#5,.NOT_KNOWN.) ;
#20=SHAPE_DEFINITION_REPRESENTATION(#11,#19) ;
#59=VERTEX_POINT('',#58) ;
#61=VERTEX_POINT('',#60) ;
#83=VERTEX_POINT('',#82) ;
#90=VERTEX_POINT('',#89) ;
#131=VERTEX_POINT('',#130) ;
#133=VERTEX_POINT('',#132) ;
#159=VERTEX_POINT('',#158) ;
#161=VERTEX_POINT('',#160) ;
#173=VERTEX_POINT('',#172) ;
#180=VERTEX_POINT('',#179) ;
#187=VERTEX_POINT('',#186) ;
#194=VERTEX_POINT('',#193) ;
#222=VERTEX_POINT('',#221) ;
#229=VERTEX_POINT('',#228) ;
#236=VERTEX_POINT('',#235) ;
#243=VERTEX_POINT('',#242) ;
#12=(LENGTH_UNIT()NAMED_UNIT(*)SI_UNIT(.MILLI.,.METRE.)) ;
#13=(NAMED_UNIT(*)PLANE_ANGLE_UNIT()SI_UNIT($,.RADIAN.)) ;
#14=(NAMED_UNIT(*)SI_UNIT($,.STERADIAN.)SOLID_ANGLE_UNIT()) ;
#16=(GEOMETRIC_REPRESENTATION_CONTEXT(3)GLOBAL_UNCERTAINTY_ASSIGNED_CONTEXT((#15))GLOBAL_UNIT_ASSIGNED_CONTEXT((#12,#13,#14))REPRESENTATION_CONTEXT(' ',' ')) ;
ENDSEC;
END-ISO-10303-21;
